  0
SECTION
  2
HEADER
  9
$ACADVER
  1
AC1015
  9
$ACADMAINTVER
 70
     6
  9
$DWGCODEPAGE
  3
ANSI_1252
  9
$INSBASE
 10
0.0
 20
0.0
 30
0.0
  9
$EXTMIN
 10
0.0
 20
0.0
 30
0.0
  9
$EXTMAX
 10
8.5
 20
11.0
 30
0.0
  9
$LIMMIN
 10
0.0
 20
0.0
  9
$LIMMAX
 10
8.5
 20
11.0
  9
$ORTHOMODE
 70
     0
  9
$REGENMODE
 70
     1
  9
$FILLMODE
 70
     1
  9
$QTEXTMODE
 70
     0
  9
$MIRRTEXT
 70
     1
  9
$LTSCALE
 40
1.0
  9
$ATTMODE
 70
     1
  9
$TEXTSIZE
 40
0.09
  9
$TRACEWID
 40
0.05
  9
$TEXTSTYLE
  7
Standard
  9
$CLAYER
  8
0
  9
$CELTYPE
  6
ByLayer
  9
$CECOLOR
 62
   256
  9
$CELTSCALE
 40
1.0
  9
$DISPSILH
 70
     0
  9
$DIMSCALE
 40
1.0
  9
$DIMASZ
 40
0.13
  9
$DIMEXO
 40
0.05
  9
$DIMDLI
 40
0.38
  9
$DIMRND
 40
0.0
  9
$DIMDLE
 40
0.0
  9
$DIMEXE
 40
0.125
  9
$DIMTP
 40
0.0
  9
$DIMTM
 40
0.0
  9
$DIMTXT
 40
0.09
  9
$DIMCEN
 40
0.09
  9
$DIMTSZ
 40
0.0
  9
$DIMTOL
 70
     0
  9
$DIMLIM
 70
     0
  9
$DIMTIH
 70
     1
  9
$DIMTOH
 70
     1
  9
$DIMSE1
 70
     0
  9
$DIMSE2
 70
     0
  9
$DIMTAD
 70
     1
  9
$DIMZIN
 70
     1
  9
$DIMBLK
  1

  9
$DIMASO
 70
     1
  9
$DIMSHO
 70
     1
  9
$DIMPOST
  1

  9
$DIMAPOST
  1

  9
$DIMALT
 70
     0
  9
$DIMALTD
 70
     2
  9
$DIMALTF
 40
25.4
  9
$DIMLFAC
 40
4.0
  9
$DIMTOFL
 70
     0
  9
$DIMTVP
 40
0.0
  9
$DIMTIX
 70
     0
  9
$DIMSOXD
 70
     0
  9
$DIMSAH
 70
     0
  9
$DIMBLK1
  1

  9
$DIMBLK2
  1

  9
$DIMSTYLE
  2
Standard
  9
$DIMCLRD
 70
     0
  9
$DIMCLRE
 70
     0
  9
$DIMCLRT
 70
     0
  9
$DIMTFAC
 40
1.0
  9
$DIMGAP
 40
0.06
  9
$DIMJUST
 70
     0
  9
$DIMSD1
 70
     0
  9
$DIMSD2
 70
     0
  9
$DIMTOLJ
 70
     1
  9
$DIMTZIN
 70
     1
  9
$DIMALTZ
 70
     0
  9
$DIMALTTZ
 70
     0
  9
$DIMUPT
 70
     0
  9
$DIMDEC
 70
     3
  9
$DIMTDEC
 70
     3
  9
$DIMALTU
 70
     2
  9
$DIMALTTD
 70
     2
  9
$DIMTXSTY
  7
Standard
  9
$DIMAUNIT
 70
     0
  9
$DIMADEC
 70
     3
  9
$DIMALTRND
 40
0.0
  9
$DIMAZIN
 70
     0
  9
$DIMDSEP
 70
    46
  9
$DIMATFIT
 70
     3
  9
$DIMFRAC
 70
     0
  9
$DIMLDRBLK
  1

  9
$DIMLUNIT
 70
     2
  9
$DIMLWD
 70
    -2
  9
$DIMLWE
 70
    -2
  9
$DIMTMOVE
 70
     0
  9
$LUNITS
 70
     2
  9
$LUPREC
 70
     3
  9
$SKETCHINC
 40
0.1
  9
$FILLETRAD
 40
0.5
  9
$AUNITS
 70
     0
  9
$AUPREC
 70
     2
  9
$MENU
  1
.
  9
$ELEVATION
 40
0.0
  9
$PELEVATION
 40
0.0
  9
$THICKNESS
 40
0.0
  9
$LIMCHECK
 70
     0
  9
$CHAMFERA
 40
0.0
  9
$CHAMFERB
 40
0.0
  9
$CHAMFERC
 40
0.0
  9
$CHAMFERD
 40
0.0
  9
$SKPOLY
 70
     0
  9
$TDCREATE
 40
2457815.357544248
  9
$TDUCREATE
 40
2457815.565877581
  9
$TDUPDATE
 40
2457815.357544711
  9
$TDUUPDATE
 40
2457815.565878044
  9
$TDINDWG
 40
0.0000000116
  9
$TDUSRTIMER
 40
0.0000000116
  9
$USRTIMER
 70
     1
  9
$ANGBASE
 50
0.0
  9
$ANGDIR
 70
     0
  9
$PDMODE
 70
     0
  9
$PDSIZE
 40
-1.0
  9
$PLINEWID
 40
0.0
  9
$SPLFRAME
 70
     0
  9
$SPLINETYPE
 70
     6
  9
$SPLINESEGS
 70
     8
  9
$HANDSEED
  5
345
  9
$SURFTAB1
 70
     6
  9
$SURFTAB2
 70
     6
  9
$SURFTYPE
 70
     6
  9
$SURFU
 70
     6
  9
$SURFV
 70
     6
  9
$UCSBASE
  2

  9
$UCSNAME
  2

  9
$UCSORG
 10
0.0
 20
0.0
 30
0.0
  9
$UCSXDIR
 10
1.0
 20
0.0
 30
0.0
  9
$UCSYDIR
 10
0.0
 20
1.0
 30
0.0
  9
$UCSORTHOREF
  2

  9
$UCSORTHOVIEW
 70
     0
  9
$UCSORGTOP
 10
0.0
 20
0.0
 30
0.0
  9
$UCSORGBOTTOM
 10
0.0
 20
0.0
 30
0.0
  9
$UCSORGLEFT
 10
0.0
 20
0.0
 30
0.0
  9
$UCSORGRIGHT
 10
0.0
 20
0.0
 30
0.0
  9
$UCSORGFRONT
 10
0.0
 20
0.0
 30
0.0
  9
$UCSORGBACK
 10
0.0
 20
0.0
 30
0.0
  9
$PUCSBASE
  2

  9
$PUCSNAME
  2

  9
$PUCSORG
 10
0.0
 20
0.0
 30
0.0
  9
$PUCSXDIR
 10
1.0
 20
0.0
 30
0.0
  9
$PUCSYDIR
 10
0.0
 20
1.0
 30
0.0
  9
$PUCSORTHOREF
  2

  9
$PUCSORTHOVIEW
 70
     0
  9
$PUCSORGTOP
 10
0.0
 20
0.0
 30
0.0
  9
$PUCSORGBOTTOM
 10
0.0
 20
0.0
 30
0.0
  9
$PUCSORGLEFT
 10
0.0
 20
0.0
 30
0.0
  9
$PUCSORGRIGHT
 10
0.0
 20
0.0
 30
0.0
  9
$PUCSORGFRONT
 10
0.0
 20
0.0
 30
0.0
  9
$PUCSORGBACK
 10
0.0
 20
0.0
 30
0.0
  9
$USERI1
 70
     0
  9
$USERI2
 70
     0
  9
$USERI3
 70
     0
  9
$USERI4
 70
     0
  9
$USERI5
 70
     0
  9
$USERR1
 40
0.0
  9
$USERR2
 40
0.0
  9
$USERR3
 40
0.0
  9
$USERR4
 40
0.0
  9
$USERR5
 40
0.0
  9
$WORLDVIEW
 70
     1
  9
$SHADEDGE
 70
     3
  9
$SHADEDIF
 70
    70
  9
$TILEMODE
 70
     1
  9
$MAXACTVP
 70
    64
  9
$PINSBASE
 10
0.0
 20
0.0
 30
0.0
  9
$PLIMCHECK
 70
     0
  9
$PEXTMIN
 10
1.0000000000E+20
 20
1.0000000000E+20
 30
1.0000000000E+20
  9
$PEXTMAX
 10
-1.0000000000E+20
 20
-1.0000000000E+20
 30
-1.0000000000E+20
  9
$PLIMMIN
 10
0.0
 20
0.0
  9
$PLIMMAX
 10
12.0
 20
9.0
  9
$UNITMODE
 70
     0
  9
$VISRETAIN
 70
     1
  9
$PLINEGEN
 70
     0
  9
$PSLTSCALE
 70
     1
  9
$TREEDEPTH
 70
  3020
  9
$CMLSTYLE
  2
Standard
  9
$CMLJUST
 70
     0
  9
$CMLSCALE
 40
1.0
  9
$PROXYGRAPHICS
 70
     1
  9
$MEASUREMENT
 70
     0
  9
$CELWEIGHT
370
    -1
  9
$ENDCAPS
280
     0
  9
$JOINSTYLE
280
     0
  9
$LWDISPLAY
290
     1
  9
$INSUNITS
 70
     1
  9
$HYPERLINKBASE
  1

  9
$STYLESHEET
  1

  9
$XEDIT
290
     1
  9
$CEPSNTYPE
380
     0
  9
$PSTYLEMODE
290
     1
  9
$FINGERPRINTGUID
  2
{819EA803-35C5-4884-9832-6A45721A58BC}
  9
$VERSIONGUID
  2
{FAEB1C32-E019-11D5-929B-00C0DF256EC4}
  9
$EXTNAMES
290
     1
  9
$PSVPSCALE
 40
0.0
  9
$OLESTARTUP
290
     0
  0
ENDSEC
  0
SECTION
  2
CLASSES
  0
CLASS
  1
ACDBDICTIONARYWDFLT
  2
AcDbDictionaryWithDefault
  3
ObjectDBX Classes
 90
        0
280
     0
281
     0
  0
CLASS
  1
VISUALSTYLE
  2
AcDbVisualStyle
  3
ObjectDBX Classes
 90
     4095
280
     0
281
     0
  0
CLASS
  1
MATERIAL
  2
AcDbMaterial
  3
ObjectDBX Classes
 90
     1153
280
     0
281
     0
  0
CLASS
  1
SCALE
  2
AcDbScale
  3
ObjectDBX Classes
 90
     1153
280
     0
281
     0
  0
CLASS
  1
SUN
  2
AcDbSun
  3
SCENEOE
 90
     1153
280
     0
281
     0
  0
CLASS
  1
ACDBPLACEHOLDER
  2
AcDbPlaceHolder
  3
ObjectDBX Classes
 90
        0
280
     0
281
     0
  0
CLASS
  1
LAYOUT
  2
AcDbLayout
  3
ObjectDBX Classes
 90
        0
280
     0
281
     0
  0
ENDSEC
  0
SECTION
  2
TABLES
  0
TABLE
  2
VPORT
  5
8
330
0
100
AcDbSymbolTable
 70
     1
  0
VPORT
  5
29
330
8
100
AcDbSymbolTableRecord
100
AcDbViewportTableRecord
  2
*Active
 70
     0
 10
0.0
 20
0.0
 11
1.0
 21
1.0
 12
4.25
 22
5.5
 13
0.0
 23
0.0
 14
0.5
 24
0.5
 15
0.5
 25
0.5
 16
0.0
 26
0.0
 36
1.0
 17
0.0
 27
0.0
 37
0.0
 40
11.0
 41
0.7727272727
 42
50.0
 43
0.0
 44
0.0
 50
0.0
 51
0.0
 71
     0
 72
  2000
 73
     1
 74
     3
 75
     0
 76
     0
 77
     0
 78
     0
281
     0
 65
     1
110
0.0
120
0.0
130
0.0
111
1.0
121
0.0
131
0.0
112
0.0
122
1.0
132
0.0
 79
     0
146
0.0
  0
ENDTAB
  0
TABLE
  2
LTYPE
  5
5
330
0
100
AcDbSymbolTable
 70
     6
  0
LTYPE
  5
14
330
5
100
AcDbSymbolTableRecord
100
AcDbLinetypeTableRecord
  2
ByBlock
 70
     0
  3

 72
    65
 73
     0
 40
0.0
  0
LTYPE
  5
15
330
5
100
AcDbSymbolTableRecord
100
AcDbLinetypeTableRecord
  2
ByLayer
 70
     0
  3

 72
    65
 73
     0
 40
0.0
  0
LTYPE
  5
16
330
5
100
AcDbSymbolTableRecord
100
AcDbLinetypeTableRecord
  2
Continuous
 70
     0
  3
Solid line
 72
    65
 73
     0
 40
0.0
  0
LTYPE
  5
6A
330
5
100
AcDbSymbolTableRecord
100
AcDbLinetypeTableRecord
  2
HIDDEN
 70
     0
  3
Hidden __ __ __ __ __ __ __ __ __ __ __ __ __ __
 72
    65
 73
     2
 40
0.075
 49
0.05
 74
     0
 49
-0.025
 74
     0
  0
LTYPE
  5
6B
330
5
100
AcDbSymbolTableRecord
100
AcDbLinetypeTableRecord
  2
PHANTOM
 70
     0
  3
Phantom ______  __  __  ______  __  __  ______
 72
    65
 73
     6
 40
0.5
 49
0.25
 74
     0
 49
-0.05
 74
     0
 49
0.05
 74
     0
 49
-0.05
 74
     0
 49
0.05
 74
     0
 49
-0.05
 74
     0
  0
LTYPE
  5
6C
330
5
100
AcDbSymbolTableRecord
100
AcDbLinetypeTableRecord
  2
CENTER
 70
     0
  3
Center ____ _ ____ _ ____ _ ____ _ ____ _ ____
 72
    65
 73
     4
 40
0.4
 49
0.25
 74
     0
 49
-0.05
 74
     0
 49
0.05
 74
     0
 49
-0.05
 74
     0
  0
LTYPE
  5
6D
330
5
100
AcDbSymbolTableRecord
100
AcDbLinetypeTableRecord
  2
CENTERX2
 70
     0
  3
Center (2x) ________  __  ________  __  _____
 72
    65
 73
     4
 40
0.8
 49
0.5
 74
     0
 49
-0.1
 74
     0
 49
0.1
 74
     0
 49
-0.1
 74
     0
  0
LTYPE
  5
6E
330
5
100
AcDbSymbolTableRecord
100
AcDbLinetypeTableRecord
  2
DOT2
 70
     0
  3
Dot (.5x) ........................................
 72
    65
 73
     2
 40
0.025
 49
0.0
 74
     0
 49
-0.025
 74
     0
  0
ENDTAB
  0
TABLE
  2
LAYER
  5
2
330
0
100
AcDbSymbolTable
 70
     4
  0
LAYER
  5
10
330
2
100
AcDbSymbolTableRecord
100
AcDbLayerTableRecord
  2
0
 70
     0
 62
     7
  6
Continuous
370
    -3
390
F
  0
LAYER
  5
6F
330
2
100
AcDbSymbolTableRecord
100
AcDbLayerTableRecord
  2
SLD-0
 70
     0
 62
   179
  6
Continuous
370
    -3
390
F
  0
LAYER
  5
70
330
2
100
AcDbSymbolTableRecord
100
AcDbLayerTableRecord
  2
3
 70
     0
 62
     7
  6
Continuous
370
    -3
390
F
  0
LAYER
  5
71
330
2
100
AcDbSymbolTableRecord
100
AcDbLayerTableRecord
  2
1
 70
     0
 62
   179
  6
Continuous
370
    -3
390
F
  0
ENDTAB
  0
TABLE
  2
STYLE
  5
3
330
0
100
AcDbSymbolTable
 70
     1
  0
STYLE
  5
11
330
3
100
AcDbSymbolTableRecord
100
AcDbTextStyleTableRecord
  2
Standard
 70
     0
 40
0.0
 41
1.0
 50
0.0
 71
     0
 42
0.09
  3
txt
  4

  0
ENDTAB
  0
TABLE
  2
VIEW
  5
6
330
0
100
AcDbSymbolTable
 70
     0
  0
ENDTAB
  0
TABLE
  2
UCS
  5
7
330
0
100
AcDbSymbolTable
 70
     0
  0
ENDTAB
  0
TABLE
  2
APPID
  5
9
330
0
100
AcDbSymbolTable
 70
     1
  0
APPID
  5
12
330
9
100
AcDbSymbolTableRecord
100
AcDbRegAppTableRecord
  2
ACAD
 70
     0
  0
ENDTAB
  0
TABLE
  2
DIMSTYLE
  5
A
330
0
100
AcDbSymbolTable
 70
     1
100
AcDbDimStyleTable
  0
DIMSTYLE
105
27
330
A
100
AcDbSymbolTableRecord
100
AcDbDimStyleTableRecord
  2
Standard
 70
     0
178
     0
340
11
  0
ENDTAB
  0
TABLE
  2
BLOCK_RECORD
  5
1
330
0
100
AcDbSymbolTable
 70
     1
  0
BLOCK_RECORD
  5
1F
330
1
100
AcDbSymbolTableRecord
100
AcDbBlockTableRecord
  2
*Model_Space
340
22
  0
BLOCK_RECORD
  5
1B
330
1
100
AcDbSymbolTableRecord
100
AcDbBlockTableRecord
  2
*Paper_Space
340
1E
  0
BLOCK_RECORD
  5
23
330
1
100
AcDbSymbolTableRecord
100
AcDbBlockTableRecord
  2
*Paper_Space0
340
26
  0
ENDTAB
  0
ENDSEC
  0
SECTION
  2
BLOCKS
  0
BLOCK
  5
20
330
1F
100
AcDbEntity
  8
0
100
AcDbBlockBegin
  2
*Model_Space
 70
     0
 10
0.0
 20
0.0
 30
0.0
  3
*Model_Space
  1
*Model_Space
  0
ENDBLK
  5
21
330
1F
100
AcDbEntity
  8
0
100
AcDbBlockEnd
  0
BLOCK
  5
1C
330
1B
100
AcDbEntity
 67
     1
  8
0
100
AcDbBlockBegin
  2
*Paper_Space
 70
     0
 10
0.0
 20
0.0
 30
0.0
  3
*Paper_Space
  1
*Paper_Space
  0
ENDBLK
  5
1D
330
1B
100
AcDbEntity
 67
     1
  8
0
100
AcDbBlockEnd
  0
BLOCK
  5
24
330
23
100
AcDbEntity
  8
0
100
AcDbBlockBegin
  2
*Paper_Space0
 70
     0
 10
0.0
 20
0.0
 30
0.0
  3
*Paper_Space0
  1
*Paper_Space0
  0
ENDBLK
  5
25
330
23
100
AcDbEntity
  8
0
100
AcDbBlockEnd
  0
ENDSEC
  0
SECTION
  2
ENTITIES
  0
LINE
  5
72
330
1F
100
AcDbEntity
  8
0
  6
Continuous
 62
     7
370
    15
100
AcDbLine
 10
4.4364488551
 20
7.6548115031
 30
0.0
 11
4.4215509702
 21
7.6588033794
 31
0.0
  0
LINE
  5
73
330
1F
100
AcDbEntity
  8
0
  6
Continuous
 62
     7
370
    15
100
AcDbLine
 10
4.2348403895
 20
7.6588033794
 30
0.0
 11
4.2199425043
 21
7.654811503
 31
0.0
  0
LINE
  5
74
330
1F
100
AcDbEntity
  8
0
  6
Continuous
 62
     7
370
    15
100
AcDbLine
 10
3.9655857445
 20
5.607582899
 30
0.0
 11
3.9688206799
 21
5.619656743
 31
0.0
  0
LINE
  5
75
330
1F
100
AcDbEntity
  8
0
  6
Continuous
 62
     7
370
    15
100
AcDbLine
 10
3.9280706799
 20
5.619656743
 30
0.0
 11
3.9313056151
 21
5.6075828992
 31
0.0
  0
LINE
  5
76
330
1F
100
AcDbEntity
  8
0
  6
Continuous
 62
     7
370
    15
100
AcDbLine
 10
3.9313056152
 20
5.78814886
 30
0.0
 11
3.9280706799
 21
5.7760750159
 31
0.0
  0
LINE
  5
77
330
1F
100
AcDbEntity
  8
0
  6
Continuous
 62
     7
370
    15
100
AcDbLine
 10
3.9688206799
 20
5.7760750159
 30
0.0
 11
3.9655857445
 21
5.78814886
 31
0.0
  0
LINE
  5
78
330
1F
100
AcDbEntity
  8
0
  6
Continuous
 62
     7
370
    15
100
AcDbLine
 10
3.9280706799
 20
5.7354908795
 30
0.0
 11
3.8376956799
 21
5.7354908795
 31
0.0
  0
LINE
  5
79
330
1F
100
AcDbEntity
  8
0
  6
Continuous
 62
     7
370
    15
100
AcDbLine
 10
3.8376956799
 20
5.6602408795
 30
0.0
 11
3.9280706799
 21
5.6602408795
 31
0.0
  0
LINE
  5
7A
330
1F
100
AcDbEntity
  8
0
  6
Continuous
 62
     7
370
    15
100
AcDbLine
 10
4.1359180275
 20
7.3306158795
 30
0.0
 11
4.1406956799
 21
7.3388910162
 31
0.0
  0
LINE
  5
7B
330
1F
100
AcDbEntity
  8
0
  6
Continuous
 62
     7
370
    15
100
AcDbLine
 10
4.1406956799
 20
7.5568407428
 30
0.0
 11
4.1359180275
 21
7.5651158795
 31
0.0
  0
LINE
  5
7C
330
1F
100
AcDbEntity
  8
0
  6
Continuous
 62
     7
370
    15
100
AcDbLine
 10
3.9006956799
 20
7.574161251
 30
0.0
 11
3.8906956798
 21
7.5568407428
 31
0.0
  0
LINE
  5
7D
330
1F
100
AcDbEntity
  8
0
  6
Continuous
 62
     7
370
    15
100
AcDbLine
 10
3.8906956798
 20
7.3388910162
 30
0.0
 11
3.9006956797
 21
7.3215705083
 31
0.0
  0
LINE
  5
7E
330
1F
100
AcDbEntity
  8
0
  6
Continuous
 62
     7
370
    15
100
AcDbLine
 10
4.1359180275
 20
7.5651158795
 30
0.0
 11
4.0938206799
 21
7.5651158795
 31
0.0
  0
LINE
  5
7F
330
1F
100
AcDbEntity
  8
0
  6
Continuous
 62
     7
370
    15
100
AcDbLine
 10
4.0938206799
 20
7.5651158795
 30
0.0
 11
4.0888206799
 21
7.5737761335
 31
0.0
  0
LINE
  5
80
330
1F
100
AcDbEntity
  8
0
  6
Continuous
 62
     7
370
    15
100
AcDbLine
 10
4.0938206799
 20
7.3306158795
 30
0.0
 11
4.1359180275
 21
7.3306158795
 31
0.0
  0
LINE
  5
81
330
1F
100
AcDbEntity
  8
0
  6
Continuous
 62
     7
370
    15
100
AcDbLine
 10
4.0888206799
 20
7.3219556255
 30
0.0
 11
4.0938206799
 21
7.3306158795
 31
0.0
  0
LINE
  5
82
330
1F
100
AcDbEntity
  8
0
  6
Continuous
 62
     7
370
    15
100
AcDbLine
 10
4.5204733323
 20
5.8151158795
 30
0.0
 11
4.5156956798
 21
5.8068407428
 31
0.0
  0
LINE
  5
83
330
1F
100
AcDbEntity
  8
0
  6
Continuous
 62
     7
370
    15
100
AcDbLine
 10
4.5156956798
 20
5.5888910162
 30
0.0
 11
4.5204733323
 21
5.5806158795
 31
0.0
  0
LINE
  5
84
330
1F
100
AcDbEntity
  8
0
  6
Continuous
 62
     7
370
    15
100
AcDbLine
 10
4.75569568
 20
5.5715705083
 30
0.0
 11
4.7656956799
 21
5.5888910162
 31
0.0
  0
LINE
  5
85
330
1F
100
AcDbEntity
  8
0
  6
Continuous
 62
     7
370
    15
100
AcDbLine
 10
4.7656956799
 20
5.8068407428
 30
0.0
 11
4.7556956798
 21
5.824161251
 31
0.0
  0
LINE
  5
86
330
1F
100
AcDbEntity
  8
0
  6
Continuous
 62
     7
370
    15
100
AcDbLine
 10
4.5625706799
 20
5.8151158795
 30
0.0
 11
4.5204733323
 21
5.8151158795
 31
0.0
  0
LINE
  5
87
330
1F
100
AcDbEntity
  8
0
  6
Continuous
 62
     7
370
    15
100
AcDbLine
 10
4.5675706799
 20
5.8237761335
 30
0.0
 11
4.5625706799
 21
5.8151158795
 31
0.0
  0
LINE
  5
88
330
1F
100
AcDbEntity
  8
0
  6
Continuous
 62
     7
370
    15
100
AcDbLine
 10
4.5204733323
 20
5.5806158795
 30
0.0
 11
4.5625706799
 21
5.5806158795
 31
0.0
  0
LINE
  5
89
330
1F
100
AcDbEntity
  8
0
  6
Continuous
 62
     7
370
    15
100
AcDbLine
 10
4.5625706799
 20
5.5806158795
 30
0.0
 11
4.5675706799
 21
5.5719556255
 31
0.0
  0
LINE
  5
8A
330
1F
100
AcDbEntity
  8
0
  6
Continuous
 62
     7
370
    15
100
AcDbLine
 10
3.8376956799
 20
5.8356158795
 30
0.0
 11
3.6556956799
 21
5.8278658795
 31
0.0
  0
LINE
  5
8B
330
1F
100
AcDbEntity
  8
0
  6
Continuous
 62
     7
370
    15
100
AcDbLine
 10
3.6556956799
 20
5.5678658795
 30
0.0
 11
3.8376956799
 21
5.5601158795
 31
0.0
  0
LINE
  5
8C
330
1F
100
AcDbEntity
  8
0
  6
Continuous
 62
     7
370
    15
100
AcDbLine
 10
3.9688206799
 20
5.5884908795
 30
0.0
 11
3.9785896609
 21
5.5715705081
 31
0.0
  0
LINE
  5
8D
330
1F
100
AcDbEntity
  8
0
  6
Continuous
 62
     7
370
    15
100
AcDbLine
 10
4.13616188
 20
5.5715705082
 30
0.0
 11
4.1406956799
 21
5.5884908795
 31
0.0
  0
LINE
  5
8E
330
1F
100
AcDbEntity
  8
0
  6
Continuous
 62
     7
370
    15
100
AcDbLine
 10
4.1406956799
 20
5.8072408795
 30
0.0
 11
4.1365089737
 21
5.8228658795
 31
0.0
  0
LINE
  5
8F
330
1F
100
AcDbEntity
  8
0
  6
Continuous
 62
     7
370
    15
100
AcDbLine
 10
3.9785896609
 20
5.8241612509
 30
0.0
 11
3.9688206799
 21
5.8072408795
 31
0.0
  0
SPLINE
  5
90
330
1F
100
AcDbEntity
  8
0
  6
Continuous
 62
     7
370
    15
100
AcDbSpline
210
0.0
220
0.0
230
1.0
 70
     8
 71
     3
 72
    11
 73
     7
 74
     0
 42
0.000000001
 43
0.00000001
 40
0.0
 40
0.0
 40
0.0
 40
0.0
 40
0.2471026484822582
 40
0.4952089995988364
 40
0.7469801479828437
 40
1.0
 40
1.0
 40
1.0
 40
1.0
 10
4.219942504842137
 20
7.654811503211575
 30
0.0
 10
4.224384466799458
 20
7.655876973819114
 30
0.0
 10
4.233286433454419
 20
7.658012242853673
 30
0.0
 10
4.246811534702249
 20
7.659025440376515
 30
0.0
 10
4.26044576462311
 20
7.658070385760086
 30
0.0
 10
4.269520499903352
 20
7.655899587342165
 30
0.0
 10
4.274069091648998
 20
7.65481150317659
 30
0.0
  0
LINE
  5
91
330
1F
100
AcDbEntity
  8
0
  6
Continuous
 62
     7
370
    15
100
AcDbLine
 10
4.2740690921
 20
7.5728658795
 30
0.0
 11
4.2740690919
 21
7.6548115031
 31
0.0
  0
LINE
  5
92
330
1F
100
AcDbEntity
  8
0
  6
Continuous
 62
     7
370
    15
100
AcDbLine
 10
4.2199425043
 20
7.654811503
 30
0.0
 11
4.2199425044
 21
7.5728658795
 31
0.0
  0
SPLINE
  5
93
330
1F
100
AcDbEntity
  8
0
  6
Continuous
 62
     7
370
    15
100
AcDbSpline
210
0.0
220
0.0
230
1.0
 70
     8
 71
     3
 72
    11
 73
     7
 74
     0
 42
0.000000001
 43
0.00000001
 40
0.0
 40
0.0
 40
0.0
 40
0.0
 40
0.2471026483657306
 40
0.4952089994577446
 40
0.7469801478925732
 40
1.0
 40
1.0
 40
1.0
 40
1.0
 10
4.274069091742798
 20
7.654811502699041
 30
0.0
 10
4.282953015719333
 20
7.655876973481243
 30
0.0
 10
4.300756949156613
 20
7.658012242866238
 30
0.0
 10
4.3278071520335
 20
7.659025440360916
 30
0.0
 10
4.35507561222464
 20
7.658070385804105
 30
0.0
 10
4.373225083026757
 20
7.655899587356919
 30
0.0
 10
4.382322266639869
 20
7.654811503176592
 30
0.0
  0
LINE
  5
94
330
1F
100
AcDbEntity
  8
0
  6
Continuous
 62
     7
370
    15
100
AcDbLine
 10
4.3823222676
 20
7.5728658795
 30
0.0
 11
4.3823222671
 21
7.6548115031
 31
0.0
  0
SPLINE
  5
95
330
1F
100
AcDbEntity
  8
0
  6
Continuous
 62
     7
370
    15
100
AcDbSpline
210
0.0
220
0.0
230
1.0
 70
     8
 71
     3
 72
    11
 73
     7
 74
     0
 42
0.000000001
 43
0.00000001
 40
0.0
 40
0.0
 40
0.0
 40
0.0
 40
0.247102648365733
 40
0.4952089994577474
 40
0.7469801478925743
 40
1.0
 40
1.0
 40
1.0
 40
1.0
 10
4.382322267090562
 20
7.654811502699045
 30
0.0
 10
4.386764229213781
 20
7.655876973481249
 30
0.0
 10
4.39566619620287
 20
7.658012242866247
 30
0.0
 10
4.40919129753207
 20
7.65902544036092
 30
0.0
 10
4.422825527656865
 20
7.658070385804097
 30
0.0
 10
4.431900263053993
 20
7.655899587356915
 30
0.0
 10
4.436448854858579
 20
7.65481150317659
 30
0.0
  0
LINE
  5
96
330
1F
100
AcDbEntity
  8
0
  6
Continuous
 62
     7
370
    15
100
AcDbLine
 10
4.4364488553
 20
7.5728658795
 30
0.0
 11
4.4364488551
 21
7.6548115031
 31
0.0
  0
LINE
  5
97
330
1F
100
AcDbEntity
  8
0
  6
Continuous
 62
     7
370
    15
100
AcDbLine
 10
4.3281956799
 20
7.6588033794
 30
0.0
 11
4.4215509702
 21
7.6588033794
 31
0.0
  0
LINE
  5
98
330
1F
100
AcDbEntity
  8
0
  6
Continuous
 62
     7
370
    15
100
AcDbLine
 10
4.2348403895
 20
7.6588033794
 30
0.0
 11
4.3281956799
 21
7.6588033794
 31
0.0
  0
LINE
  5
99
330
1F
100
AcDbEntity
  8
0
  6
Continuous
 62
     7
370
    15
100
AcDbLine
 10
4.5391331799
 20
7.3150533795
 30
0.0
 11
4.1172581799
 21
7.3150533795
 31
0.0
  0
LINE
  5
9A
330
1F
100
AcDbEntity
  8
0
  6
Continuous
 62
     7
370
    15
100
AcDbLine
 10
4.5391331799
 20
5.8306783795
 30
0.0
 11
4.5391331799
 21
7.3150533795
 31
0.0
  0
LINE
  5
9B
330
1F
100
AcDbEntity
  8
0
  6
Continuous
 62
     7
370
    15
100
AcDbLine
 10
4.1172581799
 20
5.8306783795
 30
0.0
 11
4.5391331799
 21
5.8306783795
 31
0.0
  0
LINE
  5
9C
330
1F
100
AcDbEntity
  8
0
  6
Continuous
 62
     7
370
    15
100
AcDbLine
 10
4.1172581799
 20
7.3150533795
 30
0.0
 11
4.1172581799
 21
5.8306783795
 31
0.0
  0
CIRCLE
  5
9D
330
1F
100
AcDbEntity
  8
0
  6
Continuous
 62
     7
370
    15
100
AcDbCircle
 10
4.4531956799
 20
7.2603658795
 30
0.0
 40
0.0488750000005123
  0
CIRCLE
  5
9E
330
1F
100
AcDbEntity
  8
0
  6
Continuous
 62
     7
370
    15
100
AcDbCircle
 10
4.2031956799
 20
7.2603658795
 30
0.0
 40
0.0488750000006055
  0
CIRCLE
  5
9F
330
1F
100
AcDbEntity
  8
0
  6
Continuous
 62
     7
370
    15
100
AcDbCircle
 10
4.4531956799
 20
5.8853658795
 30
0.0
 40
0.0488750000005123
  0
CIRCLE
  5
A0
330
1F
100
AcDbEntity
  8
0
  6
Continuous
 62
     7
370
    15
100
AcDbCircle
 10
4.2031956799
 20
5.8853658795
 30
0.0
 40
0.0488750000006046
  0
LINE
  5
A1
330
1F
100
AcDbEntity
  8
0
  6
Continuous
 62
     7
370
    15
100
AcDbLine
 10
4.1172581799
 20
5.8306783795
 30
0.0
 11
4.1094456799
 21
5.8228658795
 31
0.0
  0
LINE
  5
A2
330
1F
100
AcDbEntity
  8
0
  6
Continuous
 62
     7
370
    15
100
AcDbLine
 10
4.5469456799
 20
5.8228658795
 30
0.0
 11
4.5391331799
 21
5.8306783795
 31
0.0
  0
LINE
  5
A3
330
1F
100
AcDbEntity
  8
0
  6
Continuous
 62
     7
370
    15
100
AcDbLine
 10
4.5469456799
 20
5.8228658795
 30
0.0
 11
4.1094456799
 21
5.8228658795
 31
0.0
  0
LINE
  5
A4
330
1F
100
AcDbEntity
  8
0
  6
Continuous
 62
     7
370
    15
100
AcDbLine
 10
4.1094456799
 20
5.8228658795
 30
0.0
 11
4.1094456799
 21
7.3228658795
 31
0.0
  0
LINE
  5
A5
330
1F
100
AcDbEntity
  8
0
  6
Continuous
 62
     7
370
    15
100
AcDbLine
 10
4.1172581799
 20
7.3150533795
 30
0.0
 11
4.1094456799
 21
7.3228658795
 31
0.0
  0
LINE
  5
A6
330
1F
100
AcDbEntity
  8
0
  6
Continuous
 62
     7
370
    15
100
AcDbLine
 10
4.5391331799
 20
7.3150533795
 30
0.0
 11
4.5469456799
 21
7.3228658795
 31
0.0
  0
LINE
  5
A7
330
1F
100
AcDbEntity
  8
0
  6
Continuous
 62
     7
370
    15
100
AcDbLine
 10
4.1094456799
 20
7.3228658795
 30
0.0
 11
4.5469456799
 21
7.3228658795
 31
0.0
  0
LINE
  5
A8
330
1F
100
AcDbEntity
  8
0
  6
Continuous
 62
     7
370
    15
100
AcDbLine
 10
4.5469456799
 20
7.3228658795
 30
0.0
 11
4.5469456799
 21
5.8228658795
 31
0.0
  0
CIRCLE
  5
A9
330
1F
100
AcDbEntity
  8
0
  6
Continuous
 62
     7
370
    15
100
AcDbCircle
 10
4.4531956799
 20
7.2603658795
 30
0.0
 40
0.0261249999999995
  0
CIRCLE
  5
AA
330
1F
100
AcDbEntity
  8
0
  6
Continuous
 62
     7
370
    15
100
AcDbCircle
 10
4.2031956799
 20
7.2603658795
 30
0.0
 40
0.0261250000000004
  0
CIRCLE
  5
AB
330
1F
100
AcDbEntity
  8
0
  6
Continuous
 62
     7
370
    15
100
AcDbCircle
 10
4.4531956799
 20
5.8853658795
 30
0.0
 40
0.0261249999999995
  0
CIRCLE
  5
AC
330
1F
100
AcDbEntity
  8
0
  6
Continuous
 62
     7
370
    15
100
AcDbCircle
 10
4.2031956799
 20
5.8853658795
 30
0.0
 40
0.0261250000000004
  0
LINE
  5
AD
330
1F
100
AcDbEntity
  8
0
  6
Continuous
 62
     7
370
    15
100
AcDbLine
 10
4.5156956799
 20
7.5728658795
 30
0.0
 11
4.1406956799
 21
7.5728658795
 31
0.0
  0
LINE
  5
AE
330
1F
100
AcDbEntity
  8
0
  6
Continuous
 62
     7
370
    15
100
AcDbLine
 10
4.1406956799
 20
7.5728658795
 30
0.0
 11
4.1406956799
 21
7.3228658795
 31
0.0
  0
LINE
  5
AF
330
1F
100
AcDbEntity
  8
0
  6
Continuous
 62
     7
370
    15
100
AcDbLine
 10
4.5156956799
 20
7.5728658795
 30
0.0
 11
4.5156956799
 21
7.3228658795
 31
0.0
  0
CIRCLE
  5
B0
330
1F
100
AcDbEntity
  8
0
  6
Continuous
 62
     7
370
    15
100
AcDbCircle
 10
4.4531956799
 20
7.2603658795
 30
0.0
 40
0.0205750000067084
  0
CIRCLE
  5
B1
330
1F
100
AcDbEntity
  8
0
  6
Continuous
 62
     7
370
    15
100
AcDbCircle
 10
4.2031956799
 20
7.2603658795
 30
0.0
 40
0.0205750000067084
  0
LINE
  5
B2
330
1F
100
AcDbEntity
  8
0
  6
Continuous
 62
     7
370
    15
100
AcDbLine
 10
3.9280706799
 20
5.6942124208
 30
0.0
 11
3.9280706799
 21
5.7015193382
 31
0.0
  0
SPLINE
  5
B3
330
1F
100
AcDbEntity
  8
0
  6
Continuous
 62
     7
370
    15
100
AcDbSpline
210
0.0
220
0.0
230
1.0
 70
     8
 71
     3
 72
    10
 73
     6
 74
     0
 42
0.000000001
 43
0.00000001
 40
0.0
 40
0.0
 40
0.0
 40
0.0
 40
0.4989887185754733
 40
0.7494000253049431
 40
1.0
 40
1.0
 40
1.0
 40
1.0
 10
3.928070679867709
 20
5.701519338226714
 30
0.0
 10
3.928297213183939
 20
5.708436989964014
 30
0.0
 10
3.928637429438528
 20
5.718826179526821
 30
0.0
 10
3.929975572788786
 20
5.732632343455968
 30
0.0
 10
3.930849295520243
 20
5.739524162537437
 30
0.0
 10
3.931286321396728
 20
5.742971369719098
 30
0.0
  0
LINE
  5
B4
330
1F
100
AcDbEntity
  8
0
  6
Continuous
 62
     7
370
    15
100
AcDbLine
 10
3.9656050384
 20
5.7429713693
 30
0.0
 11
3.9312863214
 21
5.7429713695
 31
0.0
  0
SPLINE
  5
B5
330
1F
100
AcDbEntity
  8
0
  6
Continuous
 62
     7
370
    15
100
AcDbSpline
210
0.0
220
0.0
230
1.0
 70
     8
 71
     3
 72
    10
 73
     6
 74
     0
 42
0.000000001
 43
0.00000001
 40
0.0
 40
0.0
 40
0.0
 40
0.0
 40
0.3268376783955426
 40
0.663106702462017
 40
1.0
 40
1.0
 40
1.0
 40
1.0
 10
3.965605038398779
 20
5.742971369270599
 30
0.0
 10
3.966166198680563
 20
5.738474007524518
 30
0.0
 10
3.967304712287175
 20
5.729349506543293
 30
0.0
 10
3.96844532915348
 20
5.715522239581516
 30
0.0
 10
3.968695485633398
 20
5.706189856882435
 30
0.0
 10
3.968820679867708
 20
5.701519338226717
 30
0.0
  0
SPLINE
  5
B6
330
1F
100
AcDbEntity
  8
0
  6
Continuous
 62
     7
370
    15
100
AcDbSpline
210
0.0
220
0.0
230
1.0
 70
     8
 71
     3
 72
    10
 73
     6
 74
     0
 42
0.000000001
 43
0.00000001
 40
0.0
 40
0.0
 40
0.0
 40
0.0
 40
0.4989887185931092
 40
0.7494000253149544
 40
1.0
 40
1.0
 40
1.0
 40
1.0
 10
3.968820679867708
 20
5.694212420753602
 30
0.0
 10
3.968594146555479
 20
5.687294769091284
 30
0.0
 10
3.968253930306907
 20
5.676905579641313
 30
0.0
 10
3.966915786982536
 20
5.663099415861288
 30
0.0
 10
3.966042064267199
 20
5.656207596854171
 30
0.0
 10
3.965605038398778
 20
5.652760389709719
 30
0.0
  0
LINE
  5
B7
330
1F
100
AcDbEntity
  8
0
  6
Continuous
 62
     7
370
    15
100
AcDbLine
 10
3.9656050384
 20
5.6527603897
 30
0.0
 11
3.9312863214
 21
5.6527603898
 31
0.0
  0
SPLINE
  5
B8
330
1F
100
AcDbEntity
  8
0
  6
Continuous
 62
     7
370
    15
100
AcDbSpline
210
0.0
220
0.0
230
1.0
 70
     8
 71
     3
 72
    10
 73
     6
 74
     0
 42
0.000000001
 43
0.00000001
 40
0.0
 40
0.0
 40
0.0
 40
0.0
 40
0.3268376859012323
 40
0.6631067062360239
 40
1.0
 40
1.0
 40
1.0
 40
1.0
 10
3.931286321209778
 20
5.652760390656595
 30
0.0
 10
3.930725160937819
 20
5.657257752403949
 30
0.0
 10
3.929586647370808
 20
5.666382253230152
 30
0.0
 10
3.928446030562369
 20
5.680209519876668
 30
0.0
 10
3.928195874095488
 20
5.689541902257435
 30
0.0
 10
3.928070679867709
 20
5.694212420753604
 30
0.0
  0
SPLINE
  5
B9
330
1F
100
AcDbEntity
  8
0
  6
Continuous
 62
     7
370
    15
100
AcDbSpline
210
0.0
220
0.0
230
1.0
 70
     8
 71
     3
 72
    10
 73
     6
 74
     0
 42
0.000000001
 43
0.00000001
 40
0.0
 40
0.0
 40
0.0
 40
0.0
 40
0.3268376859029192
 40
0.6631067062368877
 40
0.9999999999999999
 40
0.9999999999999999
 40
0.9999999999999999
 40
0.9999999999999999
 10
3.931286321209749
 20
5.742971369744148
 30
0.0
 10
3.930725160937792
 20
5.745220050617824
 30
0.0
 10
3.92958664737079
 20
5.749782301030907
 30
0.0
 10
3.928446030562364
 20
5.756695934354123
 30
0.0
 10
3.928195874095487
 20
5.761362125544475
 30
0.0
 10
3.928070679867709
 20
5.763697384792544
 30
0.0
  0
LINE
  5
BA
330
1F
100
AcDbEntity
  8
0
  6
Continuous
 62
     7
370
    15
100
AcDbLine
 10
3.9280706799
 20
5.7015193382
 30
0.0
 11
3.9280706799
 21
5.7636973848
 31
0.0
  0
SPLINE
  5
BB
330
1F
100
AcDbEntity
  8
0
  6
Continuous
 62
     7
370
    15
100
AcDbSpline
210
0.0
220
0.0
230
1.0
 70
     8
 71
     3
 72
    10
 73
     6
 74
     0
 42
0.000000001
 43
0.00000001
 40
0.0
 40
0.0
 40
0.0
 40
0.0
 40
0.4989887185931081
 40
0.7494000253149549
 40
1.0
 40
1.0
 40
1.0
 40
1.0
 10
3.968820679867709
 20
5.763697384792544
 30
0.0
 10
3.968594146555479
 20
5.760238558961384
 30
0.0
 10
3.968253930306908
 20
5.755043964236399
 30
0.0
 10
3.966915786982536
 20
5.748140882346384
 30
0.0
 10
3.966042064267199
 20
5.744694972842826
 30
0.0
 10
3.965605038398779
 20
5.742971369270599
 30
0.0
  0
SPLINE
  5
BC
330
1F
100
AcDbEntity
  8
0
  6
Continuous
 62
     7
370
    15
100
AcDbSpline
210
0.0
220
0.0
230
1.0
 70
     8
 71
     3
 72
    10
 73
     6
 74
     0
 42
0.000000001
 43
0.00000001
 40
0.0
 40
0.0
 40
0.0
 40
0.0
 40
0.4989887185754781
 40
0.749400025304943
 40
1.0
 40
1.0
 40
1.0
 40
1.0
 10
3.928070679867709
 20
5.632034374187771
 30
0.0
 10
3.928297213183937
 20
5.635493200056414
 30
0.0
 10
3.928637429438524
 20
5.640687794837806
 30
0.0
 10
3.929975572788777
 20
5.647590876802362
 30
0.0
 10
3.93084929552023
 20
5.651036786343089
 30
0.0
 10
3.931286321396714
 20
5.652760389933915
 30
0.0
  0
LINE
  5
BD
330
1F
100
AcDbEntity
  8
0
  6
Continuous
 62
     7
370
    15
100
AcDbLine
 10
3.9280706799
 20
5.6320343742
 30
0.0
 11
3.9280706799
 21
5.6942124208
 31
0.0
  0
SPLINE
  5
BE
330
1F
100
AcDbEntity
  8
0
  6
Continuous
 62
     7
370
    15
100
AcDbSpline
210
0.0
220
0.0
230
1.0
 70
     8
 71
     3
 72
    10
 73
     6
 74
     0
 42
0.000000001
 43
0.00000001
 40
0.0
 40
0.0
 40
0.0
 40
0.0
 40
0.3268376783954852
 40
0.6631067024620051
 40
1.0
 40
1.0
 40
1.0
 40
1.0
 10
3.965605038398778
 20
5.652760389709718
 30
0.0
 10
3.966166198680563
 20
5.650511708836678
 30
0.0
 10
3.967304712287174
 20
5.645949458346065
 30
0.0
 10
3.968445329153479
 20
5.639035824865173
 30
0.0
 10
3.968695485633398
 20
5.634369633515631
 30
0.0
 10
3.968820679867708
 20
5.632034374187772
 30
0.0
  0
SPLINE
  5
BF
330
1F
100
AcDbEntity
  8
0
  6
Continuous
 62
     7
370
    15
100
AcDbSpline
210
0.0
220
0.0
230
1.0
 70
     8
 71
     3
 72
    10
 73
     6
 74
     0
 42
0.000000001
 43
0.00000001
 40
0.0
 40
0.0
 40
0.0
 40
0.0
 40
0.4989887185931085
 40
0.7494000253149555
 40
1.0
 40
1.0
 40
1.0
 40
1.0
 10
3.968820679867708
 20
5.628380915451224
 30
0.0
 10
3.968594146555479
 20
5.624922089620065
 30
0.0
 10
3.968253930306907
 20
5.619727494895078
 30
0.0
 10
3.966915786982536
 20
5.612824413005065
 30
0.0
 10
3.966042064267199
 20
5.609378503501505
 30
0.0
 10
3.965605038398778
 20
5.607654899929279
 30
0.0
  0
LINE
  5
C0
330
1F
100
AcDbEntity
  8
0
  6
Continuous
 62
     7
370
    15
100
AcDbLine
 10
3.9312863213
 20
5.6076549002
 30
0.0
 11
3.9656050384
 21
5.6076548999
 31
0.0
  0
SPLINE
  5
C1
330
1F
100
AcDbEntity
  8
0
  6
Continuous
 62
     7
370
    15
100
AcDbSpline
210
0.0
220
0.0
230
1.0
 70
     8
 71
     3
 72
    10
 73
     6
 74
     0
 42
0.000000001
 43
0.00000001
 40
0.0
 40
0.0
 40
0.0
 40
0.0
 40
0.3268376748115741
 40
0.6631067006599243
 40
1.0
 40
1.0
 40
1.0
 40
1.0
 10
3.931286321397213
 20
5.607654899703214
 30
0.0
 10
3.930725161110737
 20
5.609903580575951
 30
0.0
 10
3.929586647485217
 20
5.614465831103578
 30
0.0
 10
3.928446030591282
 20
5.62137946465974
 30
0.0
 10
3.928195874105138
 20
5.626045656085275
 30
0.0
 10
3.928070679867709
 20
5.628380915451224
 30
0.0
  0
LINE
  5
C2
330
1F
100
AcDbEntity
  8
0
  6
Continuous
 62
     7
370
    15
100
AcDbLine
 10
3.9280706799
 20
5.6283809155
 30
0.0
 11
3.9280706799
 21
5.6320343742
 31
0.0
  0
SPLINE
  5
C3
330
1F
100
AcDbEntity
  8
0
  6
Continuous
 62
     7
370
    15
100
AcDbSpline
210
0.0
220
0.0
230
1.0
 70
     8
 71
     3
 72
    10
 73
     6
 74
     0
 42
0.000000001
 43
0.00000001
 40
0.0
 40
0.0
 40
0.0
 40
0.0
 40
0.4989887185754732
 40
0.7494000253049453
 40
1.0
 40
1.0
 40
1.0
 40
1.0
 10
3.928070679867709
 20
5.767350843529092
 30
0.0
 10
3.92829721318394
 20
5.770809669397742
 30
0.0
 10
3.928637429438528
 20
5.776004264179147
 30
0.0
 10
3.929975572788786
 20
5.782907346143722
 30
0.0
 10
3.930849295520242
 20
5.786353255684457
 30
0.0
 10
3.931286321396728
 20
5.788076859275287
 30
0.0
  0
LINE
  5
C4
330
1F
100
AcDbEntity
  8
0
  6
Continuous
 62
     7
370
    15
100
AcDbLine
 10
3.9656050384
 20
5.7880768591
 30
0.0
 11
3.9312863214
 21
5.7880768592
 31
0.0
  0
SPLINE
  5
C5
330
1F
100
AcDbEntity
  8
0
  6
Continuous
 62
     7
370
    15
100
AcDbSpline
210
0.0
220
0.0
230
1.0
 70
     8
 71
     3
 72
    10
 73
     6
 74
     0
 42
0.000000001
 43
0.00000001
 40
0.0
 40
0.0
 40
0.0
 40
0.0
 40
0.3268376783954962
 40
0.6631067024620122
 40
1.0
 40
1.0
 40
1.0
 40
1.0
 10
3.965605038398779
 20
5.788076859051039
 30
0.0
 10
3.966166198680563
 20
5.785828178177998
 30
0.0
 10
3.967304712287175
 20
5.781265927687383
 30
0.0
 10
3.96844532915348
 20
5.77435229420649
 30
0.0
 10
3.968695485633398
 20
5.769686102856951
 30
0.0
 10
3.968820679867709
 20
5.767350843529093
 30
0.0
  0
LINE
  5
C6
330
1F
100
AcDbEntity
  8
0
  6
Continuous
 62
     7
370
    15
100
AcDbLine
 10
3.9280706799
 20
5.7636973848
 30
0.0
 11
3.9280706799
 21
5.7673508435
 31
0.0
  0
LINE
  5
C7
330
1F
100
AcDbEntity
  8
0
  6
Continuous
 62
     7
370
    15
100
AcDbLine
 10
3.9280706799
 20
5.6196568093
 30
0.0
 11
3.9280706799
 21
5.6283809155
 31
0.0
  0
LINE
  5
C8
330
1F
100
AcDbEntity
  8
0
  6
Continuous
 62
     7
370
    15
100
AcDbLine
 10
3.9280706799
 20
5.7673508435
 30
0.0
 11
3.9280706799
 21
5.7760762585
 31
0.0
  0
LINE
  5
C9
330
1F
100
AcDbEntity
  8
0
  6
Continuous
 62
     7
370
    15
100
AcDbLine
 10
4.0888206799
 20
7.3847181938
 30
0.0
 11
3.9006956797
 21
7.3847181936
 31
0.0
  0
SPLINE
  5
CA
330
1F
100
AcDbEntity
  8
0
  6
Continuous
 62
     7
370
    15
100
AcDbSpline
210
0.0
220
0.0
230
1.0
 70
     8
 71
     3
 72
    11
 73
     7
 74
     0
 42
0.000000001
 43
0.00000001
 40
0.0
 40
0.0
 40
0.0
 40
0.0
 40
0.2646136134961561
 40
0.5349657659035774
 40
0.7653524246751688
 40
1.0
 40
1.0
 40
1.0
 40
1.0
 10
3.900695680185418
 20
7.384718193534086
 30
0.0
 10
3.897874009449934
 20
7.395680107451468
 30
0.0
 10
3.892169475861536
 20
7.417841660657673
 30
0.0
 10
3.89008295041514
 20
7.450676244366719
 30
0.0
 10
3.893146226128047
 20
7.482063088299885
 30
0.0
 10
3.898163870257086
 20
7.501304638196249
 30
0.0
 10
3.900695679621637
 20
7.511013564330357
 30
0.0
  0
LINE
  5
CB
330
1F
100
AcDbEntity
  8
0
  6
Continuous
 62
     7
370
    15
100
AcDbLine
 10
4.0888206799
 20
7.5110135652
 30
0.0
 11
3.9006956797
 21
7.5110135648
 31
0.0
  0
LINE
  5
CC
330
1F
100
AcDbEntity
  8
0
  6
Continuous
 62
     7
370
    15
100
AcDbLine
 10
4.0888206799
 20
7.5110135652
 30
0.0
 11
4.0888206799
 21
7.5102397638
 31
0.0
  0
LINE
  5
CD
330
1F
100
AcDbEntity
  8
0
  6
Continuous
 62
     7
370
    15
100
AcDbLine
 10
4.0888206799
 20
7.5102397638
 30
0.0
 11
4.0938206799
 21
7.4901112565
 31
0.0
  0
LINE
  5
CE
330
1F
100
AcDbEntity
  8
0
  6
Continuous
 62
     7
370
    15
100
AcDbLine
 10
4.0938206799
 20
7.4901112565
 30
0.0
 11
4.1359180275
 21
7.4901112565
 31
0.0
  0
SPLINE
  5
CF
330
1F
100
AcDbEntity
  8
0
  6
Continuous
 62
     7
370
    15
100
AcDbSpline
210
0.0
220
0.0
230
1.0
 70
     8
 71
     3
 72
    10
 73
     6
 74
     0
 42
0.000000001
 43
0.00000001
 40
0.0
 40
0.0
 40
0.0
 40
0.0
 40
0.3702926789922369
 40
0.7498059832773984
 40
1.0
 40
1.0
 40
1.0
 40
1.0
 10
4.135918027483386
 20
7.490111256458555
 30
0.0
 10
4.137666553946421
 20
7.479742505359701
 30
0.0
 10
4.141207146775503
 20
7.458746811806717
 30
0.0
 10
4.140354043232963
 20
7.430175337520825
 30
0.0
 10
4.137179378674166
 20
7.412602504406173
 30
0.0
 10
4.135918027485744
 20
7.405620502521368
 30
0.0
  0
LINE
  5
D0
330
1F
100
AcDbEntity
  8
0
  6
Continuous
 62
     7
370
    15
100
AcDbLine
 10
4.1359180275
 20
7.4056205025
 30
0.0
 11
4.0938206799
 21
7.4056205025
 31
0.0
  0
LINE
  5
D1
330
1F
100
AcDbEntity
  8
0
  6
Continuous
 62
     7
370
    15
100
AcDbLine
 10
4.0938206799
 20
7.4056205025
 30
0.0
 11
4.0888206799
 21
7.3854919952
 31
0.0
  0
LINE
  5
D2
330
1F
100
AcDbEntity
  8
0
  6
Continuous
 62
     7
370
    15
100
AcDbLine
 10
4.0888206799
 20
7.3854919952
 30
0.0
 11
4.0888206799
 21
7.3847181938
 31
0.0
  0
LINE
  5
D3
330
1F
100
AcDbEntity
  8
0
  6
Continuous
 62
     7
370
    15
100
AcDbLine
 10
4.0888206799
 20
7.3215705081
 30
0.0
 11
3.9006956797
 21
7.3215705083
 31
0.0
  0
SPLINE
  5
D4
330
1F
100
AcDbEntity
  8
0
  6
Continuous
 62
     7
370
    15
100
AcDbSpline
210
0.0
220
0.0
230
1.0
 70
     8
 71
     3
 72
    11
 73
     7
 74
     0
 42
0.000000001
 43
0.00000001
 40
0.0
 40
0.0
 40
0.0
 40
0.0
 40
0.2646136134961542
 40
0.5349657659035761
 40
0.7653524246751664
 40
0.9999999999999999
 40
0.9999999999999999
 40
0.9999999999999999
 40
0.9999999999999999
 10
3.900695680185418
 20
7.321570508292857
 30
0.0
 10
3.897874009449934
 20
7.327051465116589
 30
0.0
 10
3.892169475861535
 20
7.338132241446846
 30
0.0
 10
3.89008295041514
 20
7.354549533409345
 30
0.0
 10
3.893146226128047
 20
7.370242955351377
 30
0.0
 10
3.898163870257086
 20
7.379863730302699
 30
0.0
 10
3.900695679621637
 20
7.384718193371335
 30
0.0
  0
LINE
  5
D5
330
1F
100
AcDbEntity
  8
0
  6
Continuous
 62
     7
370
    15
100
AcDbLine
 10
4.0888206799
 20
7.3847181938
 30
0.0
 11
4.0888206799
 21
7.3843312931
 31
0.0
  0
LINE
  5
D6
330
1F
100
AcDbEntity
  8
0
  6
Continuous
 62
     7
370
    15
100
AcDbLine
 10
4.0888206799
 20
7.3843312931
 30
0.0
 11
4.0938206799
 21
7.3742670394
 31
0.0
  0
LINE
  5
D7
330
1F
100
AcDbEntity
  8
0
  6
Continuous
 62
     7
370
    15
100
AcDbLine
 10
4.0938206799
 20
7.3742670394
 30
0.0
 11
4.1359180275
 21
7.3742670394
 31
0.0
  0
SPLINE
  5
D8
330
1F
100
AcDbEntity
  8
0
  6
Continuous
 62
     7
370
    15
100
AcDbSpline
210
0.0
220
0.0
230
1.0
 70
     8
 71
     3
 72
    10
 73
     6
 74
     0
 42
0.000000001
 43
0.00000001
 40
0.0
 40
0.0
 40
0.0
 40
0.0
 40
0.3702926789854447
 40
0.749805983261901
 40
1.0
 40
1.0
 40
1.0
 40
1.0
 10
4.135918027484739
 20
7.374267039437018
 30
0.0
 10
4.137666553947174
 20
7.369082663887032
 30
0.0
 10
4.141207146775034
 20
7.358584817109432
 30
0.0
 10
4.140354043233103
 20
7.344299079966966
 30
0.0
 10
4.137179378674253
 20
7.335512663409482
 30
0.0
 10
4.135918027485744
 20
7.332021662466841
 30
0.0
  0
LINE
  5
D9
330
1F
100
AcDbEntity
  8
0
  6
Continuous
 62
     7
370
    15
100
AcDbLine
 10
4.1359180275
 20
7.3320216625
 30
0.0
 11
4.0938206799
 21
7.3320216625
 31
0.0
  0
LINE
  5
DA
330
1F
100
AcDbEntity
  8
0
  6
Continuous
 62
     7
370
    15
100
AcDbLine
 10
4.0938206799
 20
7.3320216625
 30
0.0
 11
4.0888206799
 21
7.3219574088
 31
0.0
  0
LINE
  5
DB
330
1F
100
AcDbEntity
  8
0
  6
Continuous
 62
     7
370
    15
100
AcDbLine
 10
4.0888206799
 20
7.3219574088
 30
0.0
 11
4.0888206799
 21
7.3215705081
 31
0.0
  0
SPLINE
  5
DC
330
1F
100
AcDbEntity
  8
0
  6
Continuous
 62
     7
370
    15
100
AcDbSpline
210
0.0
220
0.0
230
1.0
 70
     8
 71
     3
 72
    11
 73
     7
 74
     0
 42
0.000000001
 43
0.00000001
 40
0.0
 40
0.0
 40
0.0
 40
0.0
 40
0.2646136110892982
 40
0.5349657610376652
 40
0.7653524221553875
 40
0.9999999999999999
 40
0.9999999999999999
 40
0.9999999999999999
 40
0.9999999999999999
 10
3.900695680185418
 20
7.51101356473139
 30
0.0
 10
3.897874009450019
 20
7.516494521825055
 30
0.0
 10
3.892169475861796
 20
7.527575298701034
 30
0.0
 10
3.890082950402028
 20
7.543992590542635
 30
0.0
 10
3.893146226201949
 20
7.559686012727896
 30
0.0
 10
3.898163870496595
 20
7.569306787852538
 30
0.0
 10
3.900695679945404
 20
7.574161251009964
 30
0.0
  0
LINE
  5
DD
330
1F
100
AcDbEntity
  8
0
  6
Continuous
 62
     7
370
    15
100
AcDbLine
 10
3.9006956799
 20
7.574161251
 30
0.0
 11
4.0888206799
 21
7.5741612509
 31
0.0
  0
LINE
  5
DE
330
1F
100
AcDbEntity
  8
0
  6
Continuous
 62
     7
370
    15
100
AcDbLine
 10
4.0888206799
 20
7.5741612509
 30
0.0
 11
4.0888206799
 21
7.5737743502
 31
0.0
  0
LINE
  5
DF
330
1F
100
AcDbEntity
  8
0
  6
Continuous
 62
     7
370
    15
100
AcDbLine
 10
4.0888206799
 20
7.5737743502
 30
0.0
 11
4.0938206799
 21
7.5637100965
 31
0.0
  0
LINE
  5
E0
330
1F
100
AcDbEntity
  8
0
  6
Continuous
 62
     7
370
    15
100
AcDbLine
 10
4.0938206799
 20
7.5637100965
 30
0.0
 11
4.1359180275
 21
7.5637100965
 31
0.0
  0
SPLINE
  5
E1
330
1F
100
AcDbEntity
  8
0
  6
Continuous
 62
     7
370
    15
100
AcDbSpline
210
0.0
220
0.0
230
1.0
 70
     8
 71
     3
 72
    10
 73
     6
 74
     0
 42
0.000000001
 43
0.00000001
 40
0.0
 40
0.0
 40
0.0
 40
0.0
 40
0.3702926789860095
 40
0.7498059832630394
 40
1.0
 40
1.0
 40
1.0
 40
1.0
 10
4.135918027484739
 20
7.563710096511977
 30
0.0
 10
4.137666553947174
 20
7.558525720963211
 30
0.0
 10
4.141207146775034
 20
7.548027874188081
 30
0.0
 10
4.140354043233104
 20
7.533742137044709
 30
0.0
 10
4.137179378674269
 20
7.524955720487337
 30
0.0
 10
4.13591802748577
 20
7.52146471954475
 30
0.0
  0
LINE
  5
E2
330
1F
100
AcDbEntity
  8
0
  6
Continuous
 62
     7
370
    15
100
AcDbLine
 10
4.1359180275
 20
7.5214647195
 30
0.0
 11
4.0938206799
 21
7.5214647195
 31
0.0
  0
LINE
  5
E3
330
1F
100
AcDbEntity
  8
0
  6
Continuous
 62
     7
370
    15
100
AcDbLine
 10
4.0938206799
 20
7.5214647195
 30
0.0
 11
4.0888206799
 21
7.5114004659
 31
0.0
  0
LINE
  5
E4
330
1F
100
AcDbEntity
  8
0
  6
Continuous
 62
     7
370
    15
100
AcDbLine
 10
4.0888206799
 20
7.5114004659
 30
0.0
 11
4.0888206799
 21
7.5110135652
 31
0.0
  0
LINE
  5
E5
330
1F
100
AcDbEntity
  8
0
  6
Continuous
 62
     7
370
    15
100
AcDbLine
 10
4.0938206799
 20
7.3742670394
 30
0.0
 11
4.0938206799
 21
7.4056205025
 31
0.0
  0
LINE
  5
E6
330
1F
100
AcDbEntity
  8
0
  6
Continuous
 62
     7
370
    15
100
AcDbLine
 10
4.1359180275
 20
7.4056205025
 30
0.0
 11
4.1359180275
 21
7.3742670394
 31
0.0
  0
LINE
  5
E7
330
1F
100
AcDbEntity
  8
0
  6
Continuous
 62
     7
370
    15
100
AcDbLine
 10
4.1359180275
 20
7.3320216625
 30
0.0
 11
4.1359180275
 21
7.3306158795
 31
0.0
  0
LINE
  5
E8
330
1F
100
AcDbEntity
  8
0
  6
Continuous
 62
     7
370
    15
100
AcDbLine
 10
4.1359180275
 20
7.4901112565
 30
0.0
 11
4.1359180275
 21
7.5214647195
 31
0.0
  0
LINE
  5
E9
330
1F
100
AcDbEntity
  8
0
  6
Continuous
 62
     7
370
    15
100
AcDbLine
 10
4.1359180275
 20
7.5651158795
 30
0.0
 11
4.1359180275
 21
7.5637100965
 31
0.0
  0
LINE
  5
EA
330
1F
100
AcDbEntity
  8
0
  6
Continuous
 62
     7
370
    15
100
AcDbLine
 10
4.0938206799
 20
7.4901112565
 30
0.0
 11
4.0938206799
 21
7.5214647195
 31
0.0
  0
LINE
  5
EB
330
1F
100
AcDbEntity
  8
0
  6
Continuous
 62
     7
370
    15
100
AcDbLine
 10
3.8906956798
 20
7.3388910162
 30
0.0
 11
3.8906956798
 21
7.5568407428
 31
0.0
  0
LINE
  5
EC
330
1F
100
AcDbEntity
  8
0
  6
Continuous
 62
     7
370
    15
100
AcDbLine
 10
4.0938206799
 20
7.5651158795
 30
0.0
 11
4.0938206799
 21
7.5637100965
 31
0.0
  0
LINE
  5
ED
330
1F
100
AcDbEntity
  8
0
  6
Continuous
 62
     7
370
    15
100
AcDbLine
 10
4.0938206799
 20
7.3306158795
 30
0.0
 11
4.0938206799
 21
7.3320216625
 31
0.0
  0
LINE
  5
EE
330
1F
100
AcDbEntity
  8
0
  6
Continuous
 62
     7
370
    15
100
AcDbLine
 10
4.5675706799
 20
5.7610135652
 30
0.0
 11
4.75569568
 21
5.7610135654
 31
0.0
  0
SPLINE
  5
EF
330
1F
100
AcDbEntity
  8
0
  6
Continuous
 62
     7
370
    15
100
AcDbSpline
210
0.0
220
0.0
230
1.0
 70
     8
 71
     3
 72
    11
 73
     7
 74
     0
 42
0.000000001
 43
0.00000001
 40
0.0
 40
0.0
 40
0.0
 40
0.0
 40
0.2646136127554461
 40
0.5349657642288481
 40
0.7653524238103027
 40
0.9999999999999999
 40
0.9999999999999999
 40
0.9999999999999999
 40
0.9999999999999999
 10
4.755695679773066
 20
5.76101356551063
 30
0.0
 10
4.75851735040647
 20
5.750051651601678
 30
0.0
 10
4.764221883786601
 20
5.727890098419857
 30
0.0
 10
4.7663084093364
 20
5.695055514765359
 30
0.0
 10
4.763245133629625
 20
5.663668670788983
 30
0.0
 10
4.758227489485936
 20
5.64442712082102
 30
0.0
 10
4.755695680113781
 20
5.634718194649964
 30
0.0
  0
LINE
  5
F0
330
1F
100
AcDbEntity
  8
0
  6
Continuous
 62
     7
370
    15
100
AcDbLine
 10
4.5675706799
 20
5.6347181938
 30
0.0
 11
4.75569568
 21
5.6347181942
 31
0.0
  0
LINE
  5
F1
330
1F
100
AcDbEntity
  8
0
  6
Continuous
 62
     7
370
    15
100
AcDbLine
 10
4.5675706799
 20
5.6347181938
 30
0.0
 11
4.5675706799
 21
5.6354919952
 31
0.0
  0
LINE
  5
F2
330
1F
100
AcDbEntity
  8
0
  6
Continuous
 62
     7
370
    15
100
AcDbLine
 10
4.5675706799
 20
5.6354919952
 30
0.0
 11
4.5625706799
 21
5.6556205025
 31
0.0
  0
LINE
  5
F3
330
1F
100
AcDbEntity
  8
0
  6
Continuous
 62
     7
370
    15
100
AcDbLine
 10
4.5625706799
 20
5.6556205025
 30
0.0
 11
4.5204733323
 21
5.6556205025
 31
0.0
  0
SPLINE
  5
F4
330
1F
100
AcDbEntity
  8
0
  6
Continuous
 62
     7
370
    15
100
AcDbSpline
210
0.0
220
0.0
230
1.0
 70
     8
 71
     3
 72
    10
 73
     6
 74
     0
 42
0.000000001
 43
0.00000001
 40
0.0
 40
0.0
 40
0.0
 40
0.0
 40
0.3702926789854304
 40
0.7498059832618682
 40
1.0
 40
1.0
 40
1.0
 40
1.0
 10
4.520473332250678
 20
5.655620502521479
 30
0.0
 10
4.518724805788243
 20
5.665989253620229
 30
0.0
 10
4.515184212960382
 20
5.686984947172959
 30
0.0
 10
4.516037316502313
 20
5.715556421458821
 30
0.0
 10
4.519211981061163
 20
5.733129254573699
 30
0.0
 10
4.520473332249673
 20
5.740111256458949
 30
0.0
  0
LINE
  5
F5
330
1F
100
AcDbEntity
  8
0
  6
Continuous
 62
     7
370
    15
100
AcDbLine
 10
4.5204733323
 20
5.7401112565
 30
0.0
 11
4.5625706799
 21
5.7401112565
 31
0.0
  0
LINE
  5
F6
330
1F
100
AcDbEntity
  8
0
  6
Continuous
 62
     7
370
    15
100
AcDbLine
 10
4.5625706799
 20
5.7401112565
 30
0.0
 11
4.5675706799
 21
5.7602397638
 31
0.0
  0
LINE
  5
F7
330
1F
100
AcDbEntity
  8
0
  6
Continuous
 62
     7
370
    15
100
AcDbLine
 10
4.5675706799
 20
5.7602397638
 30
0.0
 11
4.5675706799
 21
5.7610135652
 31
0.0
  0
LINE
  5
F8
330
1F
100
AcDbEntity
  8
0
  6
Continuous
 62
     7
370
    15
100
AcDbLine
 10
4.7556956798
 20
5.824161251
 30
0.0
 11
4.5675706799
 21
5.8241612509
 31
0.0
  0
SPLINE
  5
F9
330
1F
100
AcDbEntity
  8
0
  6
Continuous
 62
     7
370
    15
100
AcDbSpline
210
0.0
220
0.0
230
1.0
 70
     8
 71
     3
 72
    11
 73
     7
 74
     0
 42
0.000000001
 43
0.00000001
 40
0.0
 40
0.0
 40
0.0
 40
0.0
 40
0.2646136140617522
 40
0.5349657669360347
 40
0.7653524252585219
 40
1.0
 40
1.0
 40
1.0
 40
1.0
 10
4.755695680113781
 20
5.824161250449183
 30
0.0
 10
4.758517350688743
 20
5.818680293514085
 30
0.0
 10
4.764221883951431
 20
5.807599516960981
 30
0.0
 10
4.766308409305974
 20
5.791182225253386
 30
0.0
 10
4.76324513352376
 20
5.77548880345184
 30
0.0
 10
4.758227489449844
 20
5.765868028617372
 30
0.0
 10
4.755695680113781
 20
5.761013565608986
 30
0.0
  0
LINE
  5
FA
330
1F
100
AcDbEntity
  8
0
  6
Continuous
 62
     7
370
    15
100
AcDbLine
 10
4.5675706799
 20
5.7610135652
 30
0.0
 11
4.5675706799
 21
5.7614004659
 31
0.0
  0
LINE
  5
FB
330
1F
100
AcDbEntity
  8
0
  6
Continuous
 62
     7
370
    15
100
AcDbLine
 10
4.5675706799
 20
5.7614004659
 30
0.0
 11
4.5625706799
 21
5.7714647195
 31
0.0
  0
LINE
  5
FC
330
1F
100
AcDbEntity
  8
0
  6
Continuous
 62
     7
370
    15
100
AcDbLine
 10
4.5625706799
 20
5.7714647195
 30
0.0
 11
4.5204733323
 21
5.7714647195
 31
0.0
  0
SPLINE
  5
FD
330
1F
100
AcDbEntity
  8
0
  6
Continuous
 62
     7
370
    15
100
AcDbSpline
210
0.0
220
0.0
230
1.0
 70
     8
 71
     3
 72
    10
 73
     6
 74
     0
 42
0.000000001
 43
0.00000001
 40
0.0
 40
0.0
 40
0.0
 40
0.0
 40
0.3702926789854321
 40
0.7498059832618712
 40
1.0
 40
1.0
 40
1.0
 40
1.0
 10
4.520473332250677
 20
5.771464719543298
 30
0.0
 10
4.518724805788242
 20
5.776649095093283
 30
0.0
 10
4.515184212960381
 20
5.787146941870883
 30
0.0
 10
4.516037316502315
 20
5.801432679013351
 30
0.0
 10
4.519211981061163
 20
5.810219095570833
 30
0.0
 10
4.520473332249673
 20
5.813710096513477
 30
0.0
  0
LINE
  5
FE
330
1F
100
AcDbEntity
  8
0
  6
Continuous
 62
     7
370
    15
100
AcDbLine
 10
4.5204733323
 20
5.8137100965
 30
0.0
 11
4.5625706799
 21
5.8137100965
 31
0.0
  0
LINE
  5
FF
330
1F
100
AcDbEntity
  8
0
  6
Continuous
 62
     7
370
    15
100
AcDbLine
 10
4.5625706799
 20
5.8137100965
 30
0.0
 11
4.5675706799
 21
5.8237743502
 31
0.0
  0
LINE
  5
100
330
1F
100
AcDbEntity
  8
0
  6
Continuous
 62
     7
370
    15
100
AcDbLine
 10
4.5675706799
 20
5.8237743502
 30
0.0
 11
4.5675706799
 21
5.8241612509
 31
0.0
  0
SPLINE
  5
101
330
1F
100
AcDbEntity
  8
0
  6
Continuous
 62
     7
370
    15
100
AcDbSpline
210
0.0
220
0.0
230
1.0
 70
     8
 71
     3
 72
    11
 73
     7
 74
     0
 42
0.000000001
 43
0.00000001
 40
0.0
 40
0.0
 40
0.0
 40
0.0
 40
0.2646136134961523
 40
0.5349657659035726
 40
0.765352424675166
 40
0.9999999999999999
 40
0.9999999999999999
 40
0.9999999999999999
 40
0.9999999999999999
 10
4.755695679549999
 20
5.634718194248933
 30
0.0
 10
4.758517350285484
 20
5.629237237155282
 30
0.0
 10
4.764221883873882
 20
5.618156460279334
 30
0.0
 10
4.766308409320278
 20
5.601739168532787
 30
0.0
 10
4.763245133607369
 20
5.586045746541653
 30
0.0
 10
4.758227489478331
 20
5.57642497159661
 30
0.0
 10
4.755695680113781
 20
5.571570508531139
 30
0.0
  0
LINE
  5
102
330
1F
100
AcDbEntity
  8
0
  6
Continuous
 62
     7
370
    15
100
AcDbLine
 10
4.5675706799
 20
5.5715705081
 30
0.0
 11
4.75569568
 21
5.5715705083
 31
0.0
  0
LINE
  5
103
330
1F
100
AcDbEntity
  8
0
  6
Continuous
 62
     7
370
    15
100
AcDbLine
 10
4.5675706799
 20
5.5715705081
 30
0.0
 11
4.5675706799
 21
5.5719574088
 31
0.0
  0
LINE
  5
104
330
1F
100
AcDbEntity
  8
0
  6
Continuous
 62
     7
370
    15
100
AcDbLine
 10
4.5675706799
 20
5.5719574088
 30
0.0
 11
4.5625706799
 21
5.5820216625
 31
0.0
  0
LINE
  5
105
330
1F
100
AcDbEntity
  8
0
  6
Continuous
 62
     7
370
    15
100
AcDbLine
 10
4.5625706799
 20
5.5820216625
 30
0.0
 11
4.5204733323
 21
5.5820216625
 31
0.0
  0
SPLINE
  5
106
330
1F
100
AcDbEntity
  8
0
  6
Continuous
 62
     7
370
    15
100
AcDbSpline
210
0.0
220
0.0
230
1.0
 70
     8
 71
     3
 72
    10
 73
     6
 74
     0
 42
0.000000001
 43
0.00000001
 40
0.0
 40
0.0
 40
0.0
 40
0.0
 40
0.3702926789854378
 40
0.7498059832618849
 40
1.0
 40
1.0
 40
1.0
 40
1.0
 10
4.520473332250677
 20
5.58202166246834
 30
0.0
 10
4.518724805788243
 20
5.587206038017106
 30
0.0
 10
4.515184212960382
 20
5.597703884792235
 30
0.0
 10
4.516037316502315
 20
5.61198962193563
 30
0.0
 10
4.519211981061163
 20
5.620776038493023
 30
0.0
 10
4.520473332249672
 20
5.62426703943563
 30
0.0
  0
LINE
  5
107
330
1F
100
AcDbEntity
  8
0
  6
Continuous
 62
     7
370
    15
100
AcDbLine
 10
4.5204733323
 20
5.6242670394
 30
0.0
 11
4.5625706799
 21
5.6242670394
 31
0.0
  0
LINE
  5
108
330
1F
100
AcDbEntity
  8
0
  6
Continuous
 62
     7
370
    15
100
AcDbLine
 10
4.5625706799
 20
5.6242670394
 30
0.0
 11
4.5675706799
 21
5.6343312931
 31
0.0
  0
LINE
  5
109
330
1F
100
AcDbEntity
  8
0
  6
Continuous
 62
     7
370
    15
100
AcDbLine
 10
4.5675706799
 20
5.6343312931
 30
0.0
 11
4.5675706799
 21
5.6347181938
 31
0.0
  0
LINE
  5
10A
330
1F
100
AcDbEntity
  8
0
  6
Continuous
 62
     7
370
    15
100
AcDbLine
 10
4.5625706799
 20
5.6556205025
 30
0.0
 11
4.5625706799
 21
5.6242670394
 31
0.0
  0
LINE
  5
10B
330
1F
100
AcDbEntity
  8
0
  6
Continuous
 62
     7
370
    15
100
AcDbLine
 10
4.5204733323
 20
5.6242670394
 30
0.0
 11
4.5204733323
 21
5.6556205025
 31
0.0
  0
LINE
  5
10C
330
1F
100
AcDbEntity
  8
0
  6
Continuous
 62
     7
370
    15
100
AcDbLine
 10
4.5625706799
 20
5.7714647195
 30
0.0
 11
4.5625706799
 21
5.7401112565
 31
0.0
  0
LINE
  5
10D
330
1F
100
AcDbEntity
  8
0
  6
Continuous
 62
     7
370
    15
100
AcDbLine
 10
4.5204733323
 20
5.7401112565
 30
0.0
 11
4.5204733323
 21
5.7714647195
 31
0.0
  0
LINE
  5
10E
330
1F
100
AcDbEntity
  8
0
  6
Continuous
 62
     7
370
    15
100
AcDbLine
 10
4.5204733323
 20
5.5806158795
 30
0.0
 11
4.5204733323
 21
5.5820216625
 31
0.0
  0
LINE
  5
10F
330
1F
100
AcDbEntity
  8
0
  6
Continuous
 62
     7
370
    15
100
AcDbLine
 10
4.5204733323
 20
5.8137100965
 30
0.0
 11
4.5204733323
 21
5.8151158795
 31
0.0
  0
LINE
  5
110
330
1F
100
AcDbEntity
  8
0
  6
Continuous
 62
     7
370
    15
100
AcDbLine
 10
4.7656956799
 20
5.6978658795
 30
0.0
 11
4.7656956799
 21
5.5888910162
 31
0.0
  0
LINE
  5
111
330
1F
100
AcDbEntity
  8
0
  6
Continuous
 62
     7
370
    15
100
AcDbLine
 10
4.7656956799
 20
5.8068407428
 30
0.0
 11
4.7656956799
 21
5.6978658795
 31
0.0
  0
LINE
  5
112
330
1F
100
AcDbEntity
  8
0
  6
Continuous
 62
     7
370
    15
100
AcDbLine
 10
4.5625706799
 20
5.8137100965
 30
0.0
 11
4.5625706799
 21
5.8151158795
 31
0.0
  0
LINE
  5
113
330
1F
100
AcDbEntity
  8
0
  6
Continuous
 62
     7
370
    15
100
AcDbLine
 10
4.5625706799
 20
5.5820216625
 30
0.0
 11
4.5625706799
 21
5.5806158795
 31
0.0
  0
LINE
  5
114
330
1F
100
AcDbEntity
  8
0
  6
Continuous
 62
     7
370
    15
100
AcDbLine
 10
3.8376956799
 20
5.8356158795
 30
0.0
 11
3.8376956799
 21
5.5601158795
 31
0.0
  0
LINE
  5
115
330
1F
100
AcDbEntity
  8
0
  6
Continuous
 62
     7
370
    15
100
AcDbLine
 10
3.6556956799
 20
5.8278658795
 30
0.0
 11
3.6556956799
 21
5.5678658795
 31
0.0
  0
SPLINE
  5
116
330
1F
100
AcDbEntity
  8
0
  6
Continuous
 62
     7
370
    15
100
AcDbSpline
210
0.0
220
0.0
230
1.0
 70
     8
 71
     3
 72
     9
 73
     5
 74
     0
 42
0.000000001
 43
0.00000001
 40
0.0
 40
0.0
 40
0.0
 40
0.0
 40
0.4989631660173288
 40
1.0
 40
1.0
 40
1.0
 40
1.0
 10
4.13616188012545
 20
5.761013564228828
 30
0.0
 10
4.137447381422333
 20
5.750548967313048
 30
0.0
 10
4.140023726500354
 20
5.729576283098084
 30
0.0
 10
4.140471385979549
 20
5.708450616565446
 30
0.0
 10
4.140695679867709
 20
5.697865879490159
 30
0.0
  0
SPLINE
  5
117
330
1F
100
AcDbEntity
  8
0
  6
Continuous
 62
     7
370
    15
100
AcDbSpline
210
0.0
220
0.0
230
1.0
 70
     8
 71
     3
 72
     9
 73
     5
 74
     0
 42
0.000000001
 43
0.00000001
 40
0.0
 40
0.0
 40
0.0
 40
0.0
 40
0.498790823298227
 40
1.0
 40
1.0
 40
1.0
 40
1.0
 10
4.140695679867708
 20
5.697865879490159
 30
0.0
 10
4.140473381401909
 20
5.687328600426266
 30
0.0
 10
4.140027706671311
 20
5.666202953017167
 30
0.0
 10
4.137452564716974
 20
5.645230019922804
 30
0.0
 10
4.136161879938151
 20
5.634718193393558
 30
0.0
  0
LINE
  5
118
330
1F
100
AcDbEntity
  8
0
  6
Continuous
 62
     7
370
    15
100
AcDbLine
 10
4.1361618801
 20
5.6347181936
 30
0.0
 11
3.9785896609
 21
5.6347181938
 31
0.0
  0
SPLINE
  5
119
330
1F
100
AcDbEntity
  8
0
  6
Continuous
 62
     7
370
    15
100
AcDbSpline
210
0.0
220
0.0
230
1.0
 70
     8
 71
     3
 72
     9
 73
     5
 74
     0
 42
0.000000001
 43
0.00000001
 40
0.0
 40
0.0
 40
0.0
 40
0.0
 40
0.495457963455997
 40
1.0
 40
1.0
 40
1.0
 40
1.0
 10
3.978589660863664
 20
5.634718193803868
 30
0.0
 10
3.97585925006645
 20
5.644973655570681
 30
0.0
 10
3.970348367209368
 20
5.665672609918451
 30
0.0
 10
3.969332983587938
 20
5.687069997821056
 30
0.0
 10
3.968820679867708
 20
5.697865879490157
 30
0.0
  0
SPLINE
  5
11A
330
1F
100
AcDbEntity
  8
0
  6
Continuous
 62
     7
370
    15
100
AcDbSpline
210
0.0
220
0.0
230
1.0
 70
     8
 71
     3
 72
     9
 73
     5
 74
     0
 42
0.000000001
 43
0.00000001
 40
0.0
 40
0.0
 40
0.0
 40
0.0
 40
0.4945107285003948
 40
1.0
 40
1.0
 40
1.0
 40
1.0
 10
3.968820679867708
 20
5.697865879490157
 30
0.0
 10
3.969312943291576
 20
5.708447011496652
 30
0.0
 10
3.970308398790307
 20
5.729844185302326
 30
0.0
 10
3.975809110242322
 20
5.750548005956642
 30
0.0
 10
3.97858966086693
 20
5.761013565176451
 30
0.0
  0
LINE
  5
11B
330
1F
100
AcDbEntity
  8
0
  6
Continuous
 62
     7
370
    15
100
AcDbLine
 10
3.9785896609
 20
5.7610135652
 30
0.0
 11
4.1361618801
 21
5.7610135647
 31
0.0
  0
SPLINE
  5
11C
330
1F
100
AcDbEntity
  8
0
  6
Continuous
 62
     7
370
    15
100
AcDbSpline
210
0.0
220
0.0
230
1.0
 70
     8
 71
     3
 72
     9
 73
     5
 74
     0
 42
0.000000001
 43
0.00000001
 40
0.0
 40
0.0
 40
0.0
 40
0.0
 40
0.4989631660173268
 40
1.0
 40
1.0
 40
1.0
 40
1.0
 10
4.13616188012545
 20
5.634718193314781
 30
0.0
 10
4.137447381422333
 20
5.629485894859302
 30
0.0
 10
4.140023726500354
 20
5.618999552756653
 30
0.0
 10
4.140471385979549
 20
5.608436719489365
 30
0.0
 10
4.140695679867709
 20
5.603144350951236
 30
0.0
  0
SPLINE
  5
11D
330
1F
100
AcDbEntity
  8
0
  6
Continuous
 62
     7
370
    15
100
AcDbSpline
210
0.0
220
0.0
230
1.0
 70
     8
 71
     3
 72
     9
 73
     5
 74
     0
 42
0.000000001
 43
0.00000001
 40
0.0
 40
0.0
 40
0.0
 40
0.0
 40
0.4945107285003939
 40
0.9999999999999999
 40
0.9999999999999999
 40
0.9999999999999999
 40
0.9999999999999999
 10
3.968820679867708
 20
5.603144350951236
 30
0.0
 10
3.969312943291576
 20
5.608434916954482
 30
0.0
 10
3.970308398790307
 20
5.61913350385732
 30
0.0
 10
3.975809110242322
 20
5.629485414184478
 30
0.0
 10
3.97858966086693
 20
5.634718193794382
 30
0.0
  0
LINE
  5
11E
330
1F
100
AcDbEntity
  8
0
  6
Continuous
 62
     7
370
    15
100
AcDbLine
 10
3.9688206799
 20
5.6978658795
 30
0.0
 11
3.9688206799
 21
5.603144351
 31
0.0
  0
SPLINE
  5
11F
330
1F
100
AcDbEntity
  8
0
  6
Continuous
 62
     7
370
    15
100
AcDbSpline
210
0.0
220
0.0
230
1.0
 70
     8
 71
     3
 72
     9
 73
     5
 74
     0
 42
0.000000001
 43
0.00000001
 40
0.0
 40
0.0
 40
0.0
 40
0.0
 40
0.4987908232982292
 40
0.9999999999999999
 40
0.9999999999999999
 40
0.9999999999999999
 40
0.9999999999999999
 10
4.140695679867709
 20
5.792587408029081
 30
0.0
 10
4.140473381401909
 20
5.787318768497134
 30
0.0
 10
4.140027706671311
 20
5.776755944792585
 30
0.0
 10
4.137452564716974
 20
5.766269478245404
 30
0.0
 10
4.136161879938151
 20
5.761013564980781
 30
0.0
  0
SPLINE
  5
120
330
1F
100
AcDbEntity
  8
0
  6
Continuous
 62
     7
370
    15
100
AcDbSpline
210
0.0
220
0.0
230
1.0
 70
     8
 71
     3
 72
     9
 73
     5
 74
     0
 42
0.000000001
 43
0.00000001
 40
0.0
 40
0.0
 40
0.0
 40
0.0
 40
0.4774734509845111
 40
0.9999999999999999
 40
0.9999999999999999
 40
0.9999999999999999
 40
0.9999999999999999
 10
4.136436066712302
 20
5.822865879490159
 30
0.0
 10
4.137608630598682
 20
5.818064597259045
 30
0.0
 10
4.14006439831511
 20
5.808008996845631
 30
0.0
 10
4.14047902593064
 20
5.797880051096526
 30
0.0
 10
4.140695679867709
 20
5.792587408029081
 30
0.0
  0
SPLINE
  5
121
330
1F
100
AcDbEntity
  8
0
  6
Continuous
 62
     7
370
    15
100
AcDbSpline
210
0.0
220
0.0
230
1.0
 70
     8
 71
     3
 72
     9
 73
     5
 74
     0
 42
0.000000001
 43
0.00000001
 40
0.0
 40
0.0
 40
0.0
 40
0.0
 40
0.495457963455995
 40
1.0
 40
1.0
 40
1.0
 40
1.0
 10
3.978589660863664
 20
5.761013565190257
 30
0.0
 10
3.97585925006645
 20
5.766141296071867
 30
0.0
 10
3.970348367209367
 20
5.776490773242124
 30
0.0
 10
3.969332983587938
 20
5.78718946719416
 30
0.0
 10
3.968820679867708
 20
5.792587408029081
 30
0.0
  0
SPLINE
  5
122
330
1F
100
AcDbEntity
  8
0
  6
Continuous
 62
     7
370
    15
100
AcDbSpline
210
0.0
220
0.0
230
1.0
 70
     8
 71
     3
 72
     9
 73
     5
 74
     0
 42
0.000000001
 43
0.00000001
 40
0.0
 40
0.0
 40
0.0
 40
0.0
 40
0.4945107285003918
 40
1.0
 40
1.0
 40
1.0
 40
1.0
 10
3.968820679867708
 20
5.792587408029081
 30
0.0
 10
3.969312943291575
 20
5.797877974032328
 30
0.0
 10
3.970308398790306
 20
5.808576560935165
 30
0.0
 10
3.975809110242322
 20
5.818928471262322
 30
0.0
 10
3.97858966086693
 20
5.824161250872227
 30
0.0
  0
LINE
  5
123
330
1F
100
AcDbEntity
  8
0
  6
Continuous
 62
     7
370
    15
100
AcDbLine
 10
4.1094456799
 20
5.8241612507
 30
0.0
 11
3.9785896609
 21
5.8241612509
 31
0.0
  0
LINE
  5
124
330
1F
100
AcDbEntity
  8
0
  6
Continuous
 62
     7
370
    15
100
AcDbLine
 10
3.9688206799
 20
5.792587408
 30
0.0
 11
3.9688206799
 21
5.6978658795
 31
0.0
  0
SPLINE
  5
125
330
1F
100
AcDbEntity
  8
0
  6
Continuous
 62
     7
370
    15
100
AcDbSpline
210
0.0
220
0.0
230
1.0
 70
     8
 71
     3
 72
     9
 73
     5
 74
     0
 42
0.000000001
 43
0.00000001
 40
0.0
 40
0.0
 40
0.0
 40
0.0
 40
0.498790823319233
 40
1.0
 40
1.0
 40
1.0
 40
1.0
 10
4.140695679867709
 20
5.603144350951236
 30
0.0
 10
4.140473381407009
 20
5.597875711476047
 30
0.0
 10
4.140027706686651
 20
5.587312887885735
 30
0.0
 10
4.137452564782654
 20
5.576826421450641
 30
0.0
 10
4.136161880029116
 20
5.571570508242418
 30
0.0
  0
LINE
  5
126
330
1F
100
AcDbEntity
  8
0
  6
Continuous
 62
     7
370
    15
100
AcDbLine
 10
4.13616188
 20
5.5715705082
 30
0.0
 11
3.9785896609
 21
5.5715705081
 31
0.0
  0
SPLINE
  5
127
330
1F
100
AcDbEntity
  8
0
  6
Continuous
 62
     7
370
    15
100
AcDbSpline
210
0.0
220
0.0
230
1.0
 70
     8
 71
     3
 72
     9
 73
     5
 74
     0
 42
0.000000001
 43
0.00000001
 40
0.0
 40
0.0
 40
0.0
 40
0.0
 40
0.4954579634559952
 40
1.0
 40
1.0
 40
1.0
 40
1.0
 10
3.978589660863664
 20
5.57157050810377
 30
0.0
 10
3.97585925006645
 20
5.576698238988973
 30
0.0
 10
3.970348367209368
 20
5.587047716166485
 30
0.0
 10
3.969332983587938
 20
5.597746410117054
 30
0.0
 10
3.968820679867708
 20
5.603144350951236
 30
0.0
  0
LINE
  5
128
330
1F
100
AcDbEntity
  8
0
  6
Continuous
 62
     7
370
    15
100
AcDbLine
 10
3.9688206799
 20
5.603144351
 30
0.0
 11
3.9688206799
 21
5.5884908795
 31
0.0
  0
LINE
  5
129
330
1F
100
AcDbEntity
  8
0
  6
Continuous
 62
     7
370
    15
100
AcDbLine
 10
3.9688206799
 20
5.8072408795
 30
0.0
 11
3.9688206799
 21
5.792587408
 31
0.0
  0
LINE
  5
12A
330
1F
100
AcDbEntity
  8
0
  6
Continuous
 62
     7
370
    15
100
AcDbLine
 10
4.5156956799
 20
5.8228658795
 30
0.0
 11
4.5156956799
 21
5.5728658795
 31
0.0
  0
LINE
  5
12B
330
1F
100
AcDbEntity
  8
0
  6
Continuous
 62
     7
370
    15
100
AcDbLine
 10
4.5156956799
 20
5.5728658795
 30
0.0
 11
4.1406956799
 21
5.5728658795
 31
0.0
  0
LINE
  5
12C
330
1F
100
AcDbEntity
  8
0
  6
Continuous
 62
     7
370
    15
100
AcDbLine
 10
4.1406956799
 20
5.5728658795
 30
0.0
 11
4.1406956799
 21
5.8228658795
 31
0.0
  0
CIRCLE
  5
12D
330
1F
100
AcDbEntity
  8
0
  6
Continuous
 62
     7
370
    15
100
AcDbCircle
 10
4.2031956799
 20
5.8853658795
 30
0.0
 40
0.020575000006847
  0
CIRCLE
  5
12E
330
1F
100
AcDbEntity
  8
0
  6
Continuous
 62
     7
370
    15
100
AcDbCircle
 10
4.4531956799
 20
5.8853658795
 30
0.0
 40
0.0205750000068461
  0
LINE
  5
12F
330
1F
100
AcDbEntity
  8
0
  6
Continuous
 62
     7
370
    15
100
AcDbLine
 10
5.8043191129
 20
7.6588033794
 30
0.0
 11
5.8039244033
 21
7.6586976172
 31
0.0
  0
SPLINE
  5
130
330
1F
100
AcDbEntity
  8
0
  6
Continuous
 62
     7
370
    15
100
AcDbSpline
210
0.0
220
0.0
230
1.0
 70
     8
 71
     3
 72
    11
 73
     7
 74
     0
 42
0.000000001
 43
0.00000001
 40
0.0
 40
0.0
 40
0.0
 40
0.0
 40
0.2471026483657312
 40
0.4952089994577472
 40
0.7469801478925762
 40
1.0
 40
1.0
 40
1.0
 40
1.0
 10
5.897674402761631
 20
7.654811502699042
 30
0.0
 10
5.905368106688515
 20
7.655876973481246
 30
0.0
 10
5.92078676548863
 20
7.658012242866243
 30
0.0
 10
5.944212928294465
 20
7.659025440360915
 30
0.0
 10
5.967828107558951
 20
7.658070385804095
 30
0.0
 10
5.983546010336558
 20
7.655899587356914
 30
0.0
 10
5.991424402447268
 20
7.65481150317659
 30
0.0
  0
LINE
  5
131
330
1F
100
AcDbEntity
  8
0
  6
Continuous
 62
     7
370
    15
100
AcDbLine
 10
5.9914244033
 20
7.5728658795
 30
0.0
 11
5.9914244029
 21
7.6548115031
 31
0.0
  0
LINE
  5
132
330
1F
100
AcDbEntity
  8
0
  6
Continuous
 62
     7
370
    15
100
AcDbLine
 10
5.8976744033
 20
7.5728658795
 30
0.0
 11
5.8976744029
 21
7.6548115031
 31
0.0
  0
SPLINE
  5
133
330
1F
100
AcDbEntity
  8
0
  6
Continuous
 62
     7
370
    15
100
AcDbSpline
210
0.0
220
0.0
230
1.0
 70
     8
 71
     3
 72
    11
 73
     7
 74
     0
 42
0.000000001
 43
0.00000001
 40
0.0
 40
0.0
 40
0.0
 40
0.0
 40
0.2471026483657332
 40
0.4952089994577477
 40
0.7469801478925745
 40
1.0
 40
1.0
 40
1.0
 40
1.0
 10
5.803924403130536
 20
7.654811502699043
 30
0.0
 10
5.811618106901593
 20
7.655876973481249
 30
0.0
 10
5.827036765389418
 20
7.658012242866247
 30
0.0
 10
5.8504629283214
 20
7.65902544036092
 30
0.0
 10
5.874078107552136
 20
7.658070385804098
 30
0.0
 10
5.889796010334283
 20
7.655899587356916
 30
0.0
 10
5.897674402447268
 20
7.65481150317659
 30
0.0
  0
LINE
  5
134
330
1F
100
AcDbEntity
  8
0
  6
Continuous
 62
     7
370
    15
100
AcDbLine
 10
5.8039244033
 20
7.5728658795
 30
0.0
 11
5.8039244033
 21
7.6548115031
 31
0.0
  0
SPLINE
  5
135
330
1F
100
AcDbEntity
  8
0
  6
Continuous
 62
     7
370
    15
100
AcDbSpline
210
0.0
220
0.0
230
1.0
 70
    24
 71
     3
 72
     9
 73
     5
 74
     0
 42
0.000000001
 43
0.00000001
 40
0.0
 40
0.0
 40
0.0
 40
0.0
 40
0.4939607510269404
 40
1.0
 40
1.0
 40
1.0
 40
1.0
 10
5.803924403282434
 20
7.658678088623962
 30
0.0
 10
5.803924403282434
 20
7.658499317384573
 30
0.0
 10
5.803924403282434
 20
7.658137403530048
 30
0.0
 10
5.803924403282433
 20
7.655929027914523
 30
0.0
 10
5.803924403282433
 20
7.654811503176591
 30
0.0
  0
SPLINE
  5
136
330
1F
100
AcDbEntity
  8
0
  6
Continuous
 62
     7
370
    15
100
AcDbSpline
210
0.0
220
0.0
230
1.0
 70
     8
 71
     3
 72
    11
 73
     7
 74
     0
 42
0.000000001
 43
0.00000001
 40
0.0
 40
0.0
 40
0.0
 40
0.0
 40
0.2471026484822582
 40
0.4952089995988362
 40
0.7469801479828435
 40
1.0
 40
1.0
 40
1.0
 40
1.0
 10
5.89767440242182
 20
7.654811503211575
 30
0.0
 10
5.889980698662587
 20
7.655876973819114
 30
0.0
 10
5.874562040201332
 20
7.658012242853673
 30
0.0
 10
5.851135877633324
 20
7.659025440376514
 30
0.0
 10
5.827520698696141
 20
7.658070385760086
 30
0.0
 10
5.811802796124474
 20
7.655899587342165
 30
0.0
 10
5.803924404117599
 20
7.65481150317659
 30
0.0
  0
SPLINE
  5
137
330
1F
100
AcDbEntity
  8
0
  6
Continuous
 62
     7
370
    15
100
AcDbSpline
210
0.0
220
0.0
230
1.0
 70
     8
 71
     3
 72
    11
 73
     7
 74
     0
 42
0.000000001
 43
0.00000001
 40
0.0
 40
0.0
 40
0.0
 40
0.0
 40
0.2471026482985663
 40
0.49520899935173
 40
0.7469801478326097
 40
1.0
 40
1.0
 40
1.0
 40
1.0
 10
5.991424403434329
 20
7.65481150269904
 30
0.0
 10
5.98373069957138
 20
7.655876973492467
 30
0.0
 10
5.968312040898503
 20
7.65801224290008
 30
0.0
 10
5.944885877680846
 20
7.659025440370215
 30
0.0
 10
5.921270698161869
 20
7.658070385737006
 30
0.0
 10
5.90555279518959
 20
7.655899587217419
 30
0.0
 10
5.897674402981092
 20
7.654811503000771
 30
0.0
  0
SPLINE
  5
138
330
1F
100
AcDbEntity
  8
0
  6
Continuous
 62
     7
370
    15
100
AcDbSpline
210
0.0
220
0.0
230
1.0
 70
     8
 71
     3
 72
     9
 73
     5
 74
     0
 42
0.000000001
 43
0.00000001
 40
0.0
 40
0.0
 40
0.0
 40
0.0
 40
0.4989865867468286
 40
1.0
 40
1.0
 40
1.0
 40
1.0
 10
5.991424402913528
 20
7.654811502699042
 30
0.0
 10
5.991424403067176
 20
7.655903746762592
 30
0.0
 10
5.991424403375097
 20
7.658092671460292
 30
0.0
 10
5.991424403313363
 20
7.658495438330169
 30
0.0
 10
5.991424403282434
 20
7.658697229934392
 30
0.0
  0
LINE
  5
139
330
1F
100
AcDbEntity
  8
0
  6
Continuous
 62
     7
370
    15
100
AcDbLine
 10
6.1086119033
 20
5.8228658795
 30
0.0
 11
6.1086119033
 21
7.3228658795
 31
0.0
  0
LINE
  5
13A
330
1F
100
AcDbEntity
  8
0
  6
Continuous
 62
     7
370
    15
100
AcDbLine
 10
6.1164244033
 20
7.3150533795
 30
0.0
 11
6.1086119033
 21
7.3228658795
 31
0.0
  0
LINE
  5
13B
330
1F
100
AcDbEntity
  8
0
  6
Continuous
 62
     7
370
    15
100
AcDbLine
 10
6.1164244033
 20
7.3150533795
 30
0.0
 11
6.1164244033
 21
5.8306783795
 31
0.0
  0
LINE
  5
13C
330
1F
100
AcDbEntity
  8
0
  6
Continuous
 62
     7
370
    15
100
AcDbLine
 10
6.1164244033
 20
5.8306783795
 30
0.0
 11
6.1086119033
 21
5.8228658795
 31
0.0
  0
LINE
  5
13D
330
1F
100
AcDbEntity
  8
0
  6
Continuous
 62
     7
370
    15
100
AcDbLine
 10
6.0851744033
 20
5.8228658795
 30
0.0
 11
6.1086119033
 21
5.8228658795
 31
0.0
  0
LINE
  5
13E
330
1F
100
AcDbEntity
  8
0
  6
Continuous
 62
     7
370
    15
100
AcDbLine
 10
6.0851744033
 20
5.8228658795
 30
0.0
 11
6.0851744033
 21
7.3228658795
 31
0.0
  0
LINE
  5
13F
330
1F
100
AcDbEntity
  8
0
  6
Continuous
 62
     7
370
    15
100
AcDbLine
 10
6.0851744033
 20
7.3228658795
 30
0.0
 11
6.1086119033
 21
7.3228658795
 31
0.0
  0
LINE
  5
140
330
1F
100
AcDbEntity
  8
0
  6
Continuous
 62
     7
370
    15
100
AcDbLine
 10
5.6867369033
 20
7.3228658795
 30
0.0
 11
5.6867369033
 21
5.8228658795
 31
0.0
  0
LINE
  5
141
330
1F
100
AcDbEntity
  8
0
  6
Continuous
 62
     7
370
    15
100
AcDbLine
 10
5.7101744033
 20
7.3228658795
 30
0.0
 11
5.6867369033
 21
7.3228658795
 31
0.0
  0
LINE
  5
142
330
1F
100
AcDbEntity
  8
0
  6
Continuous
 62
     7
370
    15
100
AcDbLine
 10
5.6867369033
 20
5.8228658795
 30
0.0
 11
5.7101744033
 21
5.8228658795
 31
0.0
  0
LINE
  5
143
330
1F
100
AcDbEntity
  8
0
  6
Continuous
 62
     7
370
    15
100
AcDbLine
 10
5.7101744033
 20
7.3228658795
 30
0.0
 11
5.7101744033
 21
5.8228658795
 31
0.0
  0
LINE
  5
144
330
1F
100
AcDbEntity
  8
0
  6
Continuous
 62
     7
370
    15
100
AcDbLine
 10
5.6789244033
 20
5.8306783795
 30
0.0
 11
5.6789244033
 21
7.3150533795
 31
0.0
  0
LINE
  5
145
330
1F
100
AcDbEntity
  8
0
  6
Continuous
 62
     7
370
    15
100
AcDbLine
 10
5.6789244033
 20
7.3150533795
 30
0.0
 11
5.6867369033
 21
7.3228658795
 31
0.0
  0
LINE
  5
146
330
1F
100
AcDbEntity
  8
0
  6
Continuous
 62
     7
370
    15
100
AcDbLine
 10
5.6867369033
 20
5.8228658795
 30
0.0
 11
5.6789244033
 21
5.8306783795
 31
0.0
  0
LINE
  5
147
330
1F
100
AcDbEntity
  8
0
  6
Continuous
 62
     7
370
    15
100
AcDbLine
 10
6.0851744033
 20
7.5728658795
 30
0.0
 11
5.7101744033
 21
7.5728658795
 31
0.0
  0
LINE
  5
148
330
1F
100
AcDbEntity
  8
0
  6
Continuous
 62
     7
370
    15
100
AcDbLine
 10
5.7101744033
 20
7.5728658795
 30
0.0
 11
5.7101744033
 21
7.3228658795
 31
0.0
  0
LINE
  5
149
330
1F
100
AcDbEntity
  8
0
  6
Continuous
 62
     7
370
    15
100
AcDbLine
 10
6.0851744033
 20
7.3228658795
 30
0.0
 11
6.0851744033
 21
7.5728658795
 31
0.0
  0
CIRCLE
  5
14A
330
1F
100
AcDbEntity
  8
0
  6
Continuous
 62
     7
370
    15
100
AcDbCircle
 10
6.0226744033
 20
7.2603658795
 30
0.0
 40
0.020575000007268
  0
CIRCLE
  5
14B
330
1F
100
AcDbEntity
  8
0
  6
Continuous
 62
     7
370
    15
100
AcDbCircle
 10
5.7726744033
 20
7.2603658795
 30
0.0
 40
0.020575000007268
  0
CIRCLE
  5
14C
330
1F
100
AcDbEntity
  8
0
  6
Continuous
 62
     7
370
    15
100
AcDbCircle
 10
6.0226744033
 20
7.2603658795
 30
0.0
 40
0.0487500000009264
  0
CIRCLE
  5
14D
330
1F
100
AcDbEntity
  8
0
  6
Continuous
 62
     7
370
    15
100
AcDbCircle
 10
5.7726744033
 20
7.2603658795
 30
0.0
 40
0.048750000000461
  0
CIRCLE
  5
14E
330
1F
100
AcDbEntity
  8
0
  6
Continuous
 62
     7
370
    15
100
AcDbCircle
 10
6.0226744033
 20
5.8853658795
 30
0.0
 40
0.0487500000009264
  0
CIRCLE
  5
14F
330
1F
100
AcDbEntity
  8
0
  6
Continuous
 62
     7
370
    15
100
AcDbCircle
 10
5.7726744033
 20
5.8853658795
 30
0.0
 40
0.048750000000461
  0
LINE
  5
150
330
1F
100
AcDbEntity
  8
0
  6
Continuous
 62
     7
370
    15
100
AcDbLine
 10
6.0851744033
 20
5.8228658795
 30
0.0
 11
5.8999180523
 21
5.8228658795
 31
0.0
  0
LINE
  5
151
330
1F
100
AcDbEntity
  8
0
  6
Continuous
 62
     7
370
    15
100
AcDbLine
 10
5.8954307542
 20
5.8228658795
 30
0.0
 11
5.7101744033
 21
5.8228658795
 31
0.0
  0
LINE
  5
152
330
1F
100
AcDbEntity
  8
0
  6
Continuous
 62
     7
370
    15
100
AcDbLine
 10
5.7101744033
 20
7.3228658795
 30
0.0
 11
6.0851744033
 21
7.3228658795
 31
0.0
  0
CIRCLE
  5
153
330
1F
100
AcDbEntity
  8
0
  6
Continuous
 62
     7
370
    15
100
AcDbCircle
 10
6.0226744033
 20
7.2603658795
 30
0.0
 40
0.0261249999999995
  0
CIRCLE
  5
154
330
1F
100
AcDbEntity
  8
0
  6
Continuous
 62
     7
370
    15
100
AcDbCircle
 10
6.0226744033
 20
5.8853658795
 30
0.0
 40
0.0261249999999995
  0
CIRCLE
  5
155
330
1F
100
AcDbEntity
  8
0
  6
Continuous
 62
     7
370
    15
100
AcDbCircle
 10
5.7726744033
 20
7.2603658795
 30
0.0
 40
0.0261250000000004
  0
CIRCLE
  5
156
330
1F
100
AcDbEntity
  8
0
  6
Continuous
 62
     7
370
    15
100
AcDbCircle
 10
5.7726744033
 20
5.8853658795
 30
0.0
 40
0.0261250000000004
  0
CIRCLE
  5
157
330
1F
100
AcDbEntity
  8
0
  6
Continuous
 62
     7
370
    15
100
AcDbCircle
 10
5.8976744033
 20
5.6978658795
 30
0.0
 40
0.0080744900322553
  0
CIRCLE
  5
158
330
1F
100
AcDbEntity
  8
0
  6
Continuous
 62
     7
370
    15
100
AcDbCircle
 10
5.8976744033
 20
5.6978658795
 30
0.0
 40
0.1089748633215084
  0
SPLINE
  5
159
330
1F
100
AcDbEntity
  8
0
  6
Continuous
 62
     7
370
    15
100
AcDbSpline
210
0.0
220
0.0
230
1.0
 70
     8
 71
     3
 72
    11
 73
     7
 74
     0
 42
0.000000001
 43
0.00000001
 40
0.0
 40
0.0
 40
0.0
 40
0.0
 40
0.2646136134961543
 40
0.534965765903576
 40
0.7653524246751663
 40
1.0
 40
1.0
 40
1.0
 40
1.0
 10
5.897674402869716
 20
5.571570508292857
 30
0.0
 10
5.907167698874185
 20
5.577051465116589
 30
0.0
 10
5.926360167095607
 20
5.588132241446846
 30
0.0
 10
5.954795750647989
 20
5.604549533409345
 30
0.0
 10
5.981977554852902
 20
5.620242955351377
 30
0.0
 10
5.998641225869527
 20
5.629863730302699
 30
0.0
 10
6.007049402544217
 20
5.634718193371337
 30
0.0
  0
SPLINE
  5
15A
330
1F
100
AcDbEntity
  8
0
  6
Continuous
 62
     7
370
    15
100
AcDbSpline
210
0.0
220
0.0
230
1.0
 70
     8
 71
     3
 72
    11
 73
     7
 74
     0
 42
0.000000001
 43
0.00000001
 40
0.0
 40
0.0
 40
0.0
 40
0.0
 40
0.2646136134961523
 40
0.5349657659035727
 40
0.765352424675166
 40
1.0
 40
1.0
 40
1.0
 40
1.0
 10
5.788299403238824
 20
5.634718194248933
 30
0.0
 10
5.797792699087456
 20
5.629237237155282
 30
0.0
 10
5.816985166993824
 20
5.618156460279334
 30
0.0
 10
5.845420750670884
 20
5.601739168532787
 30
0.0
 10
5.872602554847448
 20
5.586045746541653
 30
0.0
 10
5.889266225867698
 20
5.576424971596611
 30
0.0
 10
5.897674402544216
 20
5.57157050853114
 30
0.0
  0
SPLINE
  5
15B
330
1F
100
AcDbEntity
  8
0
  6
Continuous
 62
     7
370
    15
100
AcDbSpline
210
0.0
220
0.0
230
1.0
 70
    24
 71
     3
 72
    11
 73
     7
 74
     0
 42
0.000000001
 43
0.00000001
 40
0.0
 40
0.0
 40
0.0
 40
0.0
 40
0.2646136127554461
 40
0.5349657642288481
 40
0.7653524238103027
 40
0.9999999999999999
 40
0.9999999999999999
 40
0.9999999999999999
 40
0.9999999999999999
 10
5.788299403282433
 20
5.76101356551063
 30
0.0
 10
5.788299403282433
 20
5.750051651601678
 30
0.0
 10
5.788299403282433
 20
5.727890098419857
 30
0.0
 10
5.788299403282433
 20
5.695055514765359
 30
0.0
 10
5.788299403282433
 20
5.663668670788983
 30
0.0
 10
5.788299403282433
 20
5.64442712082102
 30
0.0
 10
5.788299403282433
 20
5.634718194649965
 30
0.0
  0
SPLINE
  5
15C
330
1F
100
AcDbEntity
  8
0
  6
Continuous
 62
     7
370
    15
100
AcDbSpline
210
0.0
220
0.0
230
1.0
 70
    24
 71
     3
 72
    11
 73
     7
 74
     0
 42
0.000000001
 43
0.00000001
 40
0.0
 40
0.0
 40
0.0
 40
0.0
 40
0.264613614061752
 40
0.5349657669360347
 40
0.765352425258522
 40
1.0
 40
1.0
 40
1.0
 40
1.0
 10
5.897674402544216
 20
5.824161250449183
 30
0.0
 10
5.888181106658532
 20
5.818680293514086
 30
0.0
 10
5.868988638681238
 20
5.807599516960981
 30
0.0
 10
5.840553055321004
 20
5.791182225253386
 30
0.0
 10
5.813371251416116
 20
5.77548880345184
 30
0.0
 10
5.796707580594636
 20
5.765868028617372
 30
0.0
 10
5.788299404020649
 20
5.761013565608986
 30
0.0
  0
SPLINE
  5
15D
330
1F
100
AcDbEntity
  8
0
  6
Continuous
 62
     7
370
    15
100
AcDbSpline
210
0.0
220
0.0
230
1.0
 70
     8
 71
     3
 72
    11
 73
     7
 74
     0
 42
0.000000001
 43
0.00000001
 40
0.0
 40
0.0
 40
0.0
 40
0.0
 40
0.2646136110892984
 40
0.5349657610376654
 40
0.7653524221553876
 40
1.0
 40
1.0
 40
1.0
 40
1.0
 10
6.007049403326041
 20
5.76101356473139
 30
0.0
 10
5.997556107477383
 20
5.766494521825055
 30
0.0
 10
5.978363639570962
 20
5.777575298701034
 30
0.0
 10
5.949928055729267
 20
5.793992590542635
 30
0.0
 10
5.922746251216462
 20
5.809686012727896
 30
0.0
 10
5.906082579885138
 20
5.819306787852538
 30
0.0
 10
5.897674403049345
 20
5.824161251009966
 30
0.0
  0
SPLINE
  5
15E
330
1F
100
AcDbEntity
  8
0
  6
Continuous
 62
     7
370
    15
100
AcDbSpline
210
0.0
220
0.0
230
1.0
 70
     8
 71
     3
 72
    11
 73
     7
 74
     0
 42
0.000000001
 43
0.00000001
 40
0.0
 40
0.0
 40
0.0
 40
0.0
 40
0.2646136134961561
 40
0.5349657659035773
 40
0.7653524246751687
 40
0.9999999999999999
 40
0.9999999999999999
 40
0.9999999999999999
 40
0.9999999999999999
 10
6.007049402913325
 20
5.634718193534086
 30
0.0
 10
6.007049403069162
 20
5.645680107451468
 30
0.0
 10
6.007049403384218
 20
5.667841660657674
 30
0.0
 10
6.007049403259538
 20
5.70067624436672
 30
0.0
 10
6.007049403287886
 20
5.732063088299885
 30
0.0
 10
6.007049403284261
 20
5.751304638196249
 30
0.0
 10
6.007049403282433
 20
5.761013564330358
 30
0.0
  0
CIRCLE
  5
15F
330
1F
100
AcDbEntity
  8
0
  6
Continuous
 62
     7
370
    15
100
AcDbCircle
 10
5.8976744033
 20
5.6978658795
 30
0.0
 40
0.0843124999999993
  0
CIRCLE
  5
160
330
1F
100
AcDbEntity
  8
0
  6
Continuous
 62
     7
370
    15
100
AcDbCircle
 10
5.8976744033
 20
5.6978658795
 30
0.0
 40
0.0743124999999996
  0
CIRCLE
  5
161
330
1F
100
AcDbEntity
  8
0
  6
Continuous
 62
     7
370
    15
100
AcDbCircle
 10
5.8976744033
 20
5.6978658795
 30
0.0
 40
0.0466875000190843
  0
ARC
  5
162
330
1F
100
AcDbEntity
  8
0
  6
Continuous
 62
     7
370
    15
100
AcDbCircle
 10
5.8976744033
 20
5.6978658795
 30
0.0
 40
0.1377500000000009
100
AcDbArc
 50
245.1540801856
 51
294.8459198144
  0
LINE
  5
163
330
1F
100
AcDbEntity
  8
0
  6
Continuous
 62
     7
370
    15
100
AcDbLine
 10
5.9039814688
 20
5.572532346
 30
0.0
 11
5.899792025
 21
5.5723916217
 31
0.0
  0
LWPOLYLINE
  5
164
330
1F
100
AcDbEntity
  8
0
  6
Continuous
 62
     7
370
    15
100
AcDbPolyline
 90
        3
 70
   128
 43
0.0
 10
5.8949683997
 20
5.5724029319
 10
5.8893884876
 20
5.5726476009
 10
5.886571535
 20
5.5728658795
  0
LINE
  5
165
330
1F
100
AcDbEntity
  8
0
  6
Continuous
 62
     7
370
    15
100
AcDbLine
 10
5.9087772716
 20
5.5728658795
 30
0.0
 11
5.9039814688
 21
5.572532346
 31
0.0
  0
LWPOLYLINE
  5
166
330
1F
100
AcDbEntity
  8
0
  6
Continuous
 62
     7
370
    15
100
AcDbPolyline
 90
        3
 70
   128
 43
0.0
 10
6.0073721154
 20
5.709495996
 10
6.0079869033
 20
5.6978658795
 10
6.007718604
 20
5.6901768262
  0
LINE
  5
167
330
1F
100
AcDbEntity
  8
0
  6
Continuous
 62
     7
370
    15
100
AcDbLine
 10
5.7101744033
 20
5.8228658795
 30
0.0
 11
5.7101744033
 21
5.5728658795
 31
0.0
  0
LINE
  5
168
330
1F
100
AcDbEntity
  8
0
  6
Continuous
 62
     7
370
    15
100
AcDbLine
 10
6.0851744033
 20
5.5728658795
 30
0.0
 11
6.0851744033
 21
5.8228658795
 31
0.0
  0
LINE
  5
169
330
1F
100
AcDbEntity
  8
0
  6
Continuous
 62
     7
370
    15
100
AcDbLine
 10
5.7101744033
 20
5.5728658795
 30
0.0
 11
5.8954307542
 21
5.5728658795
 31
0.0
  0
LINE
  5
16A
330
1F
100
AcDbEntity
  8
0
  6
Continuous
 62
     7
370
    15
100
AcDbLine
 10
5.8999180517
 20
5.5728658795
 30
0.0
 11
6.0851744033
 21
5.5728658795
 31
0.0
  0
CIRCLE
  5
16B
330
1F
100
AcDbEntity
  8
0
  6
Continuous
 62
     7
370
    15
100
AcDbCircle
 10
6.0226744033
 20
5.8853658795
 30
0.0
 40
0.0205750000066152
  0
CIRCLE
  5
16C
330
1F
100
AcDbEntity
  8
0
  6
Continuous
 62
     7
370
    15
100
AcDbCircle
 10
5.7726744033
 20
5.8853658795
 30
0.0
 40
0.0205750000066143
  0
LINE
  5
16D
330
1F
100
AcDbEntity
  8
0
  6
Continuous
 62
     7
370
    15
100
AcDbLine
 10
2.4462765597
 20
7.6588033794
 30
0.0
 11
2.4458818501
 21
7.6586976172
 31
0.0
  0
SPLINE
  5
16E
330
1F
100
AcDbEntity
  8
0
  6
Continuous
 62
     7
370
    15
100
AcDbSpline
210
0.0
220
0.0
230
1.0
 70
     8
 71
     3
 72
    11
 73
     7
 74
     0
 42
0.000000001
 43
0.00000001
 40
0.0
 40
0.0
 40
0.0
 40
0.0
 40
0.2471026482985659
 40
0.4952089993517296
 40
0.7469801478326096
 40
1.0
 40
1.0
 40
1.0
 40
1.0
 10
2.445881849938836
 20
7.654811502699041
 30
0.0
 10
2.453575553801784
 20
7.655876973492468
 30
0.0
 10
2.468994212474661
 20
7.65801224290008
 30
0.0
 10
2.492420375692319
 20
7.659025440370217
 30
0.0
 10
2.516035555211296
 20
7.658070385737007
 30
0.0
 10
2.531753458183574
 20
7.65589958721742
 30
0.0
 10
2.539631850392072
 20
7.654811503000772
 30
0.0
  0
LINE
  5
16F
330
1F
100
AcDbEntity
  8
0
  6
Continuous
 62
     7
370
    15
100
AcDbLine
 10
2.5396318503
 20
7.654811503
 30
0.0
 11
2.5396318501
 21
7.5741612509
 31
0.0
  0
LINE
  5
170
330
1F
100
AcDbEntity
  8
0
  6
Continuous
 62
     7
370
    15
100
AcDbLine
 10
2.4458818501
 20
7.5728658795
 30
0.0
 11
2.4458818501
 21
7.6548115031
 31
0.0
  0
SPLINE
  5
171
330
1F
100
AcDbEntity
  8
0
  6
Continuous
 62
     7
370
    15
100
AcDbSpline
210
0.0
220
0.0
230
1.0
 70
     8
 71
     3
 72
    11
 73
     7
 74
     0
 42
0.000000001
 43
0.00000001
 40
0.0
 40
0.0
 40
0.0
 40
0.0
 40
0.2471026484822581
 40
0.495208999598836
 40
0.7469801479828432
 40
1.0
 40
1.0
 40
1.0
 40
1.0
 10
2.539631850951344
 20
7.654811503211576
 30
0.0
 10
2.547325554710577
 20
7.655876973819115
 30
0.0
 10
2.562744213171832
 20
7.658012242853674
 30
0.0
 10
2.58617037573984
 20
7.659025440376515
 30
0.0
 10
2.609785554677024
 20
7.658070385760088
 30
0.0
 10
2.62550345724869
 20
7.655899587342168
 30
0.0
 10
2.633381849255565
 20
7.654811503176591
 30
0.0
  0
LINE
  5
172
330
1F
100
AcDbEntity
  8
0
  6
Continuous
 62
     7
370
    15
100
AcDbLine
 10
2.6333818501
 20
7.5728658795
 30
0.0
 11
2.6333818497
 21
7.6548115031
 31
0.0
  0
SPLINE
  5
173
330
1F
100
AcDbEntity
  8
0
  6
Continuous
 62
     7
370
    15
100
AcDbSpline
210
0.0
220
0.0
230
1.0
 70
     8
 71
     3
 72
    11
 73
     7
 74
     0
 42
0.000000001
 43
0.00000001
 40
0.0
 40
0.0
 40
0.0
 40
0.0
 40
0.2471026483657312
 40
0.4952089994577472
 40
0.7469801478925764
 40
1.0
 40
1.0
 40
1.0
 40
1.0
 10
2.539631850611533
 20
7.654811502699042
 30
0.0
 10
2.53193814668465
 20
7.655876973481247
 30
0.0
 10
2.516519487884534
 20
7.658012242866244
 30
0.0
 10
2.4930933250787
 20
7.659025440360916
 30
0.0
 10
2.469478145814214
 20
7.658070385804094
 30
0.0
 10
2.453760243036606
 20
7.655899587356915
 30
0.0
 10
2.445881850925897
 20
7.654811503176591
 30
0.0
  0
SPLINE
  5
174
330
1F
100
AcDbEntity
  8
0
  6
Continuous
 62
     7
370
    15
100
AcDbSpline
210
0.0
220
0.0
230
1.0
 70
     8
 71
     3
 72
    11
 73
     7
 74
     0
 42
0.000000001
 43
0.00000001
 40
0.0
 40
0.0
 40
0.0
 40
0.0
 40
0.2471026483657335
 40
0.4952089994577479
 40
0.7469801478925747
 40
1.0
 40
1.0
 40
1.0
 40
1.0
 10
2.633381850242627
 20
7.654811502699045
 30
0.0
 10
2.625688146471572
 20
7.65587697348125
 30
0.0
 10
2.610269487983746
 20
7.658012242866249
 30
0.0
 10
2.586843325051765
 20
7.659025440360921
 30
0.0
 10
2.563228145821028
 20
7.658070385804099
 30
0.0
 10
2.547510243038881
 20
7.655899587356918
 30
0.0
 10
2.539631850925897
 20
7.654811503176591
 30
0.0
  0
SPLINE
  5
175
330
1F
100
AcDbEntity
  8
0
  6
Continuous
 62
     7
370
    15
100
AcDbSpline
210
0.0
220
0.0
230
1.0
 70
     8
 71
     3
 72
     9
 73
     5
 74
     0
 42
0.000000001
 43
0.00000001
 40
0.0
 40
0.0
 40
0.0
 40
0.0
 40
0.4989865867468251
 40
1.0
 40
1.0
 40
1.0
 40
1.0
 10
2.633381849721826
 20
7.654811502699042
 30
0.0
 10
2.633381849875474
 20
7.655903746762589
 30
0.0
 10
2.633381850183394
 20
7.658092671460284
 30
0.0
 10
2.633381850121661
 20
7.658495438330164
 30
0.0
 10
2.633381850090731
 20
7.658697229934389
 30
0.0
  0
SPLINE
  5
176
330
1F
100
AcDbEntity
  8
0
  6
Continuous
 62
     7
370
    15
100
AcDbSpline
210
0.0
220
0.0
230
1.0
 70
    24
 71
     3
 72
     9
 73
     5
 74
     0
 42
0.000000001
 43
0.00000001
 40
0.0
 40
0.0
 40
0.0
 40
0.0
 40
0.4939607510269737
 40
1.0
 40
1.0
 40
1.0
 40
1.0
 10
2.445881850090731
 20
7.658678088623965
 30
0.0
 10
2.445881850090731
 20
7.658499317384572
 30
0.0
 10
2.445881850090731
 20
7.658137403530035
 30
0.0
 10
2.445881850090731
 20
7.655929027914516
 30
0.0
 10
2.445881850090731
 20
7.654811503176589
 30
0.0
  0
LINE
  5
177
330
1F
100
AcDbEntity
  8
0
  6
Continuous
 62
     7
370
    15
100
AcDbLine
 10
2.4936026474
 20
7.4400533795
 30
0.0
 11
2.5856610528
 21
7.4400533795
 31
0.0
  0
LINE
  5
178
330
1F
100
AcDbEntity
  8
0
  6
Continuous
 62
     7
370
    15
100
AcDbLine
 10
2.3286943501
 20
7.3228658795
 30
0.0
 11
2.3286943501
 21
5.8228658795
 31
0.0
  0
LINE
  5
179
330
1F
100
AcDbEntity
  8
0
  6
Continuous
 62
     7
370
    15
100
AcDbLine
 10
2.3521318501
 20
7.3228658795
 30
0.0
 11
2.3521318501
 21
5.8228658795
 31
0.0
  0
LINE
  5
17A
330
1F
100
AcDbEntity
  8
0
  6
Continuous
 62
     7
370
    15
100
AcDbLine
 10
2.3521318501
 20
5.8228658795
 30
0.0
 11
2.3286943501
 21
5.8228658795
 31
0.0
  0
LINE
  5
17B
330
1F
100
AcDbEntity
  8
0
  6
Continuous
 62
     7
370
    15
100
AcDbLine
 10
2.3286943501
 20
7.3228658795
 30
0.0
 11
2.3521318501
 21
7.3228658795
 31
0.0
  0
LINE
  5
17C
330
1F
100
AcDbEntity
  8
0
  6
Continuous
 62
     7
370
    15
100
AcDbLine
 10
2.3208818501
 20
5.8306783795
 30
0.0
 11
2.3286943501
 21
5.8228658795
 31
0.0
  0
LINE
  5
17D
330
1F
100
AcDbEntity
  8
0
  6
Continuous
 62
     7
370
    15
100
AcDbLine
 10
2.3208818501
 20
5.8306783795
 30
0.0
 11
2.3208818501
 21
7.3150533795
 31
0.0
  0
LINE
  5
17E
330
1F
100
AcDbEntity
  8
0
  6
Continuous
 62
     7
370
    15
100
AcDbLine
 10
2.3286943501
 20
7.3228658795
 30
0.0
 11
2.3208818501
 21
7.3150533795
 31
0.0
  0
LINE
  5
17F
330
1F
100
AcDbEntity
  8
0
  6
Continuous
 62
     7
370
    15
100
AcDbLine
 10
2.7505693501
 20
5.8228658795
 30
0.0
 11
2.7505693501
 21
7.3228658795
 31
0.0
  0
LINE
  5
180
330
1F
100
AcDbEntity
  8
0
  6
Continuous
 62
     7
370
    15
100
AcDbLine
 10
2.7271318501
 20
5.8228658795
 30
0.0
 11
2.7505693501
 21
5.8228658795
 31
0.0
  0
LINE
  5
181
330
1F
100
AcDbEntity
  8
0
  6
Continuous
 62
     7
370
    15
100
AcDbLine
 10
2.7271318501
 20
5.8228658795
 30
0.0
 11
2.7271318501
 21
7.3228658795
 31
0.0
  0
LINE
  5
182
330
1F
100
AcDbEntity
  8
0
  6
Continuous
 62
     7
370
    15
100
AcDbLine
 10
2.7271318501
 20
7.3228658795
 30
0.0
 11
2.7505693501
 21
7.3228658795
 31
0.0
  0
LINE
  5
183
330
1F
100
AcDbEntity
  8
0
  6
Continuous
 62
     7
370
    15
100
AcDbLine
 10
2.7583818501
 20
5.8306783795
 30
0.0
 11
2.7505693501
 21
5.8228658795
 31
0.0
  0
LINE
  5
184
330
1F
100
AcDbEntity
  8
0
  6
Continuous
 62
     7
370
    15
100
AcDbLine
 10
2.7583818501
 20
7.3150533795
 30
0.0
 11
2.7583818501
 21
5.8306783795
 31
0.0
  0
LINE
  5
185
330
1F
100
AcDbEntity
  8
0
  6
Continuous
 62
     7
370
    15
100
AcDbLine
 10
2.7583818501
 20
7.3150533795
 30
0.0
 11
2.7505693501
 21
7.3228658795
 31
0.0
  0
LINE
  5
186
330
1F
100
AcDbEntity
  8
0
  6
Continuous
 62
     7
370
    15
100
AcDbLine
 10
2.7271318501
 20
7.5728658795
 30
0.0
 11
2.7271318501
 21
7.3228658795
 31
0.0
  0
LINE
  5
187
330
1F
100
AcDbEntity
  8
0
  6
Continuous
 62
     7
370
    15
100
AcDbLine
 10
2.3521318501
 20
7.5728658795
 30
0.0
 11
2.537388201
 21
7.5728658795
 31
0.0
  0
LINE
  5
188
330
1F
100
AcDbEntity
  8
0
  6
Continuous
 62
     7
370
    15
100
AcDbLine
 10
2.5418754991
 20
7.5728658795
 30
0.0
 11
2.7271318501
 21
7.5728658795
 31
0.0
  0
LINE
  5
189
330
1F
100
AcDbEntity
  8
0
  6
Continuous
 62
     7
370
    15
100
AcDbLine
 10
2.3521318501
 20
7.3228658795
 30
0.0
 11
2.3521318501
 21
7.5728658795
 31
0.0
  0
CIRCLE
  5
18A
330
1F
100
AcDbEntity
  8
0
  6
Continuous
 62
     7
370
    15
100
AcDbCircle
 10
2.4146318501
 20
7.2603658795
 30
0.0
 40
0.0205750000067546
  0
CIRCLE
  5
18B
330
1F
100
AcDbEntity
  8
0
  6
Continuous
 62
     7
370
    15
100
AcDbCircle
 10
2.6646318501
 20
7.2603658795
 30
0.0
 40
0.0205750000067546
  0
LINE
  5
18C
330
1F
100
AcDbEntity
  8
0
  6
Continuous
 62
     7
370
    15
100
AcDbLine
 10
2.4929443501
 20
7.4478658795
 30
0.0
 11
2.5863193501
 21
7.4478658795
 31
0.0
  0
CIRCLE
  5
18D
330
1F
100
AcDbEntity
  8
0
  6
Continuous
 62
     7
370
    15
100
AcDbCircle
 10
2.6646318501
 20
7.2603658795
 30
0.0
 40
0.0487500000009269
  0
CIRCLE
  5
18E
330
1F
100
AcDbEntity
  8
0
  6
Continuous
 62
     7
370
    15
100
AcDbCircle
 10
2.4146318501
 20
7.2603658795
 30
0.0
 40
0.0487500000004606
  0
CIRCLE
  5
18F
330
1F
100
AcDbEntity
  8
0
  6
Continuous
 62
     7
370
    15
100
AcDbCircle
 10
2.6646318501
 20
5.8853658795
 30
0.0
 40
0.0487500000009273
  0
CIRCLE
  5
190
330
1F
100
AcDbEntity
  8
0
  6
Continuous
 62
     7
370
    15
100
AcDbCircle
 10
2.4146318501
 20
5.8853658795
 30
0.0
 40
0.048750000000461
  0
LINE
  5
191
330
1F
100
AcDbEntity
  8
0
  6
Continuous
 62
     7
370
    15
100
AcDbLine
 10
2.7271318501
 20
5.8228658795
 30
0.0
 11
2.5975115745
 21
5.8228658795
 31
0.0
  0
LINE
  5
192
330
1F
100
AcDbEntity
  8
0
  6
Continuous
 62
     7
370
    15
100
AcDbLine
 10
2.4817521257
 20
5.8228658795
 30
0.0
 11
2.3521318501
 21
5.8228658795
 31
0.0
  0
LINE
  5
193
330
1F
100
AcDbEntity
  8
0
  6
Continuous
 62
     7
370
    15
100
AcDbLine
 10
2.3521318501
 20
7.3228658795
 30
0.0
 11
2.537388201
 21
7.3228658795
 31
0.0
  0
LINE
  5
194
330
1F
100
AcDbEntity
  8
0
  6
Continuous
 62
     7
370
    15
100
AcDbLine
 10
2.5418754985
 20
7.3228658795
 30
0.0
 11
2.7271318501
 21
7.3228658795
 31
0.0
  0
CIRCLE
  5
195
330
1F
100
AcDbEntity
  8
0
  6
Continuous
 62
     7
370
    15
100
AcDbCircle
 10
2.4146318501
 20
7.2603658795
 30
0.0
 40
0.026125
  0
CIRCLE
  5
196
330
1F
100
AcDbEntity
  8
0
  6
Continuous
 62
     7
370
    15
100
AcDbCircle
 10
2.4146318501
 20
5.8853658795
 30
0.0
 40
0.026125
  0
CIRCLE
  5
197
330
1F
100
AcDbEntity
  8
0
  6
Continuous
 62
     7
370
    15
100
AcDbCircle
 10
2.6646318501
 20
7.2603658795
 30
0.0
 40
0.0261250000000004
  0
CIRCLE
  5
198
330
1F
100
AcDbEntity
  8
0
  6
Continuous
 62
     7
370
    15
100
AcDbCircle
 10
2.6646318501
 20
5.8853658795
 30
0.0
 40
0.026125
  0
CIRCLE
  5
199
330
1F
100
AcDbEntity
  8
0
  6
Continuous
 62
     7
370
    15
100
AcDbCircle
 10
2.5396318501
 20
7.4478658795
 30
0.0
 40
0.1089748633215075
  0
SPLINE
  5
19A
330
1F
100
AcDbEntity
  8
0
  6
Continuous
 62
     7
370
    15
100
AcDbSpline
210
0.0
220
0.0
230
1.0
 70
     8
 71
     3
 72
    11
 73
     7
 74
     0
 42
0.000000001
 43
0.00000001
 40
0.0
 40
0.0
 40
0.0
 40
0.0
 40
0.2646136134961545
 40
0.5349657659035763
 40
0.7653524246751664
 40
1.0
 40
1.0
 40
1.0
 40
1.0
 10
2.539631849678015
 20
7.321570508292858
 30
0.0
 10
2.549125145682485
 20
7.327051465116591
 30
0.0
 10
2.568317613903907
 20
7.338132241446847
 30
0.0
 10
2.596753197456288
 20
7.354549533409346
 30
0.0
 10
2.623935001661201
 20
7.370242955351379
 30
0.0
 10
2.640598672677826
 20
7.3798637303027
 30
0.0
 10
2.649006849352516
 20
7.384718193371338
 30
0.0
  0
SPLINE
  5
19B
330
1F
100
AcDbEntity
  8
0
  6
Continuous
 62
     7
370
    15
100
AcDbSpline
210
0.0
220
0.0
230
1.0
 70
     8
 71
     3
 72
    11
 73
     7
 74
     0
 42
0.000000001
 43
0.00000001
 40
0.0
 40
0.0
 40
0.0
 40
0.0
 40
0.2646136134961523
 40
0.5349657659035727
 40
0.765352424675166
 40
0.9999999999999999
 40
0.9999999999999999
 40
0.9999999999999999
 40
0.9999999999999999
 10
2.430256850047123
 20
7.384718194248934
 30
0.0
 10
2.439750145895755
 20
7.379237237155284
 30
0.0
 10
2.458942613802122
 20
7.368156460279335
 30
0.0
 10
2.487378197479182
 20
7.351739168532787
 30
0.0
 10
2.514560001655747
 20
7.336045746541655
 30
0.0
 10
2.531223672675996
 20
7.326424971596611
 30
0.0
 10
2.539631849352515
 20
7.321570508531141
 30
0.0
  0
SPLINE
  5
19C
330
1F
100
AcDbEntity
  8
0
  6
Continuous
 62
     7
370
    15
100
AcDbSpline
210
0.0
220
0.0
230
1.0
 70
    24
 71
     3
 72
    11
 73
     7
 74
     0
 42
0.000000001
 43
0.00000001
 40
0.0
 40
0.0
 40
0.0
 40
0.0
 40
0.2646136127554459
 40
0.5349657642288479
 40
0.7653524238103024
 40
1.0
 40
1.0
 40
1.0
 40
1.0
 10
2.430256850090732
 20
7.51101356551063
 30
0.0
 10
2.430256850090732
 20
7.500051651601679
 30
0.0
 10
2.430256850090732
 20
7.477890098419858
 30
0.0
 10
2.430256850090732
 20
7.44505551476536
 30
0.0
 10
2.430256850090731
 20
7.413668670788984
 30
0.0
 10
2.430256850090732
 20
7.394427120821021
 30
0.0
 10
2.430256850090732
 20
7.384718194649966
 30
0.0
  0
SPLINE
  5
19D
330
1F
100
AcDbEntity
  8
0
  6
Continuous
 62
     7
370
    15
100
AcDbSpline
210
0.0
220
0.0
230
1.0
 70
    24
 71
     3
 72
    11
 73
     7
 74
     0
 42
0.000000001
 43
0.00000001
 40
0.0
 40
0.0
 40
0.0
 40
0.0
 40
0.2646136140617518
 40
0.5349657669360345
 40
0.765352425258522
 40
1.0
 40
1.0
 40
1.0
 40
1.0
 10
2.539631849352515
 20
7.574161250449184
 30
0.0
 10
2.53013855346683
 20
7.568680293514086
 30
0.0
 10
2.510946085489536
 20
7.557599516960982
 30
0.0
 10
2.482510502129303
 20
7.541182225253388
 30
0.0
 10
2.455328698224414
 20
7.52548880345184
 30
0.0
 10
2.438665027402935
 20
7.515868028617373
 30
0.0
 10
2.430256850828948
 20
7.511013565608986
 30
0.0
  0
SPLINE
  5
19E
330
1F
100
AcDbEntity
  8
0
  6
Continuous
 62
     7
370
    15
100
AcDbSpline
210
0.0
220
0.0
230
1.0
 70
     8
 71
     3
 72
    11
 73
     7
 74
     0
 42
0.000000001
 43
0.00000001
 40
0.0
 40
0.0
 40
0.0
 40
0.0
 40
0.2646136110892984
 40
0.5349657610376651
 40
0.7653524221553876
 40
1.0
 40
1.0
 40
1.0
 40
1.0
 10
2.649006850134341
 20
7.511013564731391
 30
0.0
 10
2.639513554285682
 20
7.516494521825056
 30
0.0
 10
2.620321086379261
 20
7.527575298701036
 30
0.0
 10
2.591885502537567
 20
7.543992590542635
 30
0.0
 10
2.56470369802476
 20
7.559686012727898
 30
0.0
 10
2.548040026693437
 20
7.569306787852539
 30
0.0
 10
2.539631849857644
 20
7.574161251009967
 30
0.0
  0
SPLINE
  5
19F
330
1F
100
AcDbEntity
  8
0
  6
Continuous
 62
     7
370
    15
100
AcDbSpline
210
0.0
220
0.0
230
1.0
 70
     8
 71
     3
 72
    11
 73
     7
 74
     0
 42
0.000000001
 43
0.00000001
 40
0.0
 40
0.0
 40
0.0
 40
0.0
 40
0.2646136134961562
 40
0.5349657659035775
 40
0.7653524246751691
 40
1.0
 40
1.0
 40
1.0
 40
1.0
 10
2.649006849721624
 20
7.384718193534087
 30
0.0
 10
2.649006849877462
 20
7.39568010745147
 30
0.0
 10
2.649006850192516
 20
7.417841660657675
 30
0.0
 10
2.649006850067837
 20
7.450676244366721
 30
0.0
 10
2.649006850096185
 20
7.482063088299886
 30
0.0
 10
2.649006850092561
 20
7.501304638196251
 30
0.0
 10
2.649006850090732
 20
7.511013564330359
 30
0.0
  0
CIRCLE
  5
1A0
330
1F
100
AcDbEntity
  8
0
  6
Continuous
 62
     7
370
    15
100
AcDbCircle
 10
2.5396318501
 20
7.4478658795
 30
0.0
 40
0.0843124999999993
  0
CIRCLE
  5
1A1
330
1F
100
AcDbEntity
  8
0
  6
Continuous
 62
     7
370
    15
100
AcDbCircle
 10
2.5396318501
 20
7.4478658795
 30
0.0
 40
0.0743125000000004
  0
CIRCLE
  5
1A2
330
1F
100
AcDbEntity
  8
0
  6
Continuous
 62
     7
370
    15
100
AcDbCircle
 10
2.5396318501
 20
7.4478658795
 30
0.0
 40
0.0466875000190852
  0
CIRCLE
  5
1A3
330
1F
100
AcDbEntity
  8
0
  6
Continuous
 62
     7
370
    15
100
AcDbCircle
 10
2.5396318501
 20
5.6978658795
 30
0.0
 40
0.1377499999999998
  0
CIRCLE
  5
1A4
330
1F
100
AcDbEntity
  8
0
  6
Continuous
 62
     7
370
    15
100
AcDbCircle
 10
2.5396318501
 20
5.6978658795
 30
0.0
 40
0.13
  0
LINE
  5
1A5
330
1F
100
AcDbEntity
  8
0
  6
Continuous
 62
     7
370
    15
100
AcDbLine
 10
2.7271318501
 20
5.5728658795
 30
0.0
 11
2.7271318501
 21
5.8228658795
 31
0.0
  0
LINE
  5
1A6
330
1F
100
AcDbEntity
  8
0
  6
Continuous
 62
     7
370
    15
100
AcDbLine
 10
2.3521318501
 20
5.5728658795
 30
0.0
 11
2.4817521257
 21
5.5728658795
 31
0.0
  0
LINE
  5
1A7
330
1F
100
AcDbEntity
  8
0
  6
Continuous
 62
     7
370
    15
100
AcDbLine
 10
2.5975115745
 20
5.5728658795
 30
0.0
 11
2.7271318501
 21
5.5728658795
 31
0.0
  0
LINE
  5
1A8
330
1F
100
AcDbEntity
  8
0
  6
Continuous
 62
     7
370
    15
100
AcDbLine
 10
2.3521318501
 20
5.8228658795
 30
0.0
 11
2.3521318501
 21
5.5728658795
 31
0.0
  0
CIRCLE
  5
1A9
330
1F
100
AcDbEntity
  8
0
  6
Continuous
 62
     7
370
    15
100
AcDbCircle
 10
2.4146318501
 20
5.8853658795
 30
0.0
 40
0.0205750000068461
  0
CIRCLE
  5
1AA
330
1F
100
AcDbEntity
  8
0
  6
Continuous
 62
     7
370
    15
100
AcDbCircle
 10
2.6646318501
 20
5.8853658795
 30
0.0
 40
0.020575000006847
  0
LINE
  5
1AB
330
1F
100
AcDbEntity
  8
0
  6
Continuous
 62
     7
370
    15
100
AcDbLine
 10
3.8924839184
 20
8.6171569149
 30
0.0
 11
3.8376956799
 21
8.6171569149
 31
0.0
  0
LINE
  5
1AC
330
1F
100
AcDbEntity
  8
0
  6
Continuous
 62
     7
370
    15
100
AcDbLine
 10
3.8376956799
 20
8.5419069149
 30
0.0
 11
3.8925827755
 21
8.5419069149
 31
0.0
  0
LINE
  5
1AD
330
1F
100
AcDbEntity
  8
0
  6
Continuous
 62
     7
370
    15
100
AcDbLine
 10
4.7654646609
 20
8.4701569149
 30
0.0
 11
4.7656956799
 21
8.4705570516
 31
0.0
  0
LINE
  5
1AE
330
1F
100
AcDbEntity
  8
0
  6
Continuous
 62
     7
370
    15
100
AcDbLine
 10
4.7656956799
 20
8.6885067782
 30
0.0
 11
4.7654646609
 21
8.6889069149
 31
0.0
  0
LINE
  5
1AF
330
1F
100
AcDbEntity
  8
0
  6
Continuous
 62
     7
370
    15
100
AcDbLine
 10
3.8909266989
 20
8.6889069149
 30
0.0
 11
3.8906956798
 21
8.6885067782
 31
0.0
  0
LINE
  5
1B0
330
1F
100
AcDbEntity
  8
0
  6
Continuous
 62
     7
370
    15
100
AcDbLine
 10
3.8906956798
 20
8.4705570516
 30
0.0
 11
3.8909266989
 21
8.4701569149
 31
0.0
  0
LINE
  5
1B1
330
1F
100
AcDbEntity
  8
0
  6
Continuous
 62
     7
370
    15
100
AcDbLine
 10
4.1404646609
 20
8.4701569149
 30
0.0
 11
4.1406956799
 21
8.4705570516
 31
0.0
  0
LINE
  5
1B2
330
1F
100
AcDbEntity
  8
0
  6
Continuous
 62
     7
370
    15
100
AcDbLine
 10
4.1406956799
 20
8.6885067782
 30
0.0
 11
4.1404646609
 21
8.6889069149
 31
0.0
  0
LINE
  5
1B3
330
1F
100
AcDbEntity
  8
0
  6
Continuous
 62
     7
370
    15
100
AcDbLine
 10
3.8376956799
 20
8.7172819149
 30
0.0
 11
3.6556956799
 21
8.7095319149
 31
0.0
  0
LINE
  5
1B4
330
1F
100
AcDbEntity
  8
0
  6
Continuous
 62
     7
370
    15
100
AcDbLine
 10
3.6556956799
 20
8.4495319149
 30
0.0
 11
3.8376956799
 21
8.4417819149
 31
0.0
  0
CIRCLE
  5
1B5
330
1F
100
AcDbEntity
  8
0
  6
Continuous
 62
     7
370
    15
100
AcDbCircle
 10
4.3281956799
 20
8.5795319149
 30
0.0
 40
0.0390625000006839
  0
CIRCLE
  5
1B6
330
1F
100
AcDbEntity
  8
0
  6
Continuous
 62
     7
370
    15
100
AcDbCircle
 10
4.3281956799
 20
8.5795319149
 30
0.0
 40
0.0933552903813641
  0
CIRCLE
  5
1B7
330
1F
100
AcDbEntity
  8
0
  6
Continuous
 62
     7
370
    15
100
AcDbCircle
 10
4.3281956799
 20
8.5795319149
 30
0.0
 40
0.034837500000001
  0
SPLINE
  5
1B8
330
1F
100
AcDbEntity
  8
0
  6
Continuous
 62
     7
370
    15
100
AcDbSpline
210
0.0
220
0.0
230
1.0
 70
     8
 71
     3
 72
    11
 73
     7
 74
     0
 42
0.000000001
 43
0.00000001
 40
0.0
 40
0.0
 40
0.0
 40
0.0
 40
0.2471026483657312
 40
0.4952089994577472
 40
0.7469801478925766
 40
1.0
 40
1.0
 40
1.0
 40
1.0
 10
4.436448855215472
 20
8.579531914372927
 30
0.0
 10
4.432006893362155
 20
8.58722561829981
 30
0.0
 10
4.423104926913966
 20
8.602644277099925
 30
0.0
 10
4.409579825366276
 20
8.626070439905762
 30
0.0
 10
4.395945595299934
 20
8.649685619170246
 30
0.0
 10
4.386870859894946
 20
8.665403521947855
 30
0.0
 10
4.382322268086419
 20
8.673281914058563
 30
0.0
  0
SPLINE
  5
1B9
330
1F
100
AcDbEntity
  8
0
  6
Continuous
 62
     7
370
    15
100
AcDbSpline
210
0.0
220
0.0
230
1.0
 70
     8
 71
     3
 72
    11
 73
     7
 74
     0
 42
0.000000001
 43
0.00000001
 40
0.0
 40
0.0
 40
0.0
 40
0.0
 40
0.2471026483657336
 40
0.495208999457748
 40
0.7469801478925748
 40
1.0
 40
1.0
 40
1.0
 40
1.0
 10
4.382322267090562
 20
8.485781914741834
 30
0.0
 10
4.386764229213781
 20
8.493475618512887
 30
0.0
 10
4.39566619620287
 20
8.508894277000714
 30
0.0
 10
4.40919129753207
 20
8.532320439932697
 30
0.0
 10
4.422825527656865
 20
8.555935619163433
 30
0.0
 10
4.431900263053993
 20
8.571653521945578
 30
0.0
 10
4.436448854858579
 20
8.579531914058563
 30
0.0
  0
SPLINE
  5
1BA
330
1F
100
AcDbEntity
  8
0
  6
Continuous
 62
     7
370
    15
100
AcDbSpline
210
0.0
220
0.0
230
1.0
 70
     8
 71
     3
 72
    11
 73
     7
 74
     0
 42
0.000000001
 43
0.00000001
 40
0.0
 40
0.0
 40
0.0
 40
0.0
 40
0.2471026483657299
 40
0.4952089994577439
 40
0.7469801478925723
 40
1.0
 40
1.0
 40
1.0
 40
1.0
 10
4.274069091742798
 20
8.485781915262635
 30
0.0
 10
4.282953015719333
 20
8.485781915106807
 30
0.0
 10
4.300756949156613
 20
8.485781914794519
 30
0.0
 10
4.3278071520335
 20
8.485781914920665
 30
0.0
 10
4.35507561222464
 20
8.485781914886916
 30
0.0
 10
4.373225083026757
 20
8.485781914891454
 30
0.0
 10
4.382322266639869
 20
8.48578191489373
 30
0.0
  0
SPLINE
  5
1BB
330
1F
100
AcDbEntity
  8
0
  6
Continuous
 62
     7
370
    15
100
AcDbSpline
210
0.0
220
0.0
230
1.0
 70
    24
 71
     3
 72
    11
 73
     7
 74
     0
 42
0.000000001
 43
0.00000001
 40
0.0
 40
0.0
 40
0.0
 40
0.0
 40
0.2471026484822581
 40
0.4952089995988359
 40
0.746980147982843
 40
1.0
 40
1.0
 40
1.0
 40
1.0
 10
4.219942504842137
 20
8.579531914033117
 30
0.0
 10
4.224384466799458
 20
8.571838210273883
 30
0.0
 10
4.233286433454419
 20
8.556419551812628
 30
0.0
 10
4.246811534702249
 20
8.53299338924462
 30
0.0
 10
4.26044576462311
 20
8.509378210307437
 30
0.0
 10
4.269520499903352
 20
8.49366030773577
 30
0.0
 10
4.274069091648998
 20
8.485781915728895
 30
0.0
  0
SPLINE
  5
1BC
330
1F
100
AcDbEntity
  8
0
  6
Continuous
 62
     7
370
    15
100
AcDbSpline
210
0.0
220
0.0
230
1.0
 70
     8
 71
     3
 72
    11
 73
     7
 74
     0
 42
0.000000001
 43
0.00000001
 40
0.0
 40
0.0
 40
0.0
 40
0.0
 40
0.2471026482985655
 40
0.4952089993517294
 40
0.7469801478326095
 40
1.0
 40
1.0
 40
1.0
 40
1.0
 10
4.274069092644853
 20
8.673281915045624
 30
0.0
 10
4.26962713046858
 20
8.665588211182676
 30
0.0
 10
4.260725163372651
 20
8.6501695525098
 30
0.0
 10
4.247200061878517
 20
8.626743389292141
 30
0.0
 10
4.233565831587306
 20
8.603128209773166
 30
0.0
 10
4.224491096080405
 20
8.587410306800887
 30
0.0
 10
4.219942504220675
 20
8.579531914592389
 30
0.0
  0
SPLINE
  5
1BD
330
1F
100
AcDbEntity
  8
0
  6
Continuous
 62
     7
370
    15
100
AcDbSpline
210
0.0
220
0.0
230
1.0
 70
     8
 71
     3
 72
    11
 73
     7
 74
     0
 42
0.000000001
 43
0.00000001
 40
0.0
 40
0.0
 40
0.0
 40
0.0
 40
0.2471026483657328
 40
0.4952089994577453
 40
0.7469801478925765
 40
1.0
 40
1.0
 40
1.0
 40
1.0
 10
4.382322267992618
 20
8.673281914524823
 30
0.0
 10
4.373438344016082
 20
8.673281914680652
 30
0.0
 10
4.355634410578804
 20
8.673281914992941
 30
0.0
 10
4.328584207701915
 20
8.673281914866795
 30
0.0
 10
4.301315747510777
 20
8.673281914900544
 30
0.0
 10
4.28316627670866
 20
8.673281914896004
 30
0.0
 10
4.274069093095547
 20
8.67328191489373
 30
0.0
  0
LINE
  5
1BE
330
1F
100
AcDbEntity
  8
0
  6
Continuous
 62
     7
370
    15
100
AcDbLine
 10
4.5391331799
 20
8.7982819149
 30
0.0
 11
4.5469456799
 21
8.7904694149
 31
0.0
  0
LINE
  5
1BF
330
1F
100
AcDbEntity
  8
0
  6
Continuous
 62
     7
370
    15
100
AcDbLine
 10
4.5469456799
 20
8.7904694149
 30
0.0
 11
4.1094456799
 21
8.7904694149
 31
0.0
  0
LINE
  5
1C0
330
1F
100
AcDbEntity
  8
0
  6
Continuous
 62
     7
370
    15
100
AcDbLine
 10
4.1094456799
 20
8.7904694149
 30
0.0
 11
4.1172581799
 21
8.7982819149
 31
0.0
  0
LINE
  5
1C1
330
1F
100
AcDbEntity
  8
0
  6
Continuous
 62
     7
370
    15
100
AcDbLine
 10
4.1172581799
 20
8.7982819149
 30
0.0
 11
4.5391331799
 21
8.7982819149
 31
0.0
  0
LINE
  5
1C2
330
1F
100
AcDbEntity
  8
0
  6
Continuous
 62
     7
370
    15
100
AcDbLine
 10
4.5469456799
 20
8.7670319149
 30
0.0
 11
4.5469456799
 21
8.7904694149
 31
0.0
  0
LINE
  5
1C3
330
1F
100
AcDbEntity
  8
0
  6
Continuous
 62
     7
370
    15
100
AcDbLine
 10
4.5469456799
 20
8.7670319149
 30
0.0
 11
4.5156956799
 21
8.7670319149
 31
0.0
  0
LINE
  5
1C4
330
1F
100
AcDbEntity
  8
0
  6
Continuous
 62
     7
370
    15
100
AcDbLine
 10
4.1406956799
 20
8.7670319149
 30
0.0
 11
4.1094456799
 21
8.7670319149
 31
0.0
  0
LINE
  5
1C5
330
1F
100
AcDbEntity
  8
0
  6
Continuous
 62
     7
370
    15
100
AcDbLine
 10
4.1094456799
 20
8.7904694149
 30
0.0
 11
4.1094456799
 21
8.7670319149
 31
0.0
  0
LINE
  5
1C6
330
1F
100
AcDbEntity
  8
0
  6
Continuous
 62
     7
370
    15
100
AcDbLine
 10
4.1094456799
 20
8.3685944149
 30
0.0
 11
4.5469456799
 21
8.3685944149
 31
0.0
  0
LINE
  5
1C7
330
1F
100
AcDbEntity
  8
0
  6
Continuous
 62
     7
370
    15
100
AcDbLine
 10
4.1094456799
 20
8.3920319149
 30
0.0
 11
4.1406956799
 21
8.3920319149
 31
0.0
  0
LINE
  5
1C8
330
1F
100
AcDbEntity
  8
0
  6
Continuous
 62
     7
370
    15
100
AcDbLine
 10
4.5156956799
 20
8.3920319149
 30
0.0
 11
4.5469456799
 21
8.3920319149
 31
0.0
  0
LINE
  5
1C9
330
1F
100
AcDbEntity
  8
0
  6
Continuous
 62
     7
370
    15
100
AcDbLine
 10
4.5469456799
 20
8.3920319149
 30
0.0
 11
4.5469456799
 21
8.3685944149
 31
0.0
  0
LINE
  5
1CA
330
1F
100
AcDbEntity
  8
0
  6
Continuous
 62
     7
370
    15
100
AcDbLine
 10
4.1094456799
 20
8.3920319149
 30
0.0
 11
4.1094456799
 21
8.3685944149
 31
0.0
  0
LINE
  5
1CB
330
1F
100
AcDbEntity
  8
0
  6
Continuous
 62
     7
370
    15
100
AcDbLine
 10
4.5391331799
 20
8.3607819149
 30
0.0
 11
4.1172581799
 21
8.3607819149
 31
0.0
  0
LINE
  5
1CC
330
1F
100
AcDbEntity
  8
0
  6
Continuous
 62
     7
370
    15
100
AcDbLine
 10
4.1172581799
 20
8.3607819149
 30
0.0
 11
4.1094456799
 21
8.3685944149
 31
0.0
  0
LINE
  5
1CD
330
1F
100
AcDbEntity
  8
0
  6
Continuous
 62
     7
370
    15
100
AcDbLine
 10
4.5391331799
 20
8.3607819149
 30
0.0
 11
4.5469456799
 21
8.3685944149
 31
0.0
  0
LINE
  5
1CE
330
1F
100
AcDbEntity
  8
0
  6
Continuous
 62
     7
370
    15
100
AcDbLine
 10
4.5156956799
 20
8.3920319149
 30
0.0
 11
4.1406956799
 21
8.3920319149
 31
0.0
  0
LINE
  5
1CF
330
1F
100
AcDbEntity
  8
0
  6
Continuous
 62
     7
370
    15
100
AcDbLine
 10
4.5156956799
 20
8.7670319149
 30
0.0
 11
4.1406956799
 21
8.7670319149
 31
0.0
  0
LINE
  5
1D0
330
1F
100
AcDbEntity
  8
0
  6
Continuous
 62
     7
370
    15
100
AcDbLine
 10
4.1406956799
 20
8.7670319149
 30
0.0
 11
4.1406956799
 21
8.3920319149
 31
0.0
  0
LINE
  5
1D1
330
1F
100
AcDbEntity
  8
0
  6
Continuous
 62
     7
370
    15
100
AcDbLine
 10
4.5156956799
 20
8.7670319149
 30
0.0
 11
4.5156956799
 21
8.3920319149
 31
0.0
  0
LINE
  5
1D2
330
1F
100
AcDbEntity
  8
0
  6
Continuous
 62
     7
370
    15
100
AcDbLine
 10
4.5469456799
 20
8.3920319149
 30
0.0
 11
4.5469456799
 21
8.7670319149
 31
0.0
  0
LINE
  5
1D3
330
1F
100
AcDbEntity
  8
0
  6
Continuous
 62
     7
370
    15
100
AcDbLine
 10
4.1094456799
 20
8.7670319149
 30
0.0
 11
4.1094456799
 21
8.6889069149
 31
0.0
  0
LINE
  5
1D4
330
1F
100
AcDbEntity
  8
0
  6
Continuous
 62
     7
370
    15
100
AcDbLine
 10
4.1094456799
 20
8.4701569149
 30
0.0
 11
4.1094456799
 21
8.3920319149
 31
0.0
  0
LINE
  5
1D5
330
1F
100
AcDbEntity
  8
0
  6
Continuous
 62
     7
370
    15
100
AcDbLine
 10
4.3081681208
 20
8.5510266823
 30
0.0
 11
4.3081681208
 21
8.6080371475
 31
0.0
  0
LINE
  5
1D6
330
1F
100
AcDbEntity
  8
0
  6
Continuous
 62
     7
370
    15
100
AcDbLine
 10
4.5675706799
 20
8.6889069149
 30
0.0
 11
4.75569568
 21
8.6889069149
 31
0.0
  0
SPLINE
  5
1D7
330
1F
100
AcDbEntity
  8
0
  6
Continuous
 62
     7
370
    15
100
AcDbSpline
210
0.0
220
0.0
230
1.0
 70
     8
 71
     3
 72
    11
 73
     7
 74
     0
 42
0.000000001
 43
0.00000001
 40
0.0
 40
0.0
 40
0.0
 40
0.0
 40
0.2646136110892985
 40
0.534965761037665
 40
0.7653524221553875
 40
1.0
 40
1.0
 40
1.0
 40
1.0
 10
4.755695679549999
 20
8.688906914937338
 30
0.0
 10
4.758517350285397
 20
8.67941361908868
 30
0.0
 10
4.764221883873621
 20
8.660221151182258
 30
0.0
 10
4.766308409333388
 20
8.631785567340565
 30
0.0
 10
4.763245133533468
 20
8.60460376282776
 30
0.0
 10
4.758227489238823
 20
8.587940091496435
 30
0.0
 10
4.755695679790013
 20
8.579531914660642
 30
0.0
  0
LINE
  5
1D8
330
1F
100
AcDbEntity
  8
0
  6
Continuous
 62
     7
370
    15
100
AcDbLine
 10
4.7556956798
 20
8.5795319148
 30
0.0
 11
4.5675706799
 21
8.5795319149
 31
0.0
  0
LINE
  5
1D9
330
1F
100
AcDbEntity
  8
0
  6
Continuous
 62
     7
370
    15
100
AcDbLine
 10
4.5675706799
 20
8.5795319149
 30
0.0
 11
4.5675706799
 21
8.5802020465
 31
0.0
  0
LINE
  5
1DA
330
1F
100
AcDbEntity
  8
0
  6
Continuous
 62
     7
370
    15
100
AcDbLine
 10
4.5675706799
 20
8.5802020465
 30
0.0
 11
4.5625706799
 21
8.5976338452
 31
0.0
  0
LINE
  5
1DB
330
1F
100
AcDbEntity
  8
0
  6
Continuous
 62
     7
370
    15
100
AcDbLine
 10
4.5625706799
 20
8.5976338452
 30
0.0
 11
4.5469456799
 21
8.5976338452
 31
0.0
  0
LINE
  5
1DC
330
1F
100
AcDbEntity
  8
0
  6
Continuous
 62
     7
370
    15
100
AcDbLine
 10
4.5469456799
 20
8.6708049845
 30
0.0
 11
4.5625706799
 21
8.6708049845
 31
0.0
  0
LINE
  5
1DD
330
1F
100
AcDbEntity
  8
0
  6
Continuous
 62
     7
370
    15
100
AcDbLine
 10
4.5625706799
 20
8.6708049845
 30
0.0
 11
4.5675706799
 21
8.6882367833
 31
0.0
  0
LINE
  5
1DE
330
1F
100
AcDbEntity
  8
0
  6
Continuous
 62
     7
370
    15
100
AcDbLine
 10
4.5675706799
 20
8.6882367833
 30
0.0
 11
4.5675706799
 21
8.6889069149
 31
0.0
  0
SPLINE
  5
1DF
330
1F
100
AcDbEntity
  8
0
  6
Continuous
 62
     7
370
    15
100
AcDbSpline
210
0.0
220
0.0
230
1.0
 70
     8
 71
     3
 72
    11
 73
     7
 74
     0
 42
0.000000001
 43
0.00000001
 40
0.0
 40
0.0
 40
0.0
 40
0.0
 40
0.2646136140617518
 40
0.5349657669360345
 40
0.7653524252585221
 40
0.9999999999999999
 40
0.9999999999999999
 40
0.9999999999999999
 40
0.9999999999999999
 10
4.755695680113781
 20
8.579531914155513
 30
0.0
 10
4.758517350688742
 20
8.570038618269828
 30
0.0
 10
4.764221883951431
 20
8.550846150292534
 30
0.0
 10
4.766308409305974
 20
8.522410566932301
 30
0.0
 10
4.76324513352376
 20
8.495228763027413
 30
0.0
 10
4.758227489449844
 20
8.478565092205931
 30
0.0
 10
4.755695680113781
 20
8.470156915631945
 30
0.0
  0
LINE
  5
1E0
330
1F
100
AcDbEntity
  8
0
  6
Continuous
 62
     7
370
    15
100
AcDbLine
 10
4.5675706799
 20
8.4701569149
 30
0.0
 11
4.75569568
 21
8.4701569153
 31
0.0
  0
LINE
  5
1E1
330
1F
100
AcDbEntity
  8
0
  6
Continuous
 62
     7
370
    15
100
AcDbLine
 10
4.5675706799
 20
8.4701569149
 30
0.0
 11
4.5675706799
 21
8.4708270465
 31
0.0
  0
LINE
  5
1E2
330
1F
100
AcDbEntity
  8
0
  6
Continuous
 62
     7
370
    15
100
AcDbLine
 10
4.5675706799
 20
8.4708270465
 30
0.0
 11
4.5625706799
 21
8.4882588452
 31
0.0
  0
LINE
  5
1E3
330
1F
100
AcDbEntity
  8
0
  6
Continuous
 62
     7
370
    15
100
AcDbLine
 10
4.5625706799
 20
8.4882588452
 30
0.0
 11
4.5469456799
 21
8.4882588452
 31
0.0
  0
LINE
  5
1E4
330
1F
100
AcDbEntity
  8
0
  6
Continuous
 62
     7
370
    15
100
AcDbLine
 10
4.5469456799
 20
8.5614299845
 30
0.0
 11
4.5625706799
 21
8.5614299845
 31
0.0
  0
LINE
  5
1E5
330
1F
100
AcDbEntity
  8
0
  6
Continuous
 62
     7
370
    15
100
AcDbLine
 10
4.5625706799
 20
8.5614299845
 30
0.0
 11
4.5675706799
 21
8.5788617833
 31
0.0
  0
LINE
  5
1E6
330
1F
100
AcDbEntity
  8
0
  6
Continuous
 62
     7
370
    15
100
AcDbLine
 10
4.5675706799
 20
8.5788617833
 30
0.0
 11
4.5675706799
 21
8.5795319149
 31
0.0
  0
SPLINE
  5
1E7
330
1F
100
AcDbEntity
  8
0
  6
Continuous
 62
     7
370
    15
100
AcDbSpline
210
0.0
220
0.0
230
1.0
 70
    27
 71
     3
 72
    11
 73
     7
 74
     0
 42
0.000000001
 43
0.00000001
 40
0.0
 40
0.0
 40
0.0
 40
0.0
 40
0.2646136127554459
 40
0.534965764228848
 40
0.7653524238103026
 40
1.0
 40
1.0
 40
1.0
 40
1.0
 10
4.755695679773066
 20
8.47015691489373
 30
0.0
 10
4.758517350406469
 20
8.47015691489373
 30
0.0
 10
4.764221883786601
 20
8.47015691489373
 30
0.0
 10
4.7663084093364
 20
8.47015691489373
 30
0.0
 10
4.763245133629625
 20
8.470156914893728
 30
0.0
 10
4.758227489485936
 20
8.47015691489373
 30
0.0
 10
4.755695680113781
 20
8.47015691489373
 30
0.0
  0
SPLINE
  5
1E8
330
1F
100
AcDbEntity
  8
0
  6
Continuous
 62
     7
370
    15
100
AcDbSpline
210
0.0
220
0.0
230
1.0
 70
    11
 71
     3
 72
    11
 73
     7
 74
     0
 42
0.000000001
 43
0.00000001
 40
0.0
 40
0.0
 40
0.0
 40
0.0
 40
0.2646136134961561
 40
0.5349657659035774
 40
0.7653524246751688
 40
1.0
 40
1.0
 40
1.0
 40
1.0
 10
4.755695679549999
 20
8.68890691452462
 30
0.0
 10
4.758517350285483
 20
8.688906914680459
 30
0.0
 10
4.764221883873881
 20
8.688906914995513
 30
0.0
 10
4.766308409320277
 20
8.688906914870834
 30
0.0
 10
4.763245133607369
 20
8.688906914899183
 30
0.0
 10
4.758227489478331
 20
8.688906914895558
 30
0.0
 10
4.755695680113781
 20
8.688906914893728
 30
0.0
  0
LINE
  5
1E9
330
1F
100
AcDbEntity
  8
0
  6
Continuous
 62
     7
370
    15
100
AcDbLine
 10
4.5625706799
 20
8.5614299845
 30
0.0
 11
4.5625706799
 21
8.5976338452
 31
0.0
  0
LINE
  5
1EA
330
1F
100
AcDbEntity
  8
0
  6
Continuous
 62
     7
370
    15
100
AcDbLine
 10
4.5625706799
 20
8.6889069149
 30
0.0
 11
4.5625706799
 21
8.6708049845
 31
0.0
  0
LINE
  5
1EB
330
1F
100
AcDbEntity
  8
0
  6
Continuous
 62
     7
370
    15
100
AcDbLine
 10
4.5625706799
 20
8.6889069149
 30
0.0
 11
4.5469456799
 21
8.6889069149
 31
0.0
  0
LINE
  5
1EC
330
1F
100
AcDbEntity
  8
0
  6
Continuous
 62
     7
370
    15
100
AcDbLine
 10
4.5675706799
 20
8.6889069149
 30
0.0
 11
4.5625706799
 21
8.6889069149
 31
0.0
  0
LINE
  5
1ED
330
1F
100
AcDbEntity
  8
0
  6
Continuous
 62
     7
370
    15
100
AcDbLine
 10
4.5625706799
 20
8.4882588452
 30
0.0
 11
4.5625706799
 21
8.4701569149
 31
0.0
  0
LINE
  5
1EE
330
1F
100
AcDbEntity
  8
0
  6
Continuous
 62
     7
370
    15
100
AcDbLine
 10
4.5469456799
 20
8.4701569149
 30
0.0
 11
4.5625706799
 21
8.4701569149
 31
0.0
  0
LINE
  5
1EF
330
1F
100
AcDbEntity
  8
0
  6
Continuous
 62
     7
370
    15
100
AcDbLine
 10
4.5625706799
 20
8.4701569149
 30
0.0
 11
4.5675706799
 21
8.4701569149
 31
0.0
  0
LINE
  5
1F0
330
1F
100
AcDbEntity
  8
0
  6
Continuous
 62
     7
370
    15
100
AcDbLine
 10
3.9006956799
 20
8.579531915
 30
0.0
 11
4.0888206799
 21
8.5795319149
 31
0.0
  0
SPLINE
  5
1F1
330
1F
100
AcDbEntity
  8
0
  6
Continuous
 62
     7
370
    15
100
AcDbSpline
210
0.0
220
0.0
230
1.0
 70
     8
 71
     3
 72
    11
 73
     7
 74
     0
 42
0.000000001
 43
0.00000001
 40
0.0
 40
0.0
 40
0.0
 40
0.0
 40
0.2646136140617516
 40
0.5349657669360343
 40
0.765352425258522
 40
0.9999999999999999
 40
0.9999999999999999
 40
0.9999999999999999
 40
0.9999999999999999
 10
3.900695679621637
 20
8.579531915631945
 30
0.0
 10
3.897874009046674
 20
8.58902521151763
 30
0.0
 10
3.892169475783986
 20
8.608217679494924
 30
0.0
 10
3.890082950429442
 20
8.636653262855159
 30
0.0
 10
3.893146226211657
 20
8.663835066760047
 30
0.0
 10
3.898163870285573
 20
8.680498737581527
 30
0.0
 10
3.900695679621637
 20
8.688906914155513
 30
0.0
  0
LINE
  5
1F2
330
1F
100
AcDbEntity
  8
0
  6
Continuous
 62
     7
370
    15
100
AcDbLine
 10
4.0888206799
 20
8.6889069149
 30
0.0
 11
3.9006956797
 21
8.6889069145
 31
0.0
  0
LINE
  5
1F3
330
1F
100
AcDbEntity
  8
0
  6
Continuous
 62
     7
370
    15
100
AcDbLine
 10
4.0888206799
 20
8.6889069149
 30
0.0
 11
4.0888206799
 21
8.6882367833
 31
0.0
  0
LINE
  5
1F4
330
1F
100
AcDbEntity
  8
0
  6
Continuous
 62
     7
370
    15
100
AcDbLine
 10
4.0888206799
 20
8.6882367833
 30
0.0
 11
4.0938206799
 21
8.6708049845
 31
0.0
  0
LINE
  5
1F5
330
1F
100
AcDbEntity
  8
0
  6
Continuous
 62
     7
370
    15
100
AcDbLine
 10
4.0938206799
 20
8.6708049845
 30
0.0
 11
4.1359180275
 21
8.6708049845
 31
0.0
  0
SPLINE
  5
1F6
330
1F
100
AcDbEntity
  8
0
  6
Continuous
 62
     7
370
    15
100
AcDbSpline
210
0.0
220
0.0
230
1.0
 70
     8
 71
     3
 72
    10
 73
     6
 74
     0
 42
0.000000001
 43
0.00000001
 40
0.0
 40
0.0
 40
0.0
 40
0.0
 40
0.3702926789854323
 40
0.7498059832618714
 40
1.0
 40
1.0
 40
1.0
 40
1.0
 10
4.135918027484741
 20
8.670804984540222
 30
0.0
 10
4.137666553947176
 20
8.661825382683537
 30
0.0
 10
4.141207146775036
 20
8.643642578697515
 30
0.0
 10
4.140354043233102
 20
8.618898956142115
 30
0.0
 10
4.137179378674253
 20
8.603680436248194
 30
0.0
 10
4.135918027485744
 20
8.597633845246307
 30
0.0
  0
LINE
  5
1F7
330
1F
100
AcDbEntity
  8
0
  6
Continuous
 62
     7
370
    15
100
AcDbLine
 10
4.1359180275
 20
8.5976338452
 30
0.0
 11
4.0938206799
 21
8.5976338452
 31
0.0
  0
LINE
  5
1F8
330
1F
100
AcDbEntity
  8
0
  6
Continuous
 62
     7
370
    15
100
AcDbLine
 10
4.0938206799
 20
8.5976338452
 30
0.0
 11
4.0888206799
 21
8.5802020465
 31
0.0
  0
LINE
  5
1F9
330
1F
100
AcDbEntity
  8
0
  6
Continuous
 62
     7
370
    15
100
AcDbLine
 10
4.0888206799
 20
8.5802020465
 30
0.0
 11
4.0888206799
 21
8.5795319149
 31
0.0
  0
LINE
  5
1FA
330
1F
100
AcDbEntity
  8
0
  6
Continuous
 62
     7
370
    15
100
AcDbLine
 10
4.0888206799
 20
8.4701569149
 30
0.0
 11
3.9006956797
 21
8.4701569149
 31
0.0
  0
SPLINE
  5
1FB
330
1F
100
AcDbEntity
  8
0
  6
Continuous
 62
     7
370
    15
100
AcDbSpline
210
0.0
220
0.0
230
1.0
 70
     8
 71
     3
 72
    11
 73
     7
 74
     0
 42
0.000000001
 43
0.00000001
 40
0.0
 40
0.0
 40
0.0
 40
0.0
 40
0.2646136110892985
 40
0.5349657610376651
 40
0.7653524221553876
 40
1.0
 40
1.0
 40
1.0
 40
1.0
 10
3.900695680185418
 20
8.47015691485012
 30
0.0
 10
3.897874009450019
 20
8.479650210698779
 30
0.0
 10
3.892169475861796
 20
8.4988426786052
 30
0.0
 10
3.890082950402029
 20
8.527278262446893
 30
0.0
 10
3.893146226201948
 20
8.5544600669597
 30
0.0
 10
3.898163870496595
 20
8.571123738291023
 30
0.0
 10
3.900695679945404
 20
8.579531915126816
 30
0.0
  0
LINE
  5
1FC
330
1F
100
AcDbEntity
  8
0
  6
Continuous
 62
     7
370
    15
100
AcDbLine
 10
4.0888206799
 20
8.5788617833
 30
0.0
 11
4.0938206799
 21
8.5614299845
 31
0.0
  0
LINE
  5
1FD
330
1F
100
AcDbEntity
  8
0
  6
Continuous
 62
     7
370
    15
100
AcDbLine
 10
4.0938206799
 20
8.5614299845
 30
0.0
 11
4.1359180275
 21
8.5614299845
 31
0.0
  0
SPLINE
  5
1FE
330
1F
100
AcDbEntity
  8
0
  6
Continuous
 62
     7
370
    15
100
AcDbSpline
210
0.0
220
0.0
230
1.0
 70
     8
 71
     3
 72
    10
 73
     6
 74
     0
 42
0.000000001
 43
0.00000001
 40
0.0
 40
0.0
 40
0.0
 40
0.0
 40
0.3702926789860098
 40
0.7498059832630389
 40
1.0
 40
1.0
 40
1.0
 40
1.0
 10
4.135918027484739
 20
8.561429984541888
 30
0.0
 10
4.137666553947174
 20
8.5524503826845
 30
0.0
 10
4.141207146775034
 20
8.534267578697051
 30
0.0
 10
4.140354043233104
 20
8.509523956142226
 30
0.0
 10
4.137179378674269
 20
8.49430543624829
 30
0.0
 10
4.13591802748577
 20
8.488258845246419
 30
0.0
  0
LINE
  5
1FF
330
1F
100
AcDbEntity
  8
0
  6
Continuous
 62
     7
370
    15
100
AcDbLine
 10
4.1359180275
 20
8.4882588452
 30
0.0
 11
4.0938206799
 21
8.4882588452
 31
0.0
  0
LINE
  5
200
330
1F
100
AcDbEntity
  8
0
  6
Continuous
 62
     7
370
    15
100
AcDbLine
 10
4.0938206799
 20
8.4882588452
 30
0.0
 11
4.0888206799
 21
8.4708270465
 31
0.0
  0
LINE
  5
201
330
1F
100
AcDbEntity
  8
0
  6
Continuous
 62
     7
370
    15
100
AcDbLine
 10
4.0888206799
 20
8.4708270465
 30
0.0
 11
4.0888206799
 21
8.4701569149
 31
0.0
  0
LINE
  5
202
330
1F
100
AcDbEntity
  8
0
  6
Continuous
 62
     7
370
    15
100
AcDbLine
 10
4.0888206799
 20
8.5795319149
 30
0.0
 11
4.0888206799
 21
8.5788617833
 31
0.0
  0
SPLINE
  5
203
330
1F
100
AcDbEntity
  8
0
  6
Continuous
 62
     7
370
    15
100
AcDbSpline
210
0.0
220
0.0
230
1.0
 70
    27
 71
     3
 72
    11
 73
     7
 74
     0
 42
0.000000001
 43
0.00000001
 40
0.0
 40
0.0
 40
0.0
 40
0.0
 40
0.2646136127554459
 40
0.5349657642288479
 40
0.7653524238103024
 40
1.0
 40
1.0
 40
1.0
 40
1.0
 10
3.900695679962352
 20
8.688906914893728
 30
0.0
 10
3.897874009328948
 20
8.688906914893728
 30
0.0
 10
3.892169475948816
 20
8.688906914893728
 30
0.0
 10
3.890082950399017
 20
8.688906914893728
 30
0.0
 10
3.893146226105793
 20
8.688906914893728
 30
0.0
 10
3.89816387024948
 20
8.688906914893728
 30
0.0
 10
3.900695679621637
 20
8.688906914893728
 30
0.0
  0
SPLINE
  5
204
330
1F
100
AcDbEntity
  8
0
  6
Continuous
 62
     7
370
    15
100
AcDbSpline
210
0.0
220
0.0
230
1.0
 70
    11
 71
     3
 72
    11
 73
     7
 74
     0
 42
0.000000001
 43
0.00000001
 40
0.0
 40
0.0
 40
0.0
 40
0.0
 40
0.2646136134961562
 40
0.5349657659035775
 40
0.7653524246751691
 40
1.0
 40
1.0
 40
1.0
 40
1.0
 10
3.900695680185418
 20
8.470156915262836
 30
0.0
 10
3.897874009449934
 20
8.470156915107
 30
0.0
 10
3.892169475861536
 20
8.470156914791945
 30
0.0
 10
3.89008295041514
 20
8.470156914916624
 30
0.0
 10
3.893146226128047
 20
8.470156914888275
 30
0.0
 10
3.898163870257086
 20
8.4701569148919
 30
0.0
 10
3.900695679621636
 20
8.470156914893728
 30
0.0
  0
LINE
  5
205
330
1F
100
AcDbEntity
  8
0
  6
Continuous
 62
     7
370
    15
100
AcDbLine
 10
4.0938206799
 20
8.5976338452
 30
0.0
 11
4.0938206799
 21
8.5614299845
 31
0.0
  0
LINE
  5
206
330
1F
100
AcDbEntity
  8
0
  6
Continuous
 62
     7
370
    15
100
AcDbLine
 10
4.1359180275
 20
8.6889069149
 30
0.0
 11
4.1359180275
 21
8.6708049845
 31
0.0
  0
SPLINE
  5
207
330
1F
100
AcDbEntity
  8
0
  6
Continuous
 62
     7
370
    15
100
AcDbSpline
210
0.0
220
0.0
230
1.0
 70
    24
 71
     3
 72
     9
 73
     5
 74
     0
 42
0.000000001
 43
0.00000001
 40
0.0
 40
0.0
 40
0.0
 40
0.0
 40
0.4997527803141805
 40
0.9999999999999999
 40
0.9999999999999999
 40
0.9999999999999999
 40
0.9999999999999999
 10
4.139851042205387
 20
8.688906914893728
 30
0.0
 10
4.139895743461357
 20
8.688906914893728
 30
0.0
 10
4.139985190199287
 20
8.688906914893728
 30
0.0
 10
4.137274195197813
 20
8.688906914893728
 30
0.0
 10
4.135918027485744
 20
8.688906914893728
 30
0.0
  0
SPLINE
  5
208
330
1F
100
AcDbEntity
  8
0
  6
Continuous
 62
     7
370
    15
100
AcDbSpline
210
0.0
220
0.0
230
1.0
 70
    24
 71
     3
 72
     9
 73
     5
 74
     0
 42
0.000000001
 43
0.00000001
 40
0.0
 40
0.0
 40
0.0
 40
0.0
 40
0.7407938828716036
 40
1.0
 40
1.0
 40
1.0
 40
1.0
 10
4.135918027483386
 20
8.470156914897686
 30
0.0
 10
4.137951890863427
 20
8.47015691489588
 30
0.0
 10
4.140697409457825
 20
8.470156914893439
 30
0.0
 10
4.14002526592157
 20
8.470156914893668
 30
0.0
 10
4.139851042205384
 20
8.470156914893728
 30
0.0
  0
LINE
  5
209
330
1F
100
AcDbEntity
  8
0
  6
Continuous
 62
     7
370
    15
100
AcDbLine
 10
4.1359180275
 20
8.4701569149
 30
0.0
 11
4.1359180275
 21
8.4882588452
 31
0.0
  0
LINE
  5
20A
330
1F
100
AcDbEntity
  8
0
  6
Continuous
 62
     7
370
    15
100
AcDbLine
 10
4.1359180275
 20
8.5976338452
 30
0.0
 11
4.1359180275
 21
8.5614299845
 31
0.0
  0
LINE
  5
20B
330
1F
100
AcDbEntity
  8
0
  6
Continuous
 62
     7
370
    15
100
AcDbLine
 10
4.0938206799
 20
8.4701569149
 30
0.0
 11
4.0938206799
 21
8.4882588452
 31
0.0
  0
LINE
  5
20C
330
1F
100
AcDbEntity
  8
0
  6
Continuous
 62
     7
370
    15
100
AcDbLine
 10
4.0938206799
 20
8.4701569149
 30
0.0
 11
4.1359180275
 21
8.4701569149
 31
0.0
  0
LINE
  5
20D
330
1F
100
AcDbEntity
  8
0
  6
Continuous
 62
     7
370
    15
100
AcDbLine
 10
4.0938206799
 20
8.6708049845
 30
0.0
 11
4.0938206799
 21
8.6889069149
 31
0.0
  0
LINE
  5
20E
330
1F
100
AcDbEntity
  8
0
  6
Continuous
 62
     7
370
    15
100
AcDbLine
 10
4.0938206799
 20
8.6889069149
 30
0.0
 11
4.0888206799
 21
8.6889069149
 31
0.0
  0
LINE
  5
20F
330
1F
100
AcDbEntity
  8
0
  6
Continuous
 62
     7
370
    15
100
AcDbLine
 10
4.1359180275
 20
8.6889069149
 30
0.0
 11
4.0938206799
 21
8.6889069149
 31
0.0
  0
LINE
  5
210
330
1F
100
AcDbEntity
  8
0
  6
Continuous
 62
     7
370
    15
100
AcDbLine
 10
4.0888206799
 20
8.4701569149
 30
0.0
 11
4.0938206799
 21
8.4701569149
 31
0.0
  0
LINE
  5
211
330
1F
100
AcDbEntity
  8
0
  6
Continuous
 62
     7
370
    15
100
AcDbLine
 10
3.8376956799
 20
8.5726087851
 30
0.0
 11
3.8376956799
 21
8.4417819149
 31
0.0
  0
LINE
  5
212
330
1F
100
AcDbEntity
  8
0
  6
Continuous
 62
     7
370
    15
100
AcDbLine
 10
3.8376956799
 20
8.7172819149
 30
0.0
 11
3.8376956799
 21
8.5726087851
 31
0.0
  0
LINE
  5
213
330
1F
100
AcDbEntity
  8
0
  6
Continuous
 62
     7
370
    15
100
AcDbLine
 10
3.6556956799
 20
8.5729982897
 30
0.0
 11
3.6556956799
 21
8.4495319149
 31
0.0
  0
LINE
  5
214
330
1F
100
AcDbEntity
  8
0
  6
Continuous
 62
     7
370
    15
100
AcDbLine
 10
3.6556956799
 20
8.7095319149
 30
0.0
 11
3.6556956799
 21
8.5729982897
 31
0.0
  0
LINE
  5
215
330
1F
100
AcDbEntity
  8
0
  6
Continuous
 62
     7
370
    15
100
AcDbLine
 10
3.9280706799
 20
4.749837766
 30
0.0
 11
3.8376956799
 21
4.749837766
 31
0.0
  0
LINE
  5
216
330
1F
100
AcDbEntity
  8
0
  6
Continuous
 62
     7
370
    15
100
AcDbLine
 10
3.8376956799
 20
4.674587766
 30
0.0
 11
3.9280706799
 21
4.674587766
 31
0.0
  0
LINE
  5
217
330
1F
100
AcDbEntity
  8
0
  6
Continuous
 62
     7
370
    15
100
AcDbLine
 10
4.7654646609
 20
4.602837766
 30
0.0
 11
4.7656956799
 21
4.6032379026
 31
0.0
  0
LINE
  5
218
330
1F
100
AcDbEntity
  8
0
  6
Continuous
 62
     7
370
    15
100
AcDbLine
 10
4.7656956799
 20
4.8211876293
 30
0.0
 11
4.7654646609
 21
4.821587766
 31
0.0
  0
LINE
  5
219
330
1F
100
AcDbEntity
  8
0
  6
Continuous
 62
     7
370
    15
100
AcDbLine
 10
4.5159266989
 20
4.821587766
 30
0.0
 11
4.5156956798
 21
4.8211876293
 31
0.0
  0
LINE
  5
21A
330
1F
100
AcDbEntity
  8
0
  6
Continuous
 62
     7
370
    15
100
AcDbLine
 10
4.5156956798
 20
4.6032379026
 30
0.0
 11
4.5159266989
 21
4.602837766
 31
0.0
  0
LINE
  5
21B
330
1F
100
AcDbEntity
  8
0
  6
Continuous
 62
     7
370
    15
100
AcDbLine
 10
3.8909266989
 20
4.821587766
 30
0.0
 11
3.8906956798
 21
4.8211876293
 31
0.0
  0
LINE
  5
21C
330
1F
100
AcDbEntity
  8
0
  6
Continuous
 62
     7
370
    15
100
AcDbLine
 10
3.8906956798
 20
4.6032379026
 30
0.0
 11
3.8909266989
 21
4.602837766
 31
0.0
  0
LINE
  5
21D
330
1F
100
AcDbEntity
  8
0
  6
Continuous
 62
     7
370
    15
100
AcDbLine
 10
3.8376956799
 20
4.849962766
 30
0.0
 11
3.6556956799
 21
4.842212766
 31
0.0
  0
LINE
  5
21E
330
1F
100
AcDbEntity
  8
0
  6
Continuous
 62
     7
370
    15
100
AcDbLine
 10
3.6556956799
 20
4.582212766
 30
0.0
 11
3.8376956799
 21
4.574462766
 31
0.0
  0
LINE
  5
21F
330
1F
100
AcDbEntity
  8
0
  6
Continuous
 62
     7
370
    15
100
AcDbLine
 10
4.1172581799
 20
4.493462766
 30
0.0
 11
4.1094456799
 21
4.501275266
 31
0.0
  0
LINE
  5
220
330
1F
100
AcDbEntity
  8
0
  6
Continuous
 62
     7
370
    15
100
AcDbLine
 10
4.1094456799
 20
4.501275266
 30
0.0
 11
4.5469456799
 21
4.501275266
 31
0.0
  0
LINE
  5
221
330
1F
100
AcDbEntity
  8
0
  6
Continuous
 62
     7
370
    15
100
AcDbLine
 10
4.5391331799
 20
4.493462766
 30
0.0
 11
4.5469456799
 21
4.501275266
 31
0.0
  0
LINE
  5
222
330
1F
100
AcDbEntity
  8
0
  6
Continuous
 62
     7
370
    15
100
AcDbLine
 10
4.5391331799
 20
4.493462766
 30
0.0
 11
4.1172581799
 21
4.493462766
 31
0.0
  0
LINE
  5
223
330
1F
100
AcDbEntity
  8
0
  6
Continuous
 62
     7
370
    15
100
AcDbLine
 10
4.1094456799
 20
4.524712766
 30
0.0
 11
4.1094456799
 21
4.501275266
 31
0.0
  0
LINE
  5
224
330
1F
100
AcDbEntity
  8
0
  6
Continuous
 62
     7
370
    15
100
AcDbLine
 10
4.1094456799
 20
4.524712766
 30
0.0
 11
4.1406956799
 21
4.524712766
 31
0.0
  0
LINE
  5
225
330
1F
100
AcDbEntity
  8
0
  6
Continuous
 62
     7
370
    15
100
AcDbLine
 10
4.5156956799
 20
4.524712766
 30
0.0
 11
4.5469456799
 21
4.524712766
 31
0.0
  0
LINE
  5
226
330
1F
100
AcDbEntity
  8
0
  6
Continuous
 62
     7
370
    15
100
AcDbLine
 10
4.5469456799
 20
4.524712766
 30
0.0
 11
4.5469456799
 21
4.501275266
 31
0.0
  0
LINE
  5
227
330
1F
100
AcDbEntity
  8
0
  6
Continuous
 62
     7
370
    15
100
AcDbLine
 10
4.5469456799
 20
4.923150266
 30
0.0
 11
4.1094456799
 21
4.923150266
 31
0.0
  0
LINE
  5
228
330
1F
100
AcDbEntity
  8
0
  6
Continuous
 62
     7
370
    15
100
AcDbLine
 10
4.5469456799
 20
4.923150266
 30
0.0
 11
4.5469456799
 21
4.899712766
 31
0.0
  0
LINE
  5
229
330
1F
100
AcDbEntity
  8
0
  6
Continuous
 62
     7
370
    15
100
AcDbLine
 10
4.1094456799
 20
4.899712766
 30
0.0
 11
4.1094456799
 21
4.923150266
 31
0.0
  0
LINE
  5
22A
330
1F
100
AcDbEntity
  8
0
  6
Continuous
 62
     7
370
    15
100
AcDbLine
 10
4.5469456799
 20
4.899712766
 30
0.0
 11
4.5156956799
 21
4.899712766
 31
0.0
  0
LINE
  5
22B
330
1F
100
AcDbEntity
  8
0
  6
Continuous
 62
     7
370
    15
100
AcDbLine
 10
4.1406956799
 20
4.899712766
 30
0.0
 11
4.1094456799
 21
4.899712766
 31
0.0
  0
LINE
  5
22C
330
1F
100
AcDbEntity
  8
0
  6
Continuous
 62
     7
370
    15
100
AcDbLine
 10
4.1172581799
 20
4.930962766
 30
0.0
 11
4.1094456799
 21
4.923150266
 31
0.0
  0
LINE
  5
22D
330
1F
100
AcDbEntity
  8
0
  6
Continuous
 62
     7
370
    15
100
AcDbLine
 10
4.1172581799
 20
4.930962766
 30
0.0
 11
4.5391331799
 21
4.930962766
 31
0.0
  0
LINE
  5
22E
330
1F
100
AcDbEntity
  8
0
  6
Continuous
 62
     7
370
    15
100
AcDbLine
 10
4.5469456799
 20
4.923150266
 30
0.0
 11
4.5391331799
 21
4.930962766
 31
0.0
  0
LINE
  5
22F
330
1F
100
AcDbEntity
  8
0
  6
Continuous
 62
     7
370
    15
100
AcDbLine
 10
4.5469456799
 20
4.524712766
 30
0.0
 11
4.5469456799
 21
4.602837766
 31
0.0
  0
LINE
  5
230
330
1F
100
AcDbEntity
  8
0
  6
Continuous
 62
     7
370
    15
100
AcDbLine
 10
4.5469456799
 20
4.821587766
 30
0.0
 11
4.5469456799
 21
4.899712766
 31
0.0
  0
LINE
  5
231
330
1F
100
AcDbEntity
  8
0
  6
Continuous
 62
     7
370
    15
100
AcDbLine
 10
4.1094456799
 20
4.899712766
 30
0.0
 11
4.1094456799
 21
4.821587766
 31
0.0
  0
LINE
  5
232
330
1F
100
AcDbEntity
  8
0
  6
Continuous
 62
     7
370
    15
100
AcDbLine
 10
4.1094456799
 20
4.602837766
 30
0.0
 11
4.1094456799
 21
4.524712766
 31
0.0
  0
SPLINE
  5
233
330
1F
100
AcDbEntity
  8
0
  6
Continuous
 62
     7
370
    15
100
AcDbSpline
210
0.0
220
0.0
230
1.0
 70
     8
 71
     3
 72
    10
 73
     6
 74
     0
 42
0.000000001
 43
0.00000001
 40
0.0
 40
0.0
 40
0.0
 40
0.0
 40
0.4989887185931089
 40
0.7494000253149551
 40
1.0
 40
1.0
 40
1.0
 40
1.0
 10
3.968820679867708
 20
4.748111277879816
 30
0.0
 10
3.968594146555479
 20
4.742120415805716
 30
0.0
 10
3.968253930306907
 20
4.733123113817311
 30
0.0
 10
3.966915786982536
 20
4.721166625254999
 30
0.0
 10
3.966042064267199
 20
4.71519813491655
 30
0.0
 10
3.965605038398778
 20
4.712212765957346
 30
0.0
  0
SPLINE
  5
234
330
1F
100
AcDbEntity
  8
0
  6
Continuous
 62
     7
370
    15
100
AcDbSpline
210
0.0
220
0.0
230
1.0
 70
     8
 71
     3
 72
    10
 73
     6
 74
     0
 42
0.000000001
 43
0.00000001
 40
0.0
 40
0.0
 40
0.0
 40
0.0
 40
0.3268376783955523
 40
0.6631067024620352
 40
1.0
 40
1.0
 40
1.0
 40
1.0
 10
3.965605038398778
 20
4.712212765957346
 30
0.0
 10
3.966166198680563
 20
4.708317936435233
 30
0.0
 10
3.967304712287175
 20
4.700415886788634
 30
0.0
 10
3.96844532915348
 20
4.688441122334829
 30
0.0
 10
3.968695485633398
 20
4.680359041839584
 30
0.0
 10
3.968820679867708
 20
4.676314254034883
 30
0.0
  0
LINE
  5
235
330
1F
100
AcDbEntity
  8
0
  6
Continuous
 62
     7
370
    15
100
AcDbLine
 10
3.9280706799
 20
4.676314254
 30
0.0
 11
3.9280706799
 21
4.7481112779
 31
0.0
  0
SPLINE
  5
236
330
1F
100
AcDbEntity
  8
0
  6
Continuous
 62
     7
370
    15
100
AcDbSpline
210
0.0
220
0.0
230
1.0
 70
     8
 71
     3
 72
    10
 73
     6
 74
     0
 42
0.000000001
 43
0.00000001
 40
0.0
 40
0.0
 40
0.0
 40
0.0
 40
0.3268376748115749
 40
0.6631067006599247
 40
0.9999999999999999
 40
0.9999999999999999
 40
0.9999999999999999
 40
0.9999999999999999
 10
3.931286321397213
 20
4.712212765565792
 30
0.0
 10
3.930725161110737
 20
4.716107595087379
 30
0.0
 10
3.929586647485217
 20
4.724009644798084
 30
0.0
 10
3.928446030591282
 20
4.735984409382258
 30
0.0
 10
3.928195874105138
 20
4.744066490009136
 30
0.0
 10
3.928070679867709
 20
4.748111277879816
 30
0.0
  0
SPLINE
  5
237
330
1F
100
AcDbEntity
  8
0
  6
Continuous
 62
     7
370
    15
100
AcDbSpline
210
0.0
220
0.0
230
1.0
 70
     8
 71
     3
 72
    10
 73
     6
 74
     0
 42
0.000000001
 43
0.00000001
 40
0.0
 40
0.0
 40
0.0
 40
0.0
 40
0.4989887186306427
 40
0.7494000253362617
 40
1.0
 40
1.0
 40
1.0
 40
1.0
 10
3.928070679867709
 20
4.676314254034881
 30
0.0
 10
3.928297213171421
 20
4.682305115970747
 30
0.0
 10
3.928637429407186
 20
4.691302417751124
 30
0.0
 10
3.92997557267645
 20
4.703258906038514
 30
0.0
 10
3.93084929535747
 20
4.709227396239888
 30
0.0
 10
3.931286321208721
 20
4.712212765130499
 30
0.0
  0
LINE
  5
238
330
1F
100
AcDbEntity
  8
0
  6
Continuous
 62
     7
370
    15
100
AcDbLine
 10
3.9280706799
 20
4.7481112779
 30
0.0
 11
3.9280706799
 21
4.754439254
 31
0.0
  0
SPLINE
  5
239
330
1F
100
AcDbEntity
  8
0
  6
Continuous
 62
     7
370
    15
100
AcDbSpline
210
0.0
220
0.0
230
1.0
 70
     8
 71
     3
 72
    10
 73
     6
 74
     0
 42
0.000000001
 43
0.00000001
 40
0.0
 40
0.0
 40
0.0
 40
0.0
 40
0.4989887185754769
 40
0.7494000253049417
 40
1.0
 40
1.0
 40
1.0
 40
1.0
 10
3.928070679867709
 20
4.754439254034875
 30
0.0
 10
3.928297213183937
 20
4.760430116173895
 30
0.0
 10
3.928637429438524
 20
4.769427418259997
 30
0.0
 10
3.929975572788777
 20
4.781383906951422
 30
0.0
 10
3.93084929552023
 20
4.787352397354248
 30
0.0
 10
3.931286321396714
 20
4.790337766345666
 30
0.0
  0
LINE
  5
23A
330
1F
100
AcDbEntity
  8
0
  6
Continuous
 62
     7
370
    15
100
AcDbLine
 10
3.9656050384
 20
4.790337766
 30
0.0
 11
3.9312863214
 21
4.7903377662
 31
0.0
  0
SPLINE
  5
23B
330
1F
100
AcDbEntity
  8
0
  6
Continuous
 62
     7
370
    15
100
AcDbSpline
210
0.0
220
0.0
230
1.0
 70
     8
 71
     3
 72
    10
 73
     6
 74
     0
 42
0.000000001
 43
0.00000001
 40
0.0
 40
0.0
 40
0.0
 40
0.0
 40
0.3268376783954852
 40
0.6631067024620066
 40
1.0
 40
1.0
 40
1.0
 40
1.0
 10
3.965605038398778
 20
4.790337765957346
 30
0.0
 10
3.966166198680563
 20
4.786442936435233
 30
0.0
 10
3.967304712287175
 20
4.778540886788632
 30
0.0
 10
3.968445329153479
 20
4.766566122334822
 30
0.0
 10
3.968695485633398
 20
4.758484041839576
 30
0.0
 10
3.968820679867708
 20
4.754439254034875
 30
0.0
  0
LINE
  5
23C
330
1F
100
AcDbEntity
  8
0
  6
Continuous
 62
     7
370
    15
100
AcDbLine
 10
3.9312863213
 20
4.7122127655
 30
0.0
 11
3.9656050384
 21
4.712212766
 31
0.0
  0
SPLINE
  5
23D
330
1F
100
AcDbEntity
  8
0
  6
Continuous
 62
     7
370
    15
100
AcDbSpline
210
0.0
220
0.0
230
1.0
 70
     8
 71
     3
 72
    10
 73
     6
 74
     0
 42
0.000000001
 43
0.00000001
 40
0.0
 40
0.0
 40
0.0
 40
0.0
 40
0.4989887185931033
 40
0.7494000253149516
 40
1.0
 40
1.0
 40
1.0
 40
1.0
 10
3.968820679867708
 20
4.669986277879809
 30
0.0
 10
3.968594146555479
 20
4.663995415805709
 30
0.0
 10
3.968253930306906
 20
4.654998113817307
 30
0.0
 10
3.966915786982536
 20
4.643041625254996
 30
0.0
 10
3.966042064267199
 20
4.637073134916549
 30
0.0
 10
3.965605038398778
 20
4.634087765957345
 30
0.0
  0
LINE
  5
23E
330
1F
100
AcDbEntity
  8
0
  6
Continuous
 62
     7
370
    15
100
AcDbLine
 10
3.9312863214
 20
4.634087766
 30
0.0
 11
3.9656050384
 21
4.634087766
 31
0.0
  0
SPLINE
  5
23F
330
1F
100
AcDbEntity
  8
0
  6
Continuous
 62
     7
370
    15
100
AcDbSpline
210
0.0
220
0.0
230
1.0
 70
     8
 71
     3
 72
    10
 73
     6
 74
     0
 42
0.000000001
 43
0.00000001
 40
0.0
 40
0.0
 40
0.0
 40
0.0
 40
0.3268376859029827
 40
0.6631067062369198
 40
1.0
 40
1.0
 40
1.0
 40
1.0
 10
3.931286321209748
 20
4.634087766777557
 30
0.0
 10
3.930725160937792
 20
4.637982596300774
 30
0.0
 10
3.92958664737079
 20
4.645884645813086
 30
0.0
 10
3.928446030562363
 20
4.65785940999381
 30
0.0
 10
3.928195874095486
 20
4.665941490213316
 30
0.0
 10
3.928070679867709
 20
4.66998627787981
 30
0.0
  0
LINE
  5
240
330
1F
100
AcDbEntity
  8
0
  6
Continuous
 62
     7
370
    15
100
AcDbLine
 10
3.9280706799
 20
4.6699862779
 30
0.0
 11
3.9280706799
 21
4.676314254
 31
0.0
  0
SPLINE
  5
241
330
1F
100
AcDbEntity
  8
0
  6
Continuous
 62
     7
370
    15
100
AcDbSpline
210
0.0
220
0.0
230
1.0
 70
    24
 71
     3
 72
    10
 73
     6
 74
     0
 42
0.000000001
 43
0.00000001
 40
0.0
 40
0.0
 40
0.0
 40
0.0
 40
0.3268376859012323
 40
0.6631067062360239
 40
1.0
 40
1.0
 40
1.0
 40
1.0
 10
3.931286321209778
 20
4.790337765957346
 30
0.0
 10
3.930725160937819
 20
4.790337765957344
 30
0.0
 10
3.929586647370808
 20
4.790337765957341
 30
0.0
 10
3.928446030562369
 20
4.790337765957347
 30
0.0
 10
3.928195874095488
 20
4.790337765957347
 30
0.0
 10
3.928070679867709
 20
4.790337765957346
 30
0.0
  0
LINE
  5
242
330
1F
100
AcDbEntity
  8
0
  6
Continuous
 62
     7
370
    15
100
AcDbLine
 10
3.9280706799
 20
4.754439254
 30
0.0
 11
3.9280706799
 21
4.790337766
 31
0.0
  0
SPLINE
  5
243
330
1F
100
AcDbEntity
  8
0
  6
Continuous
 62
     7
370
    15
100
AcDbSpline
210
0.0
220
0.0
230
1.0
 70
    24
 71
     3
 72
    10
 73
     6
 74
     0
 42
0.000000001
 43
0.00000001
 40
0.0
 40
0.0
 40
0.0
 40
0.0
 40
0.4989887185931092
 40
0.7494000253149544
 40
1.0
 40
1.0
 40
1.0
 40
1.0
 10
3.968820679867708
 20
4.790337765957346
 30
0.0
 10
3.968594146555479
 20
4.790337765957346
 30
0.0
 10
3.968253930306907
 20
4.790337765957346
 30
0.0
 10
3.966915786982536
 20
4.790337765957346
 30
0.0
 10
3.966042064267199
 20
4.790337765957346
 30
0.0
 10
3.965605038398778
 20
4.790337765957346
 30
0.0
  0
SPLINE
  5
244
330
1F
100
AcDbEntity
  8
0
  6
Continuous
 62
     7
370
    15
100
AcDbSpline
210
0.0
220
0.0
230
1.0
 70
    24
 71
     3
 72
    10
 73
     6
 74
     0
 42
0.000000001
 43
0.00000001
 40
0.0
 40
0.0
 40
0.0
 40
0.0
 40
0.4989887185754784
 40
0.7494000253049483
 40
1.0
 40
1.0
 40
1.0
 40
1.0
 10
3.928070679867709
 20
4.634087765957346
 30
0.0
 10
3.928297213183939
 20
4.634087765957346
 30
0.0
 10
3.928637429438527
 20
4.634087765957346
 30
0.0
 10
3.929975572788786
 20
4.634087765957346
 30
0.0
 10
3.930849295520242
 20
4.634087765957345
 30
0.0
 10
3.931286321396727
 20
4.634087765957345
 30
0.0
  0
LINE
  5
245
330
1F
100
AcDbEntity
  8
0
  6
Continuous
 62
     7
370
    15
100
AcDbLine
 10
3.9280706799
 20
4.634087766
 30
0.0
 11
3.9280706799
 21
4.6699862779
 31
0.0
  0
SPLINE
  5
246
330
1F
100
AcDbEntity
  8
0
  6
Continuous
 62
     7
370
    15
100
AcDbSpline
210
0.0
220
0.0
230
1.0
 70
    24
 71
     3
 72
    10
 73
     6
 74
     0
 42
0.000000001
 43
0.00000001
 40
0.0
 40
0.0
 40
0.0
 40
0.0
 40
0.3268376783954863
 40
0.6631067024619857
 40
1.0
 40
1.0
 40
1.0
 40
1.0
 10
3.965605038398778
 20
4.634087765957345
 30
0.0
 10
3.966166198680563
 20
4.634087765957346
 30
0.0
 10
3.967304712287175
 20
4.634087765957346
 30
0.0
 10
3.96844532915348
 20
4.63408776595735
 30
0.0
 10
3.968695485633398
 20
4.634087765957347
 30
0.0
 10
3.968820679867708
 20
4.634087765957346
 30
0.0
  0
LINE
  5
247
330
1F
100
AcDbEntity
  8
0
  6
Continuous
 62
     7
370
    15
100
AcDbLine
 10
4.5675706799
 20
4.712212766
 30
0.0
 11
4.75569568
 21
4.7122127663
 31
0.0
  0
SPLINE
  5
248
330
1F
100
AcDbEntity
  8
0
  6
Continuous
 62
     7
370
    15
100
AcDbSpline
210
0.0
220
0.0
230
1.0
 70
     8
 71
     3
 72
    11
 73
     7
 74
     0
 42
0.000000001
 43
0.00000001
 40
0.0
 40
0.0
 40
0.0
 40
0.0
 40
0.2646136134961546
 40
0.5349657659035764
 40
0.7653524246751661
 40
1.0
 40
1.0
 40
1.0
 40
1.0
 10
4.755695679549999
 20
4.712212766370062
 30
0.0
 10
4.758517350285484
 20
4.702719470365592
 30
0.0
 10
4.764221883873883
 20
4.68352700214417
 30
0.0
 10
4.766308409320277
 20
4.655091418591788
 30
0.0
 10
4.76324513360737
 20
4.627909614386875
 30
0.0
 10
4.758227489478331
 20
4.611245943370251
 30
0.0
 10
4.75569568011378
 20
4.602837766695561
 30
0.0
  0
LINE
  5
249
330
1F
100
AcDbEntity
  8
0
  6
Continuous
 62
     7
370
    15
100
AcDbLine
 10
4.5675706799
 20
4.602837766
 30
0.0
 11
4.75569568
 21
4.6028377663
 31
0.0
  0
LINE
  5
24A
330
1F
100
AcDbEntity
  8
0
  6
Continuous
 62
     7
370
    15
100
AcDbLine
 10
4.5675706799
 20
4.602837766
 30
0.0
 11
4.5675706799
 21
4.6035078976
 31
0.0
  0
LINE
  5
24B
330
1F
100
AcDbEntity
  8
0
  6
Continuous
 62
     7
370
    15
100
AcDbLine
 10
4.5675706799
 20
4.6035078976
 30
0.0
 11
4.5625706799
 21
4.6209396963
 31
0.0
  0
LINE
  5
24C
330
1F
100
AcDbEntity
  8
0
  6
Continuous
 62
     7
370
    15
100
AcDbLine
 10
4.5625706799
 20
4.6209396963
 30
0.0
 11
4.5204733323
 21
4.6209396963
 31
0.0
  0
SPLINE
  5
24D
330
1F
100
AcDbEntity
  8
0
  6
Continuous
 62
     7
370
    15
100
AcDbSpline
210
0.0
220
0.0
230
1.0
 70
     8
 71
     3
 72
    10
 73
     6
 74
     0
 42
0.000000001
 43
0.00000001
 40
0.0
 40
0.0
 40
0.0
 40
0.0
 40
0.370292678985444
 40
0.749805983261901
 40
1.0
 40
1.0
 40
1.0
 40
1.0
 10
4.520473332250678
 20
4.620939696310854
 30
0.0
 10
4.518724805788243
 20
4.629919298167538
 30
0.0
 10
4.515184212960382
 20
4.648102102153561
 30
0.0
 10
4.516037316502315
 20
4.672845724708959
 30
0.0
 10
4.519211981061163
 20
4.68806424460288
 30
0.0
 10
4.520473332249673
 20
4.694110835604767
 30
0.0
  0
LINE
  5
24E
330
1F
100
AcDbEntity
  8
0
  6
Continuous
 62
     7
370
    15
100
AcDbLine
 10
4.5204733323
 20
4.6941108356
 30
0.0
 11
4.5625706799
 21
4.6941108356
 31
0.0
  0
LINE
  5
24F
330
1F
100
AcDbEntity
  8
0
  6
Continuous
 62
     7
370
    15
100
AcDbLine
 10
4.5625706799
 20
4.6941108356
 30
0.0
 11
4.5675706799
 21
4.7115426343
 31
0.0
  0
LINE
  5
250
330
1F
100
AcDbEntity
  8
0
  6
Continuous
 62
     7
370
    15
100
AcDbLine
 10
4.5675706799
 20
4.7115426343
 30
0.0
 11
4.5675706799
 21
4.712212766
 31
0.0
  0
LINE
  5
251
330
1F
100
AcDbEntity
  8
0
  6
Continuous
 62
     7
370
    15
100
AcDbLine
 10
4.5675706799
 20
4.821587766
 30
0.0
 11
4.75569568
 21
4.821587766
 31
0.0
  0
SPLINE
  5
252
330
1F
100
AcDbEntity
  8
0
  6
Continuous
 62
     7
370
    15
100
AcDbSpline
210
0.0
220
0.0
230
1.0
 70
     8
 71
     3
 72
    11
 73
     7
 74
     0
 42
0.000000001
 43
0.00000001
 40
0.0
 40
0.0
 40
0.0
 40
0.0
 40
0.2646136134961521
 40
0.5349657659035728
 40
0.765352424675166
 40
1.0
 40
1.0
 40
1.0
 40
1.0
 10
4.755695679549999
 20
4.821587766000953
 30
0.0
 10
4.758517350285484
 20
4.812094470152322
 30
0.0
 10
4.764221883873882
 20
4.792902002245954
 30
0.0
 10
4.766308409320278
 20
4.764466418568895
 30
0.0
 10
4.763245133607369
 20
4.737284614392331
 30
0.0
 10
4.758227489478331
 20
4.72062094337208
 30
0.0
 10
4.755695680113781
 20
4.712212766695561
 30
0.0
  0
LINE
  5
253
330
1F
100
AcDbEntity
  8
0
  6
Continuous
 62
     7
370
    15
100
AcDbLine
 10
4.5675706799
 20
4.7128828976
 30
0.0
 11
4.5625706799
 21
4.7303146963
 31
0.0
  0
LINE
  5
254
330
1F
100
AcDbEntity
  8
0
  6
Continuous
 62
     7
370
    15
100
AcDbLine
 10
4.5625706799
 20
4.7303146963
 30
0.0
 11
4.5204733323
 21
4.7303146963
 31
0.0
  0
SPLINE
  5
255
330
1F
100
AcDbEntity
  8
0
  6
Continuous
 62
     7
370
    15
100
AcDbSpline
210
0.0
220
0.0
230
1.0
 70
     8
 71
     3
 72
    10
 73
     6
 74
     0
 42
0.000000001
 43
0.00000001
 40
0.0
 40
0.0
 40
0.0
 40
0.0
 40
0.3702926789854371
 40
0.7498059832618851
 40
1.0
 40
1.0
 40
1.0
 40
1.0
 10
4.520473332250677
 20
4.730314696309186
 30
0.0
 10
4.518724805788242
 20
4.739294298166575
 30
0.0
 10
4.515184212960382
 20
4.757477102154025
 30
0.0
 10
4.516037316502315
 20
4.782220724708887
 30
0.0
 10
4.519211981061163
 20
4.79743924460286
 30
0.0
 10
4.520473332249672
 20
4.803485835604768
 30
0.0
  0
LINE
  5
256
330
1F
100
AcDbEntity
  8
0
  6
Continuous
 62
     7
370
    15
100
AcDbLine
 10
4.5204733323
 20
4.8034858356
 30
0.0
 11
4.5625706799
 21
4.8034858356
 31
0.0
  0
LINE
  5
257
330
1F
100
AcDbEntity
  8
0
  6
Continuous
 62
     7
370
    15
100
AcDbLine
 10
4.5625706799
 20
4.8034858356
 30
0.0
 11
4.5675706799
 21
4.8209176343
 31
0.0
  0
LINE
  5
258
330
1F
100
AcDbEntity
  8
0
  6
Continuous
 62
     7
370
    15
100
AcDbLine
 10
4.5675706799
 20
4.8209176343
 30
0.0
 11
4.5675706799
 21
4.821587766
 31
0.0
  0
LINE
  5
259
330
1F
100
AcDbEntity
  8
0
  6
Continuous
 62
     7
370
    15
100
AcDbLine
 10
4.5675706799
 20
4.712212766
 30
0.0
 11
4.5675706799
 21
4.7128828976
 31
0.0
  0
SPLINE
  5
25A
330
1F
100
AcDbEntity
  8
0
  6
Continuous
 62
     7
370
    15
100
AcDbSpline
210
0.0
220
0.0
230
1.0
 70
    27
 71
     3
 72
    11
 73
     7
 74
     0
 42
0.000000001
 43
0.00000001
 40
0.0
 40
0.0
 40
0.0
 40
0.0
 40
0.2646136127554459
 40
0.534965764228848
 40
0.7653524238103026
 40
1.0
 40
1.0
 40
1.0
 40
1.0
 10
4.755695679773066
 20
4.821587765957345
 30
0.0
 10
4.758517350406469
 20
4.821587765957345
 30
0.0
 10
4.764221883786601
 20
4.821587765957345
 30
0.0
 10
4.7663084093364
 20
4.821587765957345
 30
0.0
 10
4.763245133629625
 20
4.821587765957346
 30
0.0
 10
4.758227489485936
 20
4.821587765957345
 30
0.0
 10
4.755695680113781
 20
4.821587765957345
 30
0.0
  0
SPLINE
  5
25B
330
1F
100
AcDbEntity
  8
0
  6
Continuous
 62
     7
370
    15
100
AcDbSpline
210
0.0
220
0.0
230
1.0
 70
    11
 71
     3
 72
    11
 73
     7
 74
     0
 42
0.000000001
 43
0.00000001
 40
0.0
 40
0.0
 40
0.0
 40
0.0
 40
0.2646136134961561
 40
0.5349657659035774
 40
0.7653524246751688
 40
1.0
 40
1.0
 40
1.0
 40
1.0
 10
4.755695679549999
 20
4.602837766326453
 30
0.0
 10
4.758517350285483
 20
4.602837766170616
 30
0.0
 10
4.764221883873881
 20
4.60283776585556
 30
0.0
 10
4.766308409320277
 20
4.602837765980239
 30
0.0
 10
4.763245133607369
 20
4.602837765951891
 30
0.0
 10
4.758227489478331
 20
4.602837765955516
 30
0.0
 10
4.755695680113781
 20
4.602837765957345
 30
0.0
  0
LINE
  5
25C
330
1F
100
AcDbEntity
  8
0
  6
Continuous
 62
     7
370
    15
100
AcDbLine
 10
4.5625706799
 20
4.7303146963
 30
0.0
 11
4.5625706799
 21
4.6941108356
 31
0.0
  0
SPLINE
  5
25D
330
1F
100
AcDbEntity
  8
0
  6
Continuous
 62
     7
370
    15
100
AcDbSpline
210
0.0
220
0.0
230
1.0
 70
    24
 71
     3
 72
     9
 73
     5
 74
     0
 42
0.000000001
 43
0.00000001
 40
0.0
 40
0.0
 40
0.0
 40
0.0
 40
0.7407938828571095
 40
1.0
 40
1.0
 40
1.0
 40
1.0
 10
4.520473332250678
 20
4.821587765955678
 30
0.0
 10
4.518439468871305
 20
4.82158776595644
 30
0.0
 10
4.515693950277757
 20
4.821587765957468
 30
0.0
 10
4.516366093813871
 20
4.82158776595737
 30
0.0
 10
4.51654031753003
 20
4.821587765957346
 30
0.0
  0
LINE
  5
25E
330
1F
100
AcDbEntity
  8
0
  6
Continuous
 62
     7
370
    15
100
AcDbLine
 10
4.5204733323
 20
4.8034858356
 30
0.0
 11
4.5204733323
 21
4.821587766
 31
0.0
  0
LINE
  5
25F
330
1F
100
AcDbEntity
  8
0
  6
Continuous
 62
     7
370
    15
100
AcDbLine
 10
4.5204733323
 20
4.6941108356
 30
0.0
 11
4.5204733323
 21
4.7303146963
 31
0.0
  0
LINE
  5
260
330
1F
100
AcDbEntity
  8
0
  6
Continuous
 62
     7
370
    15
100
AcDbLine
 10
4.5204733323
 20
4.602837766
 30
0.0
 11
4.5204733323
 21
4.6209396963
 31
0.0
  0
SPLINE
  5
261
330
1F
100
AcDbEntity
  8
0
  6
Continuous
 62
     7
370
    15
100
AcDbSpline
210
0.0
220
0.0
230
1.0
 70
    24
 71
     3
 72
     9
 73
     5
 74
     0
 42
0.000000001
 43
0.00000001
 40
0.0
 40
0.0
 40
0.0
 40
0.0
 40
0.4997527803458247
 40
1.0
 40
1.0
 40
1.0
 40
1.0
 10
4.516540317530032
 20
4.602837765957345
 30
0.0
 10
4.516495616274085
 20
4.602837765957346
 30
0.0
 10
4.516406169536206
 20
4.602837765957345
 30
0.0
 10
4.519117164537686
 20
4.602837765957346
 30
0.0
 10
4.520473332249673
 20
4.602837765957345
 30
0.0
  0
LINE
  5
262
330
1F
100
AcDbEntity
  8
0
  6
Continuous
 62
     7
370
    15
100
AcDbLine
 10
4.5625706799
 20
4.6209396963
 30
0.0
 11
4.5625706799
 21
4.602837766
 31
0.0
  0
LINE
  5
263
330
1F
100
AcDbEntity
  8
0
  6
Continuous
 62
     7
370
    15
100
AcDbLine
 10
4.5204733323
 20
4.602837766
 30
0.0
 11
4.5625706799
 21
4.602837766
 31
0.0
  0
LINE
  5
264
330
1F
100
AcDbEntity
  8
0
  6
Continuous
 62
     7
370
    15
100
AcDbLine
 10
4.5625706799
 20
4.602837766
 30
0.0
 11
4.5675706799
 21
4.602837766
 31
0.0
  0
LINE
  5
265
330
1F
100
AcDbEntity
  8
0
  6
Continuous
 62
     7
370
    15
100
AcDbLine
 10
4.5625706799
 20
4.821587766
 30
0.0
 11
4.5625706799
 21
4.8034858356
 31
0.0
  0
LINE
  5
266
330
1F
100
AcDbEntity
  8
0
  6
Continuous
 62
     7
370
    15
100
AcDbLine
 10
4.5625706799
 20
4.821587766
 30
0.0
 11
4.5204733323
 21
4.821587766
 31
0.0
  0
LINE
  5
267
330
1F
100
AcDbEntity
  8
0
  6
Continuous
 62
     7
370
    15
100
AcDbLine
 10
4.5675706799
 20
4.821587766
 30
0.0
 11
4.5625706799
 21
4.821587766
 31
0.0
  0
LINE
  5
268
330
1F
100
AcDbEntity
  8
0
  6
Continuous
 62
     7
370
    15
100
AcDbLine
 10
3.9679947586
 20
4.602837766
 30
0.0
 11
3.9006956797
 21
4.602837766
 31
0.0
  0
SPLINE
  5
269
330
1F
100
AcDbEntity
  8
0
  6
Continuous
 62
     7
370
    15
100
AcDbSpline
210
0.0
220
0.0
230
1.0
 70
     8
 71
     3
 72
    10
 73
     6
 74
     0
 42
0.000000001
 43
0.00000001
 40
0.0
 40
0.0
 40
0.0
 40
0.0
 40
0.4044491311367555
 40
0.8176693419091804
 40
1.0
 40
1.0
 40
1.0
 40
1.0
 10
3.900695680185418
 20
4.602837765913737
 30
0.0
 10
3.897926599484808
 20
4.612325717507633
 30
0.0
 10
3.892328386459113
 20
4.631507381006432
 30
0.0
 10
3.889886129321667
 20
4.655882294093947
 30
0.0
 10
3.891875012613614
 20
4.670203318099194
 30
0.0
 10
3.892483918449279
 20
4.674587765957352
 30
0.0
  0
SPLINE
  5
26A
330
1F
100
AcDbEntity
  8
0
  6
Continuous
 62
     7
370
    15
100
AcDbSpline
210
0.0
220
0.0
230
1.0
 70
     8
 71
     3
 72
    10
 73
     6
 74
     0
 42
0.000000001
 43
0.00000001
 40
0.0
 40
0.0
 40
0.0
 40
0.0
 40
0.2892579982932562
 40
0.6413728814910727
 40
1.0
 40
1.0
 40
1.0
 40
1.0
 10
3.892582775534701
 20
4.749837765957351
 30
0.0
 10
3.891788874382887
 20
4.756817853782446
 30
0.0
 10
3.890028554279857
 20
4.772294829589018
 30
0.0
 10
3.893254424822307
 20
4.796526034216151
 30
0.0
 10
3.898200156124347
 20
4.81318298131006
 30
0.0
 10
3.900695679621637
 20
4.82158776521913
 30
0.0
  0
LINE
  5
26B
330
1F
100
AcDbEntity
  8
0
  6
Continuous
 62
     7
370
    15
100
AcDbLine
 10
3.9688206799
 20
4.821587766
 30
0.0
 11
3.9006956797
 21
4.8215877656
 31
0.0
  0
SPLINE
  5
26C
330
1F
100
AcDbEntity
  8
0
  6
Continuous
 62
     7
370
    15
100
AcDbSpline
210
0.0
220
0.0
230
1.0
 70
    27
 71
     3
 72
    11
 73
     7
 74
     0
 42
0.000000001
 43
0.00000001
 40
0.0
 40
0.0
 40
0.0
 40
0.0
 40
0.2646136127554459
 40
0.5349657642288479
 40
0.7653524238103024
 40
1.0
 40
1.0
 40
1.0
 40
1.0
 10
3.900695679962352
 20
4.602837765957345
 30
0.0
 10
3.897874009328948
 20
4.602837765957345
 30
0.0
 10
3.892169475948816
 20
4.602837765957345
 30
0.0
 10
3.890082950399017
 20
4.602837765957346
 30
0.0
 10
3.893146226105793
 20
4.602837765957345
 30
0.0
 10
3.89816387024948
 20
4.602837765957346
 30
0.0
 10
3.900695679621637
 20
4.602837765957346
 30
0.0
  0
SPLINE
  5
26D
330
1F
100
AcDbEntity
  8
0
  6
Continuous
 62
     7
370
    15
100
AcDbSpline
210
0.0
220
0.0
230
1.0
 70
    11
 71
     3
 72
    11
 73
     7
 74
     0
 42
0.000000001
 43
0.00000001
 40
0.0
 40
0.0
 40
0.0
 40
0.0
 40
0.2646136134961562
 40
0.5349657659035775
 40
0.7653524246751691
 40
1.0
 40
1.0
 40
1.0
 40
1.0
 10
3.900695680185418
 20
4.821587765588237
 30
0.0
 10
3.897874009449934
 20
4.821587765744075
 30
0.0
 10
3.892169475861536
 20
4.82158776605913
 30
0.0
 10
3.89008295041514
 20
4.821587765934451
 30
0.0
 10
3.893146226128047
 20
4.821587765962799
 30
0.0
 10
3.898163870257086
 20
4.821587765959174
 30
0.0
 10
3.900695679621636
 20
4.821587765957346
 30
0.0
  0
LINE
  5
26E
330
1F
100
AcDbEntity
  8
0
  6
Continuous
 62
     7
370
    15
100
AcDbLine
 10
3.8376956799
 20
4.849962766
 30
0.0
 11
3.8376956799
 21
4.574462766
 31
0.0
  0
LINE
  5
26F
330
1F
100
AcDbEntity
  8
0
  6
Continuous
 62
     7
370
    15
100
AcDbLine
 10
3.6556956799
 20
4.842212766
 30
0.0
 11
3.6556956799
 21
4.582212766
 31
0.0
  0
SPLINE
  5
270
330
1F
100
AcDbEntity
  8
0
  6
Continuous
 62
     7
370
    15
100
AcDbSpline
210
0.0
220
0.0
230
1.0
 70
     8
 71
     3
 72
     9
 73
     5
 74
     0
 42
0.000000001
 43
0.00000001
 40
0.0
 40
0.0
 40
0.0
 40
0.0
 40
0.4989631659632751
 40
1.0
 40
1.0
 40
1.0
 40
1.0
 10
4.13616187986909
 20
4.712212765818822
 30
0.0
 10
4.13744738125954
 20
4.703150158915784
 30
0.0
 10
4.140023726525365
 20
4.684987281330337
 30
0.0
 10
4.140471385987882
 20
4.66669191725247
 30
0.0
 10
4.140695679867709
 20
4.657525265957346
 30
0.0
  0
SPLINE
  5
271
330
1F
100
AcDbEntity
  8
0
  6
Continuous
 62
     7
370
    15
100
AcDbSpline
210
0.0
220
0.0
230
1.0
 70
     8
 71
     3
 72
     9
 73
     5
 74
     0
 42
0.000000001
 43
0.00000001
 40
0.0
 40
0.0
 40
0.0
 40
0.0
 40
0.498790823340236
 40
1.0
 40
1.0
 40
1.0
 40
1.0
 10
4.140695679867709
 20
4.657525265957346
 30
0.0
 10
4.140473381412108
 20
4.648399714797865
 30
0.0
 10
4.140027706701993
 20
4.630104367865917
 30
0.0
 10
4.137452564848335
 20
4.611941275402614
 30
0.0
 10
4.13616188012008
 20
4.602837766783487
 30
0.0
  0
LINE
  5
272
330
1F
100
AcDbEntity
  8
0
  6
Continuous
 62
     7
370
    15
100
AcDbLine
 10
4.13616188
 20
4.602837766
 30
0.0
 11
3.9785896609
 21
4.602837766
 31
0.0
  0
SPLINE
  5
273
330
1F
100
AcDbEntity
  8
0
  6
Continuous
 62
     7
370
    15
100
AcDbSpline
210
0.0
220
0.0
230
1.0
 70
     8
 71
     3
 72
     9
 73
     5
 74
     0
 42
0.000000001
 43
0.00000001
 40
0.0
 40
0.0
 40
0.0
 40
0.0
 40
0.4954579634559961
 40
0.9999999999999999
 40
0.9999999999999999
 40
0.9999999999999999
 40
0.9999999999999999
 10
3.978589660863664
 20
4.602837765960328
 30
0.0
 10
3.97585925006645
 20
4.611719256378967
 30
0.0
 10
3.970348367209368
 20
4.629645076678004
 30
0.0
 10
3.969332983587938
 20
4.648175758175866
 30
0.0
 10
3.968820679867708
 20
4.657525265957346
 30
0.0
  0
SPLINE
  5
274
330
1F
100
AcDbEntity
  8
0
  6
Continuous
 62
     7
370
    15
100
AcDbSpline
210
0.0
220
0.0
230
1.0
 70
     8
 71
     3
 72
     9
 73
     5
 74
     0
 42
0.000000001
 43
0.00000001
 40
0.0
 40
0.0
 40
0.0
 40
0.0
 40
0.4945107285003963
 40
1.0
 40
1.0
 40
1.0
 40
1.0
 10
3.968820679867709
 20
4.657525265957346
 30
0.0
 10
3.969312943291576
 20
4.666688795075766
 30
0.0
 10
3.970308398790307
 20
4.685219291160671
 30
0.0
 10
3.975809110242322
 20
4.703149325802706
 30
0.0
 10
3.97858966086693
 20
4.71221276595187
 30
0.0
  0
LINE
  5
275
330
1F
100
AcDbEntity
  8
0
  6
Continuous
 62
     7
370
    15
100
AcDbLine
 10
4.13616188
 20
4.7122127658
 30
0.0
 11
3.9785896609
 21
4.712212766
 31
0.0
  0
LINE
  5
276
330
1F
100
AcDbEntity
  8
0
  6
Continuous
 62
     7
370
    15
100
AcDbLine
 10
3.9688206799
 20
4.766900266
 30
0.0
 11
3.9688206799
 21
4.657525266
 31
0.0
  0
SPLINE
  5
277
330
1F
100
AcDbEntity
  8
0
  6
Continuous
 62
     7
370
    15
100
AcDbSpline
210
0.0
220
0.0
230
1.0
 70
     8
 71
     3
 72
     9
 73
     5
 74
     0
 42
0.000000001
 43
0.00000001
 40
0.0
 40
0.0
 40
0.0
 40
0.0
 40
0.4954579634559952
 40
1.0
 40
1.0
 40
1.0
 40
1.0
 10
3.978589660863664
 20
4.712212765965316
 30
0.0
 10
3.97585925006645
 20
4.721094256381881
 30
0.0
 10
3.970348367209368
 20
4.73902007667673
 30
0.0
 10
3.969332983587938
 20
4.757550758175439
 30
0.0
 10
3.968820679867708
 20
4.766900265957346
 30
0.0
  0
SPLINE
  5
278
330
1F
100
AcDbEntity
  8
0
  6
Continuous
 62
     7
370
    15
100
AcDbSpline
210
0.0
220
0.0
230
1.0
 70
     8
 71
     3
 72
     9
 73
     5
 74
     0
 42
0.000000001
 43
0.00000001
 40
0.0
 40
0.0
 40
0.0
 40
0.0
 40
0.4989631660173266
 40
1.0
 40
1.0
 40
1.0
 40
1.0
 10
4.136161880125449
 20
4.821587765134548
 30
0.0
 10
4.137447381422333
 20
4.812525158363726
 30
0.0
 10
4.140023726500353
 20
4.794362281045228
 30
0.0
 10
4.140471385979549
 20
4.776066917156643
 30
0.0
 10
4.140695679867709
 20
4.766900265957346
 30
0.0
  0
SPLINE
  5
279
330
1F
100
AcDbEntity
  8
0
  6
Continuous
 62
     7
370
    15
100
AcDbSpline
210
0.0
220
0.0
230
1.0
 70
     8
 71
     3
 72
     9
 73
     5
 74
     0
 42
0.000000001
 43
0.00000001
 40
0.0
 40
0.0
 40
0.0
 40
0.0
 40
0.4987908233192327
 40
1.0
 40
1.0
 40
1.0
 40
1.0
 10
4.140695679867709
 20
4.766900265957346
 30
0.0
 10
4.140473381407009
 20
4.757774714699557
 30
0.0
 10
4.140027706686651
 20
4.739479367569746
 30
0.0
 10
4.137452564782654
 20
4.721316274912301
 30
0.0
 10
4.136161880029116
 20
4.712212766195486
 30
0.0
  0
SPLINE
  5
27A
330
1F
100
AcDbEntity
  8
0
  6
Continuous
 62
     7
370
    15
100
AcDbSpline
210
0.0
220
0.0
230
1.0
 70
     8
 71
     3
 72
     9
 73
     5
 74
     0
 42
0.000000001
 43
0.00000001
 40
0.0
 40
0.0
 40
0.0
 40
0.0
 40
0.4945107285003941
 40
0.9999999999999999
 40
0.9999999999999999
 40
0.9999999999999999
 40
0.9999999999999999
 10
3.968820679867708
 20
4.766900265957346
 30
0.0
 10
3.969312943291575
 20
4.776063795075766
 30
0.0
 10
3.970308398790307
 20
4.794594291160671
 30
0.0
 10
3.975809110242322
 20
4.812524325802706
 30
0.0
 10
3.97858966086693
 20
4.82158776595187
 30
0.0
  0
LINE
  5
27B
330
1F
100
AcDbEntity
  8
0
  6
Continuous
 62
     7
370
    15
100
AcDbLine
 10
4.1361618801
 20
4.8215877655
 30
0.0
 11
3.9785896609
 21
4.821587766
 31
0.0
  0
SPLINE
  5
27C
330
1F
100
AcDbEntity
  8
0
  6
Continuous
 62
     7
370
    15
100
AcDbSpline
210
0.0
220
0.0
230
1.0
 70
    24
 71
     3
 72
     9
 73
     5
 74
     0
 42
0.000000001
 43
0.00000001
 40
0.0
 40
0.0
 40
0.0
 40
0.0
 40
0.4945107285003923
 40
1.0
 40
1.0
 40
1.0
 40
1.0
 10
3.968820679867708
 20
4.602837765957347
 30
0.0
 10
3.969312943291575
 20
4.602837765957347
 30
0.0
 10
3.970308398790306
 20
4.602837765957347
 30
0.0
 10
3.975809110242322
 20
4.602837765957347
 30
0.0
 10
3.97858966086693
 20
4.602837765957347
 30
0.0
  0
LINE
  5
27D
330
1F
100
AcDbEntity
  8
0
  6
Continuous
 62
     7
370
    15
100
AcDbLine
 10
3.9688206799
 20
4.657525266
 30
0.0
 11
3.9688206799
 21
4.602837766
 31
0.0
  0
SPLINE
  5
27E
330
1F
100
AcDbEntity
  8
0
  6
Continuous
 62
     7
370
    15
100
AcDbSpline
210
0.0
220
0.0
230
1.0
 70
     8
 71
     3
 72
     9
 73
     5
 74
     0
 42
0.000000001
 43
0.00000001
 40
0.0
 40
0.0
 40
0.0
 40
0.0
 40
0.4989631659092298
 40
1.0
 40
1.0
 40
1.0
 40
1.0
 10
4.13616187961273
 20
4.602837766362491
 30
0.0
 10
4.137447381096748
 20
4.60283776619375
 30
0.0
 10
4.140023726550377
 20
4.602837765855568
 30
0.0
 10
4.140471385996215
 20
4.602837765923374
 30
0.0
 10
4.140695679867709
 20
4.602837765957347
 30
0.0
  0
SPLINE
  5
27F
330
1F
100
AcDbEntity
  8
0
  6
Continuous
 62
     7
370
    15
100
AcDbSpline
210
0.0
220
0.0
230
1.0
 70
    24
 71
     3
 72
     9
 73
     5
 74
     0
 42
0.000000001
 43
0.00000001
 40
0.0
 40
0.0
 40
0.0
 40
0.0
 40
0.4954579634559976
 40
1.0
 40
1.0
 40
1.0
 40
1.0
 10
3.978589660863664
 20
4.821587765962335
 30
0.0
 10
3.97585925006645
 20
4.82158776596026
 30
0.0
 10
3.970348367209368
 20
4.821587765956072
 30
0.0
 10
3.969332983587938
 20
4.821587765956919
 30
0.0
 10
3.968820679867708
 20
4.821587765957347
 30
0.0
  0
LINE
  5
280
330
1F
100
AcDbEntity
  8
0
  6
Continuous
 62
     7
370
    15
100
AcDbLine
 10
3.9688206799
 20
4.821587766
 30
0.0
 11
3.9688206799
 21
4.766900266
 31
0.0
  0
SPLINE
  5
281
330
1F
100
AcDbEntity
  8
0
  6
Continuous
 62
     7
370
    15
100
AcDbSpline
210
0.0
220
0.0
230
1.0
 70
    24
 71
     3
 72
     9
 73
     5
 74
     0
 42
0.000000001
 43
0.00000001
 40
0.0
 40
0.0
 40
0.0
 40
0.0
 40
0.4987908232982258
 40
1.0
 40
1.0
 40
1.0
 40
1.0
 10
4.140695679867708
 20
4.821587765957347
 30
0.0
 10
4.140473381401909
 20
4.821587765957347
 30
0.0
 10
4.140027706671311
 20
4.821587765957347
 30
0.0
 10
4.137452564716974
 20
4.821587765957347
 30
0.0
 10
4.136161879938151
 20
4.821587765957347
 30
0.0
  0
LINE
  5
282
330
1F
100
AcDbEntity
  8
0
  6
Continuous
 62
     7
370
    15
100
AcDbLine
 10
4.1406956799
 20
4.524712766
 30
0.0
 11
4.1406956799
 21
4.899712766
 31
0.0
  0
LINE
  5
283
330
1F
100
AcDbEntity
  8
0
  6
Continuous
 62
     7
370
    15
100
AcDbLine
 10
4.5156956799
 20
4.899712766
 30
0.0
 11
4.1406956799
 21
4.899712766
 31
0.0
  0
LINE
  5
284
330
1F
100
AcDbEntity
  8
0
  6
Continuous
 62
     7
370
    15
100
AcDbLine
 10
4.5156956799
 20
4.899712766
 30
0.0
 11
4.5156956799
 21
4.524712766
 31
0.0
  0
LINE
  5
285
330
1F
100
AcDbEntity
  8
0
  6
Continuous
 62
     7
370
    15
100
AcDbLine
 10
4.1406956799
 20
4.524712766
 30
0.0
 11
4.5156956799
 21
4.524712766
 31
0.0
  0
LINE
  5
286
330
1F
100
AcDbEntity
  8
0
  6
Continuous
 62
     7
370
    15
100
AcDbLine
 10
5.840656365
 20
8.5135081566
 30
0.0
 11
5.8065474229
 21
8.5331988298
 31
0.0
  0
LINE
  5
287
330
1F
100
AcDbEntity
  8
0
  6
Continuous
 62
     7
370
    15
100
AcDbLine
 10
5.7689254805
 20
8.4680286529
 30
0.0
 11
5.8070405465
 21
8.4460252937
 31
0.0
  0
LINE
  5
288
330
1F
100
AcDbEntity
  8
0
  6
Continuous
 62
     7
370
    15
100
AcDbLine
 10
5.8026416803
 20
8.5346665186
 30
0.0
 11
5.7900362207
 21
8.5372347866
 31
0.0
  0
LINE
  5
289
330
1F
100
AcDbEntity
  8
0
  6
Continuous
 62
     7
370
    15
100
AcDbLine
 10
5.757173486
 20
8.4803086922
 30
0.0
 11
5.765701305
 21
8.4706769782
 31
0.0
  0
LINE
  5
28A
330
1F
100
AcDbEntity
  8
0
  6
Continuous
 62
     7
370
    15
100
AcDbLine
 10
5.840656365
 20
8.6274425125
 30
0.0
 11
5.731969754
 21
8.6828461022
 31
0.0
  0
LINE
  5
28B
330
1F
100
AcDbEntity
  8
0
  6
Continuous
 62
     7
370
    15
100
AcDbLine
 10
5.602039268
 20
8.4577755121
 30
0.0
 11
5.7267430778
 21
8.3768409064
 31
0.0
  0
LINE
  5
28C
330
1F
100
AcDbEntity
  8
0
  6
Continuous
 62
     7
370
    15
100
AcDbLine
 10
5.7136248447
 20
8.4618546272
 30
0.0
 11
5.7414691268
 21
8.4457804653
 31
0.0
  0
LINE
  5
28D
330
1F
100
AcDbEntity
  8
0
  6
Continuous
 62
     7
370
    15
100
AcDbLine
 10
5.8120834664
 20
8.5681013431
 30
0.0
 11
5.7842391844
 21
8.5841755049
 31
0.0
  0
LWPOLYLINE
  5
28E
330
1F
100
AcDbEntity
  8
0
  6
Continuous
 62
     7
370
    15
100
AcDbPolyline
 90
       41
 70
   128
 43
0.0
 10
6.0784791511
 20
9.8577410354
 10
6.0896184471
 20
9.8522488024
 10
6.1021088951
 20
9.847830152
 10
6.1156429388
 20
9.844593886
 10
6.1298873251
 20
9.8426196922
 10
6.14449131
 20
9.8419561816
 10
6.1590952949
 20
9.8426196922
 10
6.1733396812
 20
9.844593886
 10
6.1868737249
 20
9.847830152
 10
6.1993641729
 20
9.8522488024
 10
6.2105034689
 20
9.8577410354
 10
6.2200173264
 20
9.8641716141
 10
6.2276714828
 20
9.8713821962
 10
6.2332774673
 20
9.8791952334
 10
6.2366972418
 20
9.8874183426
 10
6.2378466004
 20
9.8958490436
 10
6.2366972418
 20
9.9042797446
 10
6.2332774673
 20
9.9125028538
 10
6.2276714828
 20
9.9203158909
 10
6.2200173264
 20
9.9275264731
 10
6.2105034689
 20
9.9339570518
 10
6.1993641729
 20
9.9394492848
 10
6.1868737249
 20
9.9438679352
 10
6.1733396812
 20
9.9471042012
 10
6.1590952949
 20
9.949078395
 10
6.14449131
 20
9.9497419056
 10
6.1298873251
 20
9.949078395
 10
6.1156429388
 20
9.9471042012
 10
6.1021088951
 20
9.9438679352
 10
6.0896184471
 20
9.9394492848
 10
6.0784791511
 20
9.9339570518
 10
6.0689652936
 20
9.9275264731
 10
6.0613111372
 20
9.9203158909
 10
6.0557051528
 20
9.9125028538
 10
6.0522853782
 20
9.9042797446
 10
6.0511360196
 20
9.8958490436
 10
6.0522853782
 20
9.8874183426
 10
6.0557051528
 20
9.8791952334
 10
6.0613111372
 20
9.8713821962
 10
6.0689652936
 20
9.8641716141
 10
6.0784791511
 20
9.8577410354
  0
SPLINE
  5
28F
330
1F
100
AcDbEntity
  8
0
  6
Continuous
 62
     7
370
    15
100
AcDbSpline
210
0.0
220
0.0
230
1.0
 70
     8
 71
     3
 72
    11
 73
     7
 74
     0
 42
0.000000001
 43
0.00000001
 40
0.0
 40
0.0
 40
0.0
 40
0.0
 40
0.2471026459675052
 40
0.4952089963882036
 40
0.7469801441418
 40
1.0
 40
1.0
 40
1.0
 40
1.0
 10
6.221037863997627
 20
9.848400128367349
 30
0.0
 10
6.223337192878487
 20
9.854223956567198
 30
0.0
 10
6.227945190267585
 20
9.865895268732604
 30
0.0
 10
6.234946297786892
 20
9.881806241884135
 30
0.0
 10
6.242003894694809
 20
9.89623176088745
 30
0.0
 10
6.246701323432705
 20
9.904579670889131
 30
0.0
 10
6.249055847847091
 20
9.908763951057022
 30
0.0
  0
SPLINE
  5
290
330
1F
100
AcDbEntity
  8
0
  6
Continuous
 62
     7
370
    15
100
AcDbSpline
210
0.0
220
0.0
230
1.0
 70
     8
 71
     3
 72
    11
 73
     7
 74
     0
 42
0.000000001
 43
0.00000001
 40
0.0
 40
0.0
 40
0.0
 40
0.0
 40
0.2471026459675086
 40
0.4952089963882055
 40
0.7469801441417983
 40
1.0
 40
1.0
 40
1.0
 40
1.0
 10
6.116473326156392
 20
9.832225691043796
 30
0.0
 10
6.125054537767225
 20
9.834423065389489
 30
0.0
 10
6.142251816950364
 20
9.838826739579861
 30
0.0
 10
6.168380306404025
 20
9.84369571029401
 30
0.0
 10
6.194719616514664
 20
9.846990133165951
 30
0.0
 10
6.212250659246778
 20
9.84792935551135
 30
0.0
 10
6.221037863997627
 20
9.848400128367349
 30
0.0
  0
SPLINE
  5
291
330
1F
100
AcDbEntity
  8
0
  6
Continuous
 62
     7
370
    15
100
AcDbSpline
210
0.0
220
0.0
230
1.0
 70
     8
 71
     3
 72
    11
 73
     7
 74
     0
 42
0.000000001
 43
0.00000001
 40
0.0
 40
0.0
 40
0.0
 40
0.0
 40
0.2471026459675047
 40
0.4952089963882011
 40
0.7469801441417954
 40
1.0
 40
1.0
 40
1.0
 40
1.0
 10
6.039926772164618
 20
9.876415076409911
 30
0.0
 10
6.046208654894591
 20
9.873658622791076
 30
0.0
 10
6.058797936688634
 20
9.868134519134355
 30
0.0
 10
6.077925318622985
 20
9.857919833908477
 30
0.0
 10
6.09720703182571
 20
9.846008896720267
 30
0.0
 10
6.110040645819929
 20
9.83682766351482
 30
0.0
 10
6.116473326156392
 20
9.832225691043794
 30
0.0
  0
SPLINE
  5
292
330
1F
100
AcDbEntity
  8
0
  6
Continuous
 62
     7
370
    15
100
AcDbSpline
210
0.0
220
0.0
230
1.0
 70
     8
 71
     3
 72
    11
 73
     7
 74
     0
 42
0.000000001
 43
0.00000001
 40
0.0
 40
0.0
 40
0.0
 40
0.0
 40
0.2471026534718035
 40
0.4952090014825311
 40
0.7469801467148112
 40
0.9999999999999999
 40
0.9999999999999999
 40
0.9999999999999999
 40
0.9999999999999999
 10
6.067944755337471
 20
9.936778898918295
 30
0.0
 10
6.065645426642718
 20
9.932695071082625
 30
0.0
 10
6.061037429719131
 20
9.924510827504852
 30
0.0
 10
6.054036321995188
 20
9.910254488702154
 30
0.0
 10
6.046978725234245
 20
9.894269287764088
 30
0.0
 10
6.042281296551286
 20
9.8823762868183
 30
0.0
 10
6.039926772164618
 20
9.876415076409911
 30
0.0
  0
SPLINE
  5
293
330
1F
100
AcDbEntity
  8
0
  6
Continuous
 62
     7
370
    15
100
AcDbSpline
210
0.0
220
0.0
230
1.0
 70
     8
 71
     3
 72
    11
 73
     7
 74
     0
 42
0.000000001
 43
0.00000001
 40
0.0
 40
0.0
 40
0.0
 40
0.0
 40
0.2471026473044678
 40
0.4952089990961448
 40
0.746980148326447
 40
1.0
 40
1.0
 40
1.0
 40
1.0
 10
6.172509293855318
 20
9.952953336423139
 30
0.0
 10
6.163928082141991
 20
9.9524959625414
 30
0.0
 10
6.146730802752459
 20
9.951579356974207
 30
0.0
 10
6.12060231298014
 20
9.948365020613727
 30
0.0
 10
6.094263002746908
 20
9.943510915552645
 30
0.0
 10
6.076731959998364
 20
9.939026602081285
 30
0.0
 10
6.067944755337471
 20
9.936778898918295
 30
0.0
  0
SPLINE
  5
294
330
1F
100
AcDbEntity
  8
0
  6
Continuous
 62
     7
370
    15
100
AcDbSpline
210
0.0
220
0.0
230
1.0
 70
     8
 71
     3
 72
    11
 73
     7
 74
     0
 42
0.000000001
 43
0.00000001
 40
0.0
 40
0.0
 40
0.0
 40
0.0
 40
0.2471026459675095
 40
0.4952089963882038
 40
0.746980144141801
 40
1.0
 40
1.0
 40
1.0
 40
1.0
 10
6.249055847847091
 20
9.908763951057022
 30
0.0
 10
6.242773965117117
 20
9.913260405146504
 30
0.0
 10
6.230184683323076
 20
9.92227157743986
 30
0.0
 10
6.211057301388722
 20
9.934140897088737
 30
0.0
 10
6.191775588186001
 20
9.944492152163265
 30
0.0
 10
6.178941974191781
 20
9.950128294270376
 30
0.0
 10
6.172509293855318
 20
9.952953336423139
 30
0.0
  0
LINE
  5
295
330
1F
100
AcDbEntity
  8
0
  6
Continuous
 62
     7
370
    15
100
AcDbLine
 10
6.2210378645
 20
9.7814881824
 30
0.0
 11
6.221037864
 21
9.8484001284
 31
0.0
  0
LINE
  5
296
330
1F
100
AcDbEntity
  8
0
  6
Continuous
 62
     7
370
    15
100
AcDbLine
 10
6.2210378645
 20
9.7814881824
 30
0.0
 11
6.1164733265
 21
9.7653137448
 31
0.0
  0
LINE
  5
297
330
1F
100
AcDbEntity
  8
0
  6
Continuous
 62
     7
370
    15
100
AcDbLine
 10
6.1164733265
 20
9.7653137448
 30
0.0
 11
6.1164733262
 21
9.832225691
 31
0.0
  0
LWPOLYLINE
  5
298
330
1F
100
AcDbEntity
  8
0
  6
Continuous
 62
     7
370
    15
100
AcDbPolyline
 90
       26
 70
   128
 43
0.0
 10
6.1721126686
 20
9.8799035728
 10
6.1643757403
 20
9.8764390517
 10
6.1553894001
 20
9.8741941318
 10
6.1457182928
 20
9.8733098697
 10
6.1359700896
 20
9.8738418267
 10
6.1267573061
 20
9.8757565782
 10
6.1186588153
 20
9.8789338131
 10
6.1121834751
 20
9.8831738942
 10
6.107738155
 20
9.8882104016
 10
6.1056021708
 20
9.8937268729
 10
6.1059097342
 20
9.899376688
 10
6.1086415199
 20
9.9048048483
 10
6.1136258798
 20
9.9096702824
 10
6.1205496282
 20
9.9136672773
 10
6.1289777205
 20
9.916544687
 10
6.1383805887
 20
9.9181217133
 10
6.148167416
 20
9.9182992659
 10
6.15772326
 20
9.9170661885
 10
6.166447692
 20
9.9144999598
 10
6.1737925237
 20
9.9107618255
 10
6.1792962524
 20
9.9060866662
 10
6.1826130585
 20
9.9007682395
 10
6.183534535
 20
9.8951407216
 10
6.1820027821
 20
9.8895577102
 10
6.1781140454
 20
9.8843700064
 10
6.1721126686
 20
9.8799035728
  0
LINE
  5
299
330
1F
100
AcDbEntity
  8
0
  6
Continuous
 62
     7
370
    15
100
AcDbLine
 10
6.1164733265
 20
9.7653137448
 30
0.0
 11
6.039926772
 21
9.8095031301
 31
0.0
  0
LINE
  5
29A
330
1F
100
AcDbEntity
  8
0
  6
Continuous
 62
     7
370
    15
100
AcDbLine
 10
6.039926772
 20
9.8095031301
 30
0.0
 11
6.0399267722
 21
9.8764150764
 31
0.0
  0
LINE
  5
29B
330
1F
100
AcDbEntity
  8
0
  6
Continuous
 62
     7
370
    15
100
AcDbLine
 10
6.249055848
 20
9.8418520053
 30
0.0
 11
6.2490558478
 21
9.9087639511
 31
0.0
  0
LINE
  5
29C
330
1F
100
AcDbEntity
  8
0
  6
Continuous
 62
     7
370
    15
100
AcDbLine
 10
6.249055848
 20
9.8418520053
 30
0.0
 11
6.2210378645
 21
9.7814881824
 31
0.0
  0
LWPOLYLINE
  5
29D
330
1F
100
AcDbEntity
  8
0
  6
Continuous
 62
     7
370
    15
100
AcDbPolyline
 90
       13
 70
   128
 43
0.0
 10
6.1198574775
 20
9.9061012139
 10
6.12707256
 20
9.9092972677
 10
6.1354747015
 20
9.9113063912
 10
6.14449131
 20
9.9119916657
 10
6.1535079185
 20
9.9113063912
 10
6.16191006
 20
9.9092972677
 10
6.1691251425
 20
9.9061012139
 10
6.17466147
 20
9.9019360354
 10
6.178141751
 20
9.8970855824
 10
6.17932881
 20
9.8918804051
 10
6.178141751
 20
9.8866752278
 10
6.17466147
 20
9.8818247747
 10
6.1735131263
 20
9.8807552818
  0
LWPOLYLINE
  5
29E
330
1F
100
AcDbEntity
  8
0
  6
Continuous
 62
     7
370
    15
100
AcDbPolyline
 90
        7
 70
   128
 43
0.0
 10
6.1154694937
 20
9.8807552818
 10
6.11432115
 20
9.8818247747
 10
6.110840869
 20
9.8866752278
 10
6.10965381
 20
9.8918804051
 10
6.110840869
 20
9.8970855824
 10
6.11432115
 20
9.9019360354
 10
6.1198574775
 20
9.9061012139
  0
LINE
  5
29F
330
1F
100
AcDbEntity
  8
0
  6
Continuous
 62
     7
370
    15
100
AcDbLine
 10
6.448326255
 20
8.3935420527
 30
0.0
 11
6.448326255
 21
9.6183532705
 31
0.0
  0
LINE
  5
2A0
330
1F
100
AcDbEntity
  8
0
  6
Continuous
 62
     7
370
    15
100
AcDbLine
 10
6.4317534399
 20
8.3839747701
 30
0.0
 11
6.448326255
 21
8.3935420527
 31
0.0
  0
LINE
  5
2A1
330
1F
100
AcDbEntity
  8
0
  6
Continuous
 62
     7
370
    15
100
AcDbLine
 10
6.4317534399
 20
8.3839747701
 30
0.0
 11
6.4317534399
 21
9.608785988
 31
0.0
  0
LINE
  5
2A2
330
1F
100
AcDbEntity
  8
0
  6
Continuous
 62
     7
370
    15
100
AcDbLine
 10
6.4317534399
 20
9.608785988
 30
0.0
 11
6.448326255
 21
9.6183532705
 31
0.0
  0
LINE
  5
2A3
330
1F
100
AcDbEntity
  8
0
  6
Continuous
 62
     7
370
    15
100
AcDbLine
 10
6.4317534399
 20
9.608785988
 30
0.0
 11
6.409656353
 21
9.6215423647
 31
0.0
  0
LINE
  5
2A4
330
1F
100
AcDbEntity
  8
0
  6
Continuous
 62
     7
370
    15
100
AcDbLine
 10
6.448326255
 20
9.6183532705
 30
0.0
 11
6.409656353
 21
9.6406769298
 31
0.0
  0
LINE
  5
2A5
330
1F
100
AcDbEntity
  8
0
  6
Continuous
 62
     7
370
    15
100
AcDbLine
 10
6.1500155817
 20
8.2213309666
 30
0.0
 11
6.1389670383
 21
8.2277101917
 31
0.0
  0
LINE
  5
2A6
330
1F
100
AcDbEntity
  8
0
  6
Continuous
 62
     7
370
    15
100
AcDbLine
 10
6.1389670383
 20
8.2277101917
 30
0.0
 11
6.1389670383
 21
9.4397629594
 31
0.0
  0
LINE
  5
2A7
330
1F
100
AcDbEntity
  8
0
  6
Continuous
 62
     7
370
    15
100
AcDbLine
 10
6.1389670383
 20
9.4397629594
 30
0.0
 11
6.1500155817
 21
9.4461421844
 31
0.0
  0
LINE
  5
2A8
330
1F
100
AcDbEntity
  8
0
  6
Continuous
 62
     7
370
    15
100
AcDbLine
 10
6.1500155817
 20
9.4461421844
 30
0.0
 11
6.1500155817
 21
8.2213309666
 31
0.0
  0
LINE
  5
2A9
330
1F
100
AcDbEntity
  8
0
  6
Continuous
 62
     7
370
    15
100
AcDbLine
 10
6.1389670383
 20
9.4397629594
 30
0.0
 11
5.840656365
 21
9.6119740454
 31
0.0
  0
LINE
  5
2AA
330
1F
100
AcDbEntity
  8
0
  6
Continuous
 62
     7
370
    15
100
AcDbLine
 10
5.840656365
 20
9.6119740454
 30
0.0
 11
5.840656365
 21
9.6247314589
 31
0.0
  0
LINE
  5
2AB
330
1F
100
AcDbEntity
  8
0
  6
Continuous
 62
     7
370
    15
100
AcDbLine
 10
5.840656365
 20
9.6247314589
 30
0.0
 11
6.1500155817
 21
9.4461421844
 31
0.0
  0
LINE
  5
2AC
330
1F
100
AcDbEntity
  8
0
  6
Continuous
 62
     7
370
    15
100
AcDbLine
 10
6.1665883969
 20
9.455709467
 30
0.0
 11
6.1500155817
 21
9.4461421844
 31
0.0
  0
LINE
  5
2AD
330
1F
100
AcDbEntity
  8
0
  6
Continuous
 62
     7
370
    15
100
AcDbLine
 10
6.1665883969
 20
9.455709467
 30
0.0
 11
6.1665883969
 21
8.2308982492
 31
0.0
  0
LINE
  5
2AE
330
1F
100
AcDbEntity
  8
0
  6
Continuous
 62
     7
370
    15
100
AcDbLine
 10
6.1500155817
 20
8.2213309666
 30
0.0
 11
6.1665883969
 21
8.2308982492
 31
0.0
  0
LINE
  5
2AF
330
1F
100
AcDbEntity
  8
0
  6
Continuous
 62
     7
370
    15
100
AcDbLine
 10
5.8572291801
 20
9.6342987415
 30
0.0
 11
5.840656365
 21
9.6247314589
 31
0.0
  0
LINE
  5
2B0
330
1F
100
AcDbEntity
  8
0
  6
Continuous
 62
     7
370
    15
100
AcDbLine
 10
5.8572291801
 20
9.6342987415
 30
0.0
 11
6.1665883969
 21
9.455709467
 31
0.0
  0
LINE
  5
2B1
330
1F
100
AcDbEntity
  8
0
  6
Continuous
 62
     7
370
    15
100
AcDbLine
 10
5.840656365
 20
8.3999212778
 30
0.0
 11
6.1389670383
 21
8.2277101917
 31
0.0
  0
LINE
  5
2B2
330
1F
100
AcDbEntity
  8
0
  6
Continuous
 62
     7
370
    15
100
AcDbLine
 10
5.840656365
 20
9.6119740454
 30
0.0
 11
5.840656365
 21
8.3999212778
 31
0.0
  0
LWPOLYLINE
  5
2B3
330
1F
100
AcDbEntity
  8
0
  6
Continuous
 62
     7
370
    15
100
AcDbPolyline
 90
       30
 70
   128
 43
0.0
 10
6.0782000493
 20
9.4700968519
 10
6.0856293941
 20
9.4648749455
 10
6.0927113511
 20
9.4580311356
 10
6.0991147757
 20
9.4498854313
 10
6.1045402509
 20
9.4408187166
 10
6.1087340876
 20
9.4312549411
 10
6.1115001866
 20
9.4216412962
 10
6.1127092082
 20
9.4124273053
 10
6.1123046199
 20
9.4040438044
 10
6.1103053397
 20
9.3968827966
 10
6.1068048519
 20
9.3912791228
 10
6.1019668352
 20
9.3874948044
 10
6.0960175101
 20
9.385706792
 10
6.0892350603
 20
9.3859986912
 10
6.0819366257
 20
9.3883568529
 10
6.0744634729
 20
9.3926710122
 10
6.0671650382
 20
9.3987394437
 10
6.0603825884
 20
9.4062783945
 10
6.0544332633
 20
9.4149353514
 10
6.0495952467
 20
9.4243055249
 10
6.0460947588
 20
9.433950776
 10
6.0440954787
 20
9.4434201035
 10
6.0436908903
 20
9.4522707321
 10
6.0448999119
 20
9.4600888164
 10
6.0476660109
 20
9.4665087914
 10
6.0518598476
 20
9.4712304662
 10
6.0572853228
 20
9.4740330604
 10
6.0636887475
 20
9.4747855281
 10
6.0707707044
 20
9.4734526845
 10
6.0782000493
 20
9.4700968519
  0
LWPOLYLINE
  5
2B4
330
1F
100
AcDbEntity
  8
0
  6
Continuous
 62
     7
370
    15
100
AcDbPolyline
 90
       30
 70
   128
 43
0.0
 10
5.901423354
 20
9.5721478659
 10
5.9088526988
 20
9.5669259595
 10
5.9159346558
 20
9.5600821496
 10
5.9223380804
 20
9.5519364453
 10
5.9277635556
 20
9.5428697306
 10
5.9319573923
 20
9.5333059551
 10
5.9347234913
 20
9.5236923102
 10
5.9359325129
 20
9.5144783193
 10
5.9355279246
 20
9.5060948184
 10
5.9335286444
 20
9.4989338106
 10
5.9300281566
 20
9.4933301367
 10
5.9251901399
 20
9.4895458184
 10
5.9192408148
 20
9.487757806
 10
5.912458365
 20
9.4880497051
 10
5.9051599304
 20
9.4904078668
 10
5.8976867776
 20
9.4947220261
 10
5.8903883429
 20
9.5007904577
 10
5.8836058931
 20
9.5083294084
 10
5.877656568
 20
9.5169863654
 10
5.8728185514
 20
9.5263565388
 10
5.8693180635
 20
9.5360017899
 10
5.8673187834
 20
9.5454711174
 10
5.866914195
 20
9.5543217461
 10
5.8681232166
 20
9.5621398304
 10
5.8708893156
 20
9.5685598054
 10
5.8750831523
 20
9.5732814801
 10
5.8805086275
 20
9.5760840744
 10
5.8869120522
 20
9.576836542
 10
5.8939940091
 20
9.5755036984
 10
5.901423354
 20
9.5721478659
  0
LWPOLYLINE
  5
2B5
330
1F
100
AcDbEntity
  8
0
  6
Continuous
 62
     7
370
    15
100
AcDbPolyline
 90
       30
 70
   128
 43
0.0
 10
6.0782000493
 20
8.3473532356
 10
6.0856293941
 20
8.3421313291
 10
6.0927113511
 20
8.3352875193
 10
6.0991147757
 20
8.327141815
 10
6.1045402509
 20
8.3180751003
 10
6.1087340876
 20
8.3085113248
 10
6.1115001866
 20
8.2988976799
 10
6.1127092082
 20
8.289683689
 10
6.1123046199
 20
8.281300188
 10
6.1103053397
 20
8.2741391803
 10
6.1068048519
 20
8.2685355064
 10
6.1019668352
 20
8.2647511881
 10
6.0960175101
 20
8.2629631757
 10
6.0892350603
 20
8.2632550748
 10
6.0819366257
 20
8.2656132365
 10
6.0744634729
 20
8.2699273958
 10
6.0671650382
 20
8.2759958274
 10
6.0603825884
 20
8.2835347781
 10
6.0544332633
 20
8.2921917351
 10
6.0495952467
 20
8.3015619085
 10
6.0460947588
 20
8.3112071596
 10
6.0440954787
 20
8.3206764871
 10
6.0436908903
 20
8.3295271158
 10
6.0448999119
 20
8.3373452001
 10
6.0476660109
 20
8.3437651751
 10
6.0518598476
 20
8.3484868498
 10
6.0572853228
 20
8.3512894441
 10
6.0636887475
 20
8.3520419117
 10
6.0707707044
 20
8.3507090681
 10
6.0782000493
 20
8.3473532356
  0
LWPOLYLINE
  5
2B6
330
1F
100
AcDbEntity
  8
0
  6
Continuous
 62
     7
370
    15
100
AcDbPolyline
 90
       30
 70
   128
 43
0.0
 10
5.901423354
 20
8.4494042496
 10
5.9088526988
 20
8.4441823431
 10
5.9159346558
 20
8.4373385333
 10
5.9223380804
 20
8.4291928289
 10
5.9277635556
 20
8.4201261143
 10
5.9319573923
 20
8.4105623387
 10
5.9347234913
 20
8.4009486938
 10
5.9359325129
 20
8.3917347029
 10
5.9355279246
 20
8.383351202
 10
5.9335286444
 20
8.3761901943
 10
5.9300281566
 20
8.3705865204
 10
5.9251901399
 20
8.366802202
 10
5.9192408148
 20
8.3650141897
 10
5.912458365
 20
8.3653060888
 10
5.9051599304
 20
8.3676642505
 10
5.8976867776
 20
8.3719784098
 10
5.8903883429
 20
8.3780468414
 10
5.8836058931
 20
8.3855857921
 10
5.877656568
 20
8.394242749
 10
5.8728185514
 20
8.4036129225
 10
5.8693180635
 20
8.4132581736
 10
5.8673187834
 20
8.4227275011
 10
5.866914195
 20
8.4315781298
 10
5.8681232166
 20
8.4393962141
 10
5.8708893156
 20
8.445816189
 10
5.8750831523
 20
8.4505378638
 10
5.8805086275
 20
8.4533404581
 10
5.8869120522
 20
8.4540929257
 10
5.8939940091
 20
8.4527600821
 10
5.901423354
 20
8.4494042496
  0
ARC
  5
2B7
330
1F
100
AcDbEntity
  8
0
  6
Continuous
 62
     7
370
    15
100
AcDbCircle
 10
6.089596859
 20
9.4534734742
 30
0.0
 40
0.0115283724963099
100
AcDbArc
 50
107.563787899
 51
189.6760774038
  0
LWPOLYLINE
  5
2B8
330
1F
100
AcDbEntity
  8
0
  6
Continuous
 62
     7
370
    15
100
AcDbPolyline
 90
       10
 70
   128
 43
0.0
 10
6.1118419259
 20
9.4199043889
 10
6.1102474448
 20
9.4185444395
 10
6.1059422392
 20
9.4170651488
 10
6.1008163227
 20
9.417701155
 10
6.0953251556
 20
9.4203959463
 10
6.089956652
 20
9.4249100786
 10
6.0851878271
 20
9.4308424514
 10
6.081442412
 20
9.4376659474
 10
6.0790532031
 20
9.444774269
 10
6.0782324922
 20
9.4515358106
  0
LWPOLYLINE
  5
2B9
330
1F
100
AcDbEntity
  8
0
  6
Continuous
 62
     7
370
    15
100
AcDbPolyline
 90
        9
 70
   128
 43
0.0
 10
6.0818239715
 20
9.4536091275
 10
6.0826446824
 20
9.4468475858
 10
6.0850338913
 20
9.4397392643
 10
6.0887793064
 20
9.4329157683
 10
6.0935481313
 20
9.4269833955
 10
6.0989166349
 20
9.4224692632
 10
6.104407802
 20
9.4197744719
 10
6.1095337185
 20
9.4191384656
 10
6.1114388438
 20
9.4194973939
  0
ARC
  5
2BA
330
1F
100
AcDbEntity
  8
0
  6
Continuous
 62
     7
370
    15
100
AcDbCircle
 10
6.09541302
 20
9.4548715655
 30
0.0
 40
0.0136475634562826
100
AcDbArc
 50
136.1927351824
 51
185.307608672
  0
ARC
  5
2BB
330
1F
100
AcDbEntity
  8
0
  6
Continuous
 62
     7
370
    15
100
AcDbCircle
 10
5.9128201637
 20
9.5555244881
 30
0.0
 40
0.0115283724963851
100
AcDbArc
 50
107.5637879016
 51
189.6760774036
  0
LWPOLYLINE
  5
2BC
330
1F
100
AcDbEntity
  8
0
  6
Continuous
 62
     7
370
    15
100
AcDbPolyline
 90
       10
 70
   128
 43
0.0
 10
5.9350652306
 20
9.5219554029
 10
5.9334707495
 20
9.5205954535
 10
5.9291655439
 20
9.5191161628
 10
5.9240396274
 20
9.519752169
 10
5.9185484603
 20
9.5224469603
 10
5.9131799567
 20
9.5269610926
 10
5.9084111318
 20
9.5328934654
 10
5.9046657167
 20
9.5397169614
 10
5.9022765078
 20
9.546825283
 10
5.9014557969
 20
9.5535868246
  0
LWPOLYLINE
  5
2BD
330
1F
100
AcDbEntity
  8
0
  6
Continuous
 62
     7
370
    15
100
AcDbPolyline
 90
        9
 70
   128
 43
0.0
 10
5.9050472762
 20
9.5556601414
 10
5.9058679871
 20
9.5488985998
 10
5.908257196
 20
9.5417902782
 10
5.9120026111
 20
9.5349667823
 10
5.916771436
 20
9.5290344095
 10
5.9221399396
 20
9.5245202772
 10
5.9276311067
 20
9.5218254859
 10
5.9327570232
 20
9.5211894796
 10
5.9346621485
 20
9.5215484078
  0
ARC
  5
2BE
330
1F
100
AcDbEntity
  8
0
  6
Continuous
 62
     7
370
    15
100
AcDbCircle
 10
5.9186363247
 20
9.5569225795
 30
0.0
 40
0.0136475634561046
100
AcDbArc
 50
136.1927351803
 51
185.3076086722
  0
ARC
  5
2BF
330
1F
100
AcDbEntity
  8
0
  6
Continuous
 62
     7
370
    15
100
AcDbCircle
 10
6.089596859
 20
8.3307298578
 30
0.0
 40
0.0115283724962891
100
AcDbArc
 50
107.5637878987
 51
189.6760774039
  0
LWPOLYLINE
  5
2C0
330
1F
100
AcDbEntity
  8
0
  6
Continuous
 62
     7
370
    15
100
AcDbPolyline
 90
       10
 70
   128
 43
0.0
 10
6.1118419259
 20
8.2971607726
 10
6.1102474448
 20
8.2958008231
 10
6.1059422392
 20
8.2943215324
 10
6.1008163227
 20
8.2949575387
 10
6.0953251556
 20
8.29765233
 10
6.089956652
 20
8.3021664623
 10
6.0851878271
 20
8.3080988351
 10
6.081442412
 20
8.3149223311
 10
6.0790532031
 20
8.3220306526
 10
6.0782324922
 20
8.3287921943
  0
LINE
  5
2C1
330
1F
100
AcDbEntity
  8
0
  6
Continuous
 62
     7
370
    15
100
AcDbLine
 10
6.1500155817
 20
8.2213309666
 30
0.0
 11
5.840656365
 21
8.3999202411
 31
0.0
  0
LINE
  5
2C2
330
1F
100
AcDbEntity
  8
0
  6
Continuous
 62
     7
370
    15
100
AcDbLine
 10
5.840656365
 20
8.3999212778
 30
0.0
 11
5.840656365
 21
8.3999202411
 31
0.0
  0
LWPOLYLINE
  5
2C3
330
1F
100
AcDbEntity
  8
0
  6
Continuous
 62
     7
370
    15
100
AcDbPolyline
 90
        9
 70
   128
 43
0.0
 10
6.0818239715
 20
8.3308655111
 10
6.0826446824
 20
8.3241039695
 10
6.0850338913
 20
8.3169956479
 10
6.0887793064
 20
8.3101721519
 10
6.0935481313
 20
8.3042397791
 10
6.0989166349
 20
8.2997256469
 10
6.104407802
 20
8.2970308556
 10
6.1095337185
 20
8.2963948493
 10
6.1114388438
 20
8.2967537775
  0
ARC
  5
2C4
330
1F
100
AcDbEntity
  8
0
  6
Continuous
 62
     7
370
    15
100
AcDbCircle
 10
6.09541302
 20
8.3321279492
 30
0.0
 40
0.0136475634561245
100
AcDbArc
 50
136.1927351807
 51
185.3076086722
  0
ARC
  5
2C5
330
1F
100
AcDbEntity
  8
0
  6
Continuous
 62
     7
370
    15
100
AcDbCircle
 10
5.9128201637
 20
8.4327808718
 30
0.0
 40
0.0115283724962792
100
AcDbArc
 50
107.5637878983
 51
189.6760774039
  0
LWPOLYLINE
  5
2C6
330
1F
100
AcDbEntity
  8
0
  6
Continuous
 62
     7
370
    15
100
AcDbPolyline
 90
       10
 70
   128
 43
0.0
 10
5.9350652306
 20
8.3992117865
 10
5.9334707495
 20
8.3978518371
 10
5.9291655439
 20
8.3963725464
 10
5.9240396274
 20
8.3970085527
 10
5.9185484603
 20
8.399703344
 10
5.9131799567
 20
8.4042174762
 10
5.9084111318
 20
8.4101498491
 10
5.9046657167
 20
8.416973345
 10
5.9022765078
 20
8.4240816666
 10
5.9014557969
 20
8.4308432082
  0
LWPOLYLINE
  5
2C7
330
1F
100
AcDbEntity
  8
0
  6
Continuous
 62
     7
370
    15
100
AcDbPolyline
 90
        9
 70
   128
 43
0.0
 10
5.9050472762
 20
8.4329165251
 10
5.9058679871
 20
8.4261549835
 10
5.908257196
 20
8.4190466619
 10
5.9120026111
 20
8.4122231659
 10
5.916771436
 20
8.4062907931
 10
5.9221399396
 20
8.4017766608
 10
5.9276311067
 20
8.3990818695
 10
5.9327570232
 20
8.3984458633
 10
5.9346621485
 20
8.3988047915
  0
ARC
  5
2C8
330
1F
100
AcDbEntity
  8
0
  6
Continuous
 62
     7
370
    15
100
AcDbCircle
 10
5.9186363247
 20
8.4341789631
 30
0.0
 40
0.0136475634561529
100
AcDbArc
 50
136.1927351807
 51
185.3076086721
  0
LINE
  5
2C9
330
1F
100
AcDbEntity
  8
0
  6
Continuous
 62
     7
370
    15
100
AcDbLine
 10
6.409656353
 20
9.8256775677
 30
0.0
 11
6.14449131
 21
9.6726010467
 31
0.0
  0
LINE
  5
2CA
330
1F
100
AcDbEntity
  8
0
  6
Continuous
 62
     7
370
    15
100
AcDbLine
 10
6.409656353
 20
9.6215423647
 30
0.0
 11
6.409656353
 21
9.8256775677
 31
0.0
  0
LINE
  5
2CB
330
1F
100
AcDbEntity
  8
0
  6
Continuous
 62
     7
370
    15
100
AcDbLine
 10
6.14449131
 20
9.6726010467
 30
0.0
 11
6.14449131
 21
9.4684658438
 31
0.0
  0
LINE
  5
2CC
330
1F
100
AcDbEntity
  8
0
  6
Continuous
 62
     7
370
    15
100
AcDbLine
 10
6.14449131
 20
9.6726010467
 30
0.0
 11
5.8793262671
 21
9.8256775677
 31
0.0
  0
LINE
  5
2CD
330
1F
100
AcDbEntity
  8
0
  6
Continuous
 62
     7
370
    15
100
AcDbLine
 10
5.8793262671
 20
9.8256775677
 30
0.0
 11
5.8793262671
 21
9.6215423647
 31
0.0
  0
LINE
  5
2CE
330
1F
100
AcDbEntity
  8
0
  6
Continuous
 62
     7
370
    15
100
AcDbLine
 10
6.14449131
 20
9.9787540887
 30
0.0
 11
6.0745837395
 21
9.9383973073
 31
0.0
  0
LINE
  5
2CF
330
1F
100
AcDbEntity
  8
0
  6
Continuous
 62
     7
370
    15
100
AcDbLine
 10
6.0661624886
 20
9.9335358226
 30
0.0
 11
5.8793262671
 21
9.8256775677
 31
0.0
  0
LINE
  5
2D0
330
1F
100
AcDbEntity
  8
0
  6
Continuous
 62
     7
370
    15
100
AcDbLine
 10
6.409656353
 20
9.8256775677
 30
0.0
 11
6.14449131
 21
9.9787540887
 31
0.0
  0
ARC
  5
2D1
330
1F
100
AcDbEntity
  8
0
  6
Continuous
 62
     7
370
    15
100
AcDbCircle
 10
6.1698055041
 20
9.4538439768
 30
0.0
 40
0.0277901703275758
100
AcDbArc
 50
289.5923986056
 51
10.4129779271
  0
ARC
  5
2D2
330
1F
100
AcDbEntity
  8
0
  6
Continuous
 62
     7
370
    15
100
AcDbCircle
 10
6.1193844487
 20
9.4539636675
 30
0.0
 40
0.0279631960833892
100
AcDbArc
 50
169.7259073047
 51
250.2687161626
  0
ARC
  5
2D3
330
1F
100
AcDbEntity
  8
0
  6
Continuous
 62
     7
370
    15
100
AcDbCircle
 10
6.3465821994
 20
9.5558949908
 30
0.0
 40
0.0277901703278263
100
AcDbArc
 50
289.5923986067
 51
10.4129779259
  0
ARC
  5
2D4
330
1F
100
AcDbEntity
  8
0
  6
Continuous
 62
     7
370
    15
100
AcDbCircle
 10
5.9426077534
 20
9.5560146815
 30
0.0
 40
0.0279631960832965
100
AcDbArc
 50
169.7259073043
 51
250.268716163
  0
LINE
  5
2D5
330
1F
100
AcDbEntity
  8
0
  6
Continuous
 62
     7
370
    15
100
AcDbLine
 10
6.14449131
 20
9.4684658438
 30
0.0
 11
6.1665883969
 21
9.455709467
 31
0.0
  0
LINE
  5
2D6
330
1F
100
AcDbEntity
  8
0
  6
Continuous
 62
     7
370
    15
100
AcDbLine
 10
6.14449131
 20
9.4684658438
 30
0.0
 11
6.409656353
 21
9.6215423647
 31
0.0
  0
LINE
  5
2D7
330
1F
100
AcDbEntity
  8
0
  6
Continuous
 62
     7
370
    15
100
AcDbLine
 10
6.1665883969
 20
9.455709467
 30
0.0
 11
6.4317534399
 21
9.608785988
 31
0.0
  0
LWPOLYLINE
  5
2D8
330
1F
100
AcDbEntity
  8
0
  6
Continuous
 62
     7
370
    15
100
AcDbPolyline
 90
       29
 70
   128
 43
0.0
 10
6.4220307216
 20
9.5521393815
 10
6.4211664503
 20
9.5427826988
 10
6.4186169744
 20
9.5328973328
 10
6.4145101353
 20
9.522978977
 10
6.4090518671
 20
9.5135249792
 10
6.4025158701
 20
9.5050094022
 10
6.3952298865
 20
9.4978592528
 10
6.387559266
 20
9.4924330692
 10
6.3798886455
 20
9.4890029429
 10
6.372602662
 20
9.4877408748
 10
6.366066665
 20
9.4887101502
 10
6.3606083968
 20
9.4918621657
 10
6.3565015577
 20
9.4970388661
 10
6.3539520818
 20
9.5039806698
 10
6.3530878105
 20
9.512339486
 10
6.3539520818
 20
9.5216961687
 10
6.3565015577
 20
9.5315815347
 10
6.3606083968
 20
9.5414998905
 10
6.366066665
 20
9.5509538883
 10
6.372602662
 20
9.5594694652
 10
6.3798886455
 20
9.5666196147
 10
6.387559266
 20
9.5720457983
 10
6.3952298865
 20
9.5754759246
 10
6.4025158701
 20
9.5767379927
 10
6.4090518671
 20
9.5757687172
 10
6.4145101353
 20
9.5726167017
 10
6.4186169744
 20
9.5674400014
 10
6.4211664503
 20
9.5604981976
 10
6.4220307216
 20
9.5521393815
  0
LWPOLYLINE
  5
2D9
330
1F
100
AcDbEntity
  8
0
  6
Continuous
 62
     7
370
    15
100
AcDbPolyline
 90
       29
 70
   128
 43
0.0
 10
6.2452540263
 20
9.4500883675
 10
6.244389755
 20
9.4407316848
 10
6.2418402791
 20
9.4308463188
 10
6.23773344
 20
9.420927963
 10
6.2322751718
 20
9.4114739652
 10
6.2257391748
 20
9.4029583883
 10
6.2184531912
 20
9.3958082388
 10
6.2107825707
 20
9.3903820552
 10
6.2031119503
 20
9.3869519289
 10
6.1958259667
 20
9.3856898608
 10
6.1892899697
 20
9.3866591363
 10
6.1838317015
 20
9.3898111518
 10
6.1797248624
 20
9.3949878521
 10
6.1771753865
 20
9.4019296558
 10
6.1763111152
 20
9.410288472
 10
6.1771753865
 20
9.4196451547
 10
6.1797248624
 20
9.4295305207
 10
6.1838317015
 20
9.4394488765
 10
6.1892899697
 20
9.4489028743
 10
6.1958259667
 20
9.4574184513
 10
6.2031119503
 20
9.4645686007
 10
6.2107825707
 20
9.4699947843
 10
6.2184531912
 20
9.4734249106
 10
6.2257391748
 20
9.4746869787
 10
6.2322751718
 20
9.4737177033
 10
6.23773344
 20
9.4705656878
 10
6.2418402791
 20
9.4653889874
 10
6.244389755
 20
9.4584471837
 10
6.2452540263
 20
9.4500883675
  0
LWPOLYLINE
  5
2DA
330
1F
100
AcDbEntity
  8
0
  6
Continuous
 62
     7
370
    15
100
AcDbPolyline
 90
       29
 70
   128
 43
0.0
 10
6.4220307216
 20
8.4293957651
 10
6.4211664503
 20
8.4200390825
 10
6.4186169744
 20
8.4101537165
 10
6.4145101353
 20
8.4002353607
 10
6.4090518671
 20
8.3907813628
 10
6.4025158701
 20
8.3822657859
 10
6.3952298865
 20
8.3751156364
 10
6.387559266
 20
8.3696894528
 10
6.3798886455
 20
8.3662593265
 10
6.372602662
 20
8.3649972584
 10
6.366066665
 20
8.3659665339
 10
6.3606083968
 20
8.3691185494
 10
6.3565015577
 20
8.3742952497
 10
6.3539520818
 20
8.3812370535
 10
6.3530878105
 20
8.3895958697
 10
6.3539520818
 20
8.3989525523
 10
6.3565015577
 20
8.4088379183
 10
6.3606083968
 20
8.4187562741
 10
6.366066665
 20
8.428210272
 10
6.372602662
 20
8.4367258489
 10
6.3798886455
 20
8.4438759983
 10
6.387559266
 20
8.449302182
 10
6.3952298865
 20
8.4527323083
 10
6.4025158701
 20
8.4539943764
 10
6.4090518671
 20
8.4530251009
 10
6.4145101353
 20
8.4498730854
 10
6.4186169744
 20
8.4446963851
 10
6.4211664503
 20
8.4377545813
 10
6.4220307216
 20
8.4293957651
  0
LWPOLYLINE
  5
2DB
330
1F
100
AcDbEntity
  8
0
  6
Continuous
 62
     7
370
    15
100
AcDbPolyline
 90
       29
 70
   128
 43
0.0
 10
6.2452540263
 20
8.3273447511
 10
6.244389755
 20
8.3179880685
 10
6.2418402791
 20
8.3081027025
 10
6.23773344
 20
8.2981843467
 10
6.2322751718
 20
8.2887303488
 10
6.2257391748
 20
8.2802147719
 10
6.2184531912
 20
8.2730646225
 10
6.2107825707
 20
8.2676384388
 10
6.2031119503
 20
8.2642083125
 10
6.1958259667
 20
8.2629462445
 10
6.1892899697
 20
8.2639155199
 10
6.1838317015
 20
8.2670675354
 10
6.1797248624
 20
8.2722442357
 10
6.1771753865
 20
8.2791860395
 10
6.1763111152
 20
8.2875448557
 10
6.1771753865
 20
8.2969015383
 10
6.1797248624
 20
8.3067869043
 10
6.1838317015
 20
8.3167052601
 10
6.1892899697
 20
8.326159258
 10
6.1958259667
 20
8.3346748349
 10
6.2031119503
 20
8.3418249844
 10
6.2107825707
 20
8.347251168
 10
6.2184531912
 20
8.3506812943
 10
6.2257391748
 20
8.3519433624
 10
6.2322751718
 20
8.3509740869
 10
6.23773344
 20
8.3478220714
 10
6.2418402791
 20
8.3426453711
 10
6.244389755
 20
8.3357035673
 10
6.2452540263
 20
8.3273447511
  0
LINE
  5
2DC
330
1F
100
AcDbEntity
  8
0
  6
Continuous
 62
     7
370
    15
100
AcDbLine
 10
6.4317534399
 20
8.3839747701
 30
0.0
 11
6.1665883969
 21
8.2308982492
 31
0.0
  0
LWPOLYLINE
  5
2DD
330
1F
100
AcDbEntity
  8
0
  6
Continuous
 62
     7
370
    15
100
AcDbPolyline
 90
       13
 70
   128
 43
0.0
 10
6.2029290685
 20
9.4644142184
 10
6.2059204302
 20
9.4631398217
 10
6.2090223885
 20
9.4596766755
 10
6.210645477
 20
9.4545373895
 10
6.210645477
 20
9.4481786119
 10
6.2090223885
 20
9.4411653479
 10
6.2059204302
 20
9.4341207569
 10
6.2016152246
 20
9.4276707816
 10
6.1964893081
 20
9.4223885307
 10
6.190998141
 20
9.4187433553
 10
6.1856296374
 20
9.4170591453
 10
6.1808608125
 20
9.4174855501
 10
6.1772163763
 20
9.419873703
  0
LWPOLYLINE
  5
2DE
330
1F
100
AcDbEntity
  8
0
  6
Continuous
 62
     7
370
    15
100
AcDbPolyline
 90
       11
 70
   128
 43
0.0
 10
6.177601772
 20
9.419480441
 10
6.1819364789
 20
9.4191911603
 10
6.1873049825
 20
9.4208753703
 10
6.1927961497
 20
9.4245205457
 10
6.1979220662
 20
9.4298027966
 10
6.2022272718
 20
9.4362527719
 10
6.2053292301
 20
9.4432973629
 10
6.2069523185
 20
9.4503106269
 10
6.2069523185
 20
9.4566694045
 10
6.2053292301
 20
9.4618086905
 10
6.2034623541
 20
9.464277137
  0
LWPOLYLINE
  5
2DF
330
1F
100
AcDbEntity
  8
0
  6
Continuous
 62
     7
370
    15
100
AcDbPolyline
 90
       13
 70
   128
 43
0.0
 10
6.3797057638
 20
9.5664652324
 10
6.3826971255
 20
9.5651908356
 10
6.3857990838
 20
9.5617276894
 10
6.3874221723
 20
9.5565884035
 10
6.3874221723
 20
9.5502296259
 10
6.3857990838
 20
9.5432163619
 10
6.3826971255
 20
9.5361717709
 10
6.3783919199
 20
9.5297217956
 10
6.3732660034
 20
9.5244395447
 10
6.3677748363
 20
9.5207943693
 10
6.3624063327
 20
9.5191101593
 10
6.3576375078
 20
9.5195365641
 10
6.3539930716
 20
9.521924717
  0
LWPOLYLINE
  5
2E0
330
1F
100
AcDbEntity
  8
0
  6
Continuous
 62
     7
370
    15
100
AcDbPolyline
 90
       11
 70
   128
 43
0.0
 10
6.3543784673
 20
9.521531455
 10
6.3587131742
 20
9.5212421743
 10
6.3640816778
 20
9.5229263843
 10
6.369572845
 20
9.5265715597
 10
6.3746987615
 20
9.5318538106
 10
6.3790039671
 20
9.5383037859
 10
6.3821059254
 20
9.5453483769
 10
6.3837290138
 20
9.5523616409
 10
6.3837290138
 20
9.5587204185
 10
6.3821059254
 20
9.5638597044
 10
6.3802390494
 20
9.566328151
  0
LWPOLYLINE
  5
2E1
330
1F
100
AcDbEntity
  8
0
  6
Continuous
 62
     7
370
    15
100
AcDbPolyline
 90
       13
 70
   128
 43
0.0
 10
6.2029290685
 20
8.3416706021
 10
6.2059204302
 20
8.3403962053
 10
6.2090223885
 20
8.3369330591
 10
6.210645477
 20
8.3317937732
 10
6.210645477
 20
8.3254349956
 10
6.2090223885
 20
8.3184217316
 10
6.2059204302
 20
8.3113771405
 10
6.2016152246
 20
8.3049271653
 10
6.1964893081
 20
8.2996449143
 10
6.190998141
 20
8.295999739
 10
6.1856296374
 20
8.2943155289
 10
6.1808608125
 20
8.2947419337
 10
6.1772163763
 20
8.2971300866
  0
LWPOLYLINE
  5
2E2
330
1F
100
AcDbEntity
  8
0
  6
Continuous
 62
     7
370
    15
100
AcDbPolyline
 90
       11
 70
   128
 43
0.0
 10
6.177601772
 20
8.2967368246
 10
6.1819364789
 20
8.2964475439
 10
6.1873049825
 20
8.298131754
 10
6.1927961497
 20
8.3017769293
 10
6.1979220662
 20
8.3070591803
 10
6.2022272718
 20
8.3135091555
 10
6.2053292301
 20
8.3205537466
 10
6.2069523185
 20
8.3275670106
 10
6.2069523185
 20
8.3339257882
 10
6.2053292301
 20
8.3390650741
 10
6.2034623541
 20
8.3415335207
  0
LWPOLYLINE
  5
2E3
330
1F
100
AcDbEntity
  8
0
  6
Continuous
 62
     7
370
    15
100
AcDbPolyline
 90
       13
 70
   128
 43
0.0
 10
6.3797057638
 20
8.4437216161
 10
6.3826971255
 20
8.4424472193
 10
6.3857990838
 20
8.4389840731
 10
6.3874221723
 20
8.4338447871
 10
6.3874221723
 20
8.4274860095
 10
6.3857990838
 20
8.4204727456
 10
6.3826971255
 20
8.4134281545
 10
6.3783919199
 20
8.4069781792
 10
6.3732660034
 20
8.4016959283
 10
6.3677748363
 20
8.3980507529
 10
6.3624063327
 20
8.3963665429
 10
6.3576375078
 20
8.3967929477
 10
6.3539930716
 20
8.3991811006
  0
LWPOLYLINE
  5
2E4
330
1F
100
AcDbEntity
  8
0
  6
Continuous
 62
     7
370
    15
100
AcDbPolyline
 90
       11
 70
   128
 43
0.0
 10
6.3543784673
 20
8.3987878386
 10
6.3587131742
 20
8.3984985579
 10
6.3640816778
 20
8.4001827679
 10
6.369572845
 20
8.4038279433
 10
6.3746987615
 20
8.4091101942
 10
6.3790039671
 20
8.4155601695
 10
6.3821059254
 20
8.4226047606
 10
6.3837290138
 20
8.4296180245
 10
6.3837290138
 20
8.4359768021
 10
6.3821059254
 20
8.4411160881
 10
6.3802390494
 20
8.4435845347
  0
LINE
  5
2E5
330
1F
100
AcDbEntity
  8
0
  6
Continuous
 62
     7
370
    15
100
AcDbLine
 10
5.8793262671
 20
9.6215423647
 30
0.0
 11
5.8572291801
 21
9.6342987415
 31
0.0
  0
LINE
  5
2E6
330
1F
100
AcDbEntity
  8
0
  6
Continuous
 62
     7
370
    15
100
AcDbLine
 10
5.8793262671
 20
9.6470551182
 30
0.0
 11
5.8572291801
 21
9.6342987415
 31
0.0
  0
LINE
  5
2E7
330
1F
100
AcDbEntity
  8
0
  6
Continuous
 62
     7
370
    15
100
AcDbLine
 10
5.8063174919
 20
8.4231220532
 30
0.0
 11
5.8063174919
 21
8.4290884496
 31
0.0
  0
SPLINE
  5
2E8
330
1F
100
AcDbEntity
  8
0
  6
Continuous
 62
     7
370
    15
100
AcDbSpline
210
0.0
220
0.0
230
1.0
 70
     8
 71
     3
 72
    10
 73
     6
 74
     0
 42
0.000000001
 43
0.00000001
 40
0.0
 40
0.0
 40
0.0
 40
0.0
 40
0.4989887185754734
 40
0.7494000253049431
 40
1.0
 40
1.0
 40
1.0
 40
1.0
 10
5.806317491903388
 20
8.429088449570921
 30
0.0
 10
5.80647767514746
 20
8.434644522718354
 30
0.0
 10
5.80671824436815
 20
8.442988842343794
 30
0.0
 10
5.807664454605316
 20
8.453715903104563
 30
0.0
 10
5.808282269873606
 20
8.458986697489992
 30
0.0
 10
5.808591293834423
 20
8.461623087105524
 30
0.0
  0
LINE
  5
2E9
330
1F
100
AcDbEntity
  8
0
  6
Continuous
 62
     7
370
    15
100
AcDbLine
 10
5.8242961032
 20
8.4525568933
 30
0.0
 11
5.8085912938
 21
8.4616230869
 31
0.0
  0
LINE
  5
2EA
330
1F
100
AcDbEntity
  8
0
  6
Continuous
 62
     7
370
    15
100
AcDbLine
 10
5.813850879
 20
8.3849258464
 30
0.0
 11
5.8085912937
 21
8.3879621403
 31
0.0
  0
SPLINE
  5
2EB
330
1F
100
AcDbEntity
  8
0
  6
Continuous
 62
     7
370
    15
100
AcDbSpline
210
0.0
220
0.0
230
1.0
 70
     8
 71
     3
 72
    10
 73
     6
 74
     0
 42
0.000000001
 43
0.00000001
 40
0.0
 40
0.0
 40
0.0
 40
0.0
 40
0.3268376859012323
 40
0.6631067062360239
 40
1.0
 40
1.0
 40
1.0
 40
1.0
 10
5.808591293702229
 20
8.387962141097132
 30
0.0
 10
5.808194493468596
 20
8.391863488408692
 30
0.0
 10
5.807389442804892
 20
8.399778761577137
 30
0.0
 10
5.806582904924905
 20
8.411534893518288
 30
0.0
 10
5.806406017590816
 20
8.4192572794887
 30
0.0
 10
5.806317491903388
 20
8.423122053245047
 30
0.0
  0
LINE
  5
2EC
330
1F
100
AcDbEntity
  8
0
  6
Continuous
 62
     7
370
    15
100
AcDbLine
 10
5.8317015731
 20
8.4945132804
 30
0.0
 11
5.836176128
 21
8.5000795841
 31
0.0
  0
LINE
  5
2ED
330
1F
100
AcDbEntity
  8
0
  6
Continuous
 62
     7
370
    15
100
AcDbLine
 10
5.836176128
 20
8.5000795841
 30
0.0
 11
5.840656365
 21
8.5052333778
 31
0.0
  0
SPLINE
  5
2EE
330
1F
100
AcDbEntity
  8
0
  6
Continuous
 62
     7
370
    15
100
AcDbSpline
210
0.0
220
0.0
230
1.0
 70
     8
 71
     3
 72
    10
 73
     6
 74
     0
 42
0.000000001
 43
0.00000001
 40
0.0
 40
0.0
 40
0.0
 40
0.0
 40
0.3268376859029192
 40
0.6631067062368877
 40
0.9999999999999999
 40
0.9999999999999999
 40
0.9999999999999999
 40
0.9999999999999999
 10
5.808591294282187
 20
8.461623087537118
 30
0.0
 10
5.810948554415987
 20
8.465278180350872
 30
0.0
 10
5.815731096547714
 20
8.472693838523893
 30
0.0
 10
5.823391995623042
 20
8.483692854005309
 30
0.0
 10
5.828930002018264
 20
8.49090424235849
 30
0.0
 10
5.831701573118274
 20
8.494513280363188
 30
0.0
  0
ARC
  5
2EF
330
1F
100
AcDbEntity
  8
0
  6
Continuous
 62
     7
370
    15
100
AcDbCircle
 10
5.7792264091
 20
8.4828882635
 30
0.0
 40
0.0180808505526272
100
AcDbArc
 50
177.3303867033
 51
235.269658158
  0
LWPOLYLINE
  5
2F0
330
1F
100
AcDbEntity
  8
0
  6
Continuous
 62
     7
370
    15
100
AcDbPolyline
 90
       11
 70
   128
 43
0.0
 10
5.8065474229
 20
8.5331988298
 10
5.8036433434
 20
8.5344228781
 10
5.7978400805
 20
8.5348671535
 10
5.7914019693
 20
8.533159161
 10
5.7847335402
 20
8.5294062202
 10
5.7782537951
 20
8.523844142
 10
5.7723698802
 20
8.5168224122
 10
5.7674515034
 20
8.5087822321
 10
5.7638077046
 20
8.5002287957
 10
5.761667437
 20
8.4916995468
 10
5.7611651814
 20
8.4837304096
  0
LWPOLYLINE
  5
2F1
330
1F
100
AcDbEntity
  8
0
  6
Continuous
 62
     7
370
    15
100
AcDbPolyline
 90
       12
 70
   128
 43
0.0
 10
5.7900362207
 20
8.5372347866
 10
5.7865952492
 20
8.5374774158
 10
5.7804209858
 20
8.5360500189
 10
5.7739764124
 20
8.532463732
 10
5.7677394936
 20
8.5269845339
 10
5.7621727932
 20
8.5200187913
 10
5.7576891678
 20
8.5120831218
 10
5.7546211475
 20
8.5037660775
 10
5.7531962732
 20
8.4956844955
 10
5.7535202213
 20
8.4884377499
 10
5.7555689662
 20
8.4825632986
 10
5.757173486
 20
8.4803086922
  0
LWPOLYLINE
  5
2F2
330
1F
100
AcDbEntity
  8
0
  6
Continuous
 62
     7
370
    15
100
AcDbPolyline
 90
       44
 70
   128
 43
0.0
 10
6.376793662
 20
8.0715902897
 10
6.3776148286
 20
8.0591083944
 10
6.3800608268
 20
8.0478406278
 10
6.3840795243
 20
8.0380271429
 10
6.3895852697
 20
8.029877097
 10
6.3964607174
 20
8.0235641942
 10
6.4045593292
 20
8.0192229831
 10
6.4137084974
 20
8.016945989
 10
6.4237132232
 20
8.0167817421
 10
6.4343602733
 20
8.0187337432
 10
6.4454227244
 20
8.0227603885
 10
6.4566647994
 20
8.0287758573
 10
6.4678468931
 20
8.0366519402
 10
6.4787306785
 20
8.0462207722
 10
6.4890841867
 20
8.0572784102
 10
6.4986867506
 20
8.06958918
 10
6.5073337082
 20
8.0828906987
 10
6.5148407647
 20
8.0968994677
 10
6.5210479202
 20
8.1113169143
 10
6.5258228798
 20
8.1258357557
 10
6.5290638738
 20
8.140146548
 10
6.5307018258
 20
8.1539442815
 10
6.5307018258
 20
8.1669348815
 10
6.5290638738
 20
8.1788414759
 10
6.5258228798
 20
8.1894102962
 10
6.5210479202
 20
8.1984160866
 10
6.5148407647
 20
8.205666904
 10
6.5073337082
 20
8.2110082101
 10
6.4986867506
 20
8.214326164
 10
6.4890841867
 20
8.2155500495
 10
6.4787306785
 20
8.2146537814
 10
6.4678468931
 20
8.2116564622
 10
6.4566647994
 20
8.2066219745
 10
6.4454227244
 20
8.1996576198
 10
6.4343602733
 20
8.190911831
 10
6.4237132232
 20
8.1805710097
 10
6.4137084974
 20
8.1688555523
 10
6.4045593292
 20
8.1560151535
 10
6.3964607174
 20
8.1423234841
 10
6.3895852697
 20
8.1280723584
 10
6.3840795243
 20
8.1135655142
 10
6.3800608268
 20
8.0991121399
 10
6.3776148286
 20
8.0850202839
 10
6.376793662
 20
8.0715902897
  0
SPLINE
  5
2F3
330
1F
100
AcDbEntity
  8
0
  6
Continuous
 62
     7
370
    15
100
AcDbSpline
210
0.0
220
0.0
230
1.0
 70
     8
 71
     3
 72
    11
 73
     7
 74
     0
 42
0.000000001
 43
0.00000001
 40
0.0
 40
0.0
 40
0.0
 40
0.0
 40
0.2646136134961547
 40
0.5349657659035766
 40
0.765352424675166
 40
1.0
 40
1.0
 40
1.0
 40
1.0
 10
6.446779458446613
 20
8.017030986528786
 30
0.0
 10
6.455487454938523
 20
8.024229795957867
 30
0.0
 10
6.473092293749461
 20
8.038783531681966
 30
0.0
 10
6.49467468399861
 20
8.062944712978299
 30
0.0
 10
6.511729059047548
 20
8.088105196765929
 30
0.0
 10
6.519964043633641
 20
8.104811352935602
 30
0.0
 10
6.524119262807383
 20
8.113240966823769
 30
0.0
  0
SPLINE
  5
2F4
330
1F
100
AcDbEntity
  8
0
  6
Continuous
 62
     7
370
    15
100
AcDbSpline
210
0.0
220
0.0
230
1.0
 70
     8
 71
     3
 72
    11
 73
     7
 74
     0
 42
0.000000001
 43
0.00000001
 40
0.0
 40
0.0
 40
0.0
 40
0.0
 40
0.2646136134961519
 40
0.5349657659035728
 40
0.765352424675166
 40
1.0
 40
1.0
 40
1.0
 40
1.0
 10
6.369439654515334
 20
8.023946330823433
 30
0.0
 10
6.378147650897048
 20
8.02219429009898
 30
0.0
 10
6.395752489485208
 20
8.01865221304683
 30
0.0
 10
6.41733487982252
 20
8.016002616754339
 30
0.0
 10
6.434389254851412
 20
8.015534461502678
 30
0.0
 10
6.442624239440069
 20
8.016529106899515
 30
0.0
 10
6.446779458615104
 20
8.017030986360345
 30
0.0
  0
SPLINE
  5
2F5
330
1F
100
AcDbEntity
  8
0
  6
Continuous
 62
     7
370
    15
100
AcDbSpline
210
0.0
220
0.0
230
1.0
 70
     8
 71
     3
 72
    11
 73
     7
 74
     0
 42
0.000000001
 43
0.00000001
 40
0.0
 40
0.0
 40
0.0
 40
0.0
 40
0.2646136127554459
 40
0.534965764228848
 40
0.7653524238103026
 40
1.0
 40
1.0
 40
1.0
 40
1.0
 10
6.369439654703902
 20
8.127071655737616
 30
0.0
 10
6.371434877143057
 20
8.116968988257577
 30
0.0
 10
6.375468591379652
 20
8.096544561966992
 30
0.0
 10
6.376943987745035
 20
8.068882056179628
 30
0.0
 10
6.37477792472013
 20
8.044503858684505
 30
0.0
 10
6.371229914520547
 20
8.0308405705423
 30
0.0
 10
6.369439654944824
 20
8.023946330938555
 30
0.0
  0
SPLINE
  5
2F6
330
1F
100
AcDbEntity
  8
0
  6
Continuous
 62
     7
370
    15
100
AcDbSpline
210
0.0
220
0.0
230
1.0
 70
     8
 71
     3
 72
    11
 73
     7
 74
     0
 42
0.000000001
 43
0.00000001
 40
0.0
 40
0.0
 40
0.0
 40
0.0
 40
0.2646136140617513
 40
0.5349657669360341
 40
0.7653524252585224
 40
0.9999999999999999
 40
0.9999999999999999
 40
0.9999999999999999
 40
0.9999999999999999
 10
6.446779458615105
 20
8.223281635840927
 30
0.0
 10
6.442061907116357
 20
8.213779191557585
 30
0.0
 10
6.432524497015457
 20
8.194568228388398
 30
0.0
 10
6.413892899421757
 20
8.168703591116172
 30
0.0
 10
6.392506398477479
 20
8.146043990734785
 30
0.0
 10
6.377175393689903
 20
8.13343428008687
 30
0.0
 10
6.369439655466822
 20
8.127071655980188
 30
0.0
  0
SPLINE
  5
2F7
330
1F
100
AcDbEntity
  8
0
  6
Continuous
 62
     7
370
    15
100
AcDbSpline
210
0.0
220
0.0
230
1.0
 70
     8
 71
     3
 72
    11
 73
     7
 74
     0
 42
0.000000001
 43
0.00000001
 40
0.0
 40
0.0
 40
0.0
 40
0.0
 40
0.2646136110892989
 40
0.5349657610376649
 40
0.7653524221553876
 40
1.0
 40
1.0
 40
1.0
 40
1.0
 10
6.524119262961563
 20
8.216366292440801
 30
0.0
 10
6.519401711602443
 20
8.215814698287948
 30
0.0
 10
6.509864301781846
 20
8.214699547844441
 30
0.0
 10
6.491232703922106
 20
8.21564568784192
 30
0.0
 10
6.469846202535446
 20
8.218614726291124
 30
0.0
 10
6.454515197231276
 20
8.221716526350745
 30
0.0
 10
6.446779458743346
 20
8.223281636637187
 30
0.0
  0
SPLINE
  5
2F8
330
1F
100
AcDbEntity
  8
0
  6
Continuous
 62
     7
370
    15
100
AcDbSpline
210
0.0
220
0.0
230
1.0
 70
     8
 71
     3
 72
    11
 73
     7
 74
     0
 42
0.000000001
 43
0.00000001
 40
0.0
 40
0.0
 40
0.0
 40
0.0
 40
0.2646136134961561
 40
0.5349657659035774
 40
0.7653524246751688
 40
1.0
 40
1.0
 40
1.0
 40
1.0
 10
6.524119262669728
 20
8.11324096733747
 30
0.0
 10
6.526114485291259
 20
8.121040000052334
 30
0.0
 10
6.530148199897899
 20
8.136807199080717
 30
0.0
 10
6.531623596102002
 20
8.162766248519556
 30
0.0
 10
6.529457533092807
 20
8.189645329129231
 30
0.0
 10
6.525909522901019
 20
8.20740506258666
 30
0.0
 10
6.524119263329381
 20
8.216366291865404
 30
0.0
  0
LINE
  5
2F9
330
1F
100
AcDbEntity
  8
0
  6
Continuous
 62
     7
370
    15
100
AcDbLine
 10
6.4467794588
 20
8.2232816366
 30
0.0
 11
6.3137549958
 21
8.3000750246
 31
0.0
  0
LINE
  5
2FA
330
1F
100
AcDbEntity
  8
0
  6
Continuous
 62
     7
370
    15
100
AcDbLine
 10
6.2364151916
 20
8.2038650434
 30
0.0
 11
6.3694396551
 21
8.1270716557
 31
0.0
  0
LINE
  5
2FB
330
1F
100
AcDbEntity
  8
0
  6
Continuous
 62
     7
370
    15
100
AcDbLine
 10
6.2364151916
 20
8.2038650434
 30
0.0
 11
6.2368890462
 21
8.2044545141
 31
0.0
  0
LINE
  5
2FC
330
1F
100
AcDbEntity
  8
0
  6
Continuous
 62
     7
370
    15
100
AcDbLine
 10
6.2368890462
 20
8.2044545141
 30
0.0
 11
6.2456796553
 21
8.2218291392
 31
0.0
  0
LINE
  5
2FD
330
1F
100
AcDbEntity
  8
0
  6
Continuous
 62
     7
370
    15
100
AcDbLine
 10
6.2456796553
 20
8.2218291392
 30
0.0
 11
6.2159123354
 21
8.2390134472
 31
0.0
  0
SPLINE
  5
2FE
330
1F
100
AcDbEntity
  8
0
  6
Continuous
 62
     7
370
    15
100
AcDbSpline
210
0.0
220
0.0
230
1.0
 70
     8
 71
     3
 72
     9
 73
     5
 74
     0
 42
0.000000001
 43
0.00000001
 40
0.0
 40
0.0
 40
0.0
 40
0.0
 40
0.7449670073250698
 40
1.0
 40
1.0
 40
1.0
 40
1.0
 10
6.215912335389732
 20
8.239013447226348
 30
0.0
 10
6.220821691293343
 20
8.247744461718414
 30
0.0
 10
6.227411722603907
 20
8.259464463283875
 30
0.0
 10
6.236517352075129
 20
8.269937104855492
 30
0.0
 10
6.238839588009363
 20
8.272607973976713
 30
0.0
  0
LINE
  5
2FF
330
1F
100
AcDbEntity
  8
0
  6
Continuous
 62
     7
370
    15
100
AcDbLine
 10
6.2798957521
 20
8.296309193
 30
0.0
 11
6.2974194641
 21
8.2861929694
 31
0.0
  0
LINE
  5
300
330
1F
100
AcDbEntity
  8
0
  6
Continuous
 62
     7
370
    15
100
AcDbLine
 10
6.2974194641
 20
8.2861929694
 30
0.0
 11
6.3132811411
 21
8.299485554
 31
0.0
  0
LINE
  5
301
330
1F
100
AcDbEntity
  8
0
  6
Continuous
 62
     7
370
    15
100
AcDbLine
 10
6.3132811411
 20
8.299485554
 30
0.0
 11
6.3137549958
 21
8.3000750246
 31
0.0
  0
LWPOLYLINE
  5
302
330
1F
100
AcDbEntity
  8
0
  6
Continuous
 62
     7
370
    15
100
AcDbPolyline
 90
       39
 70
   128
 43
0.0
 10
6.4538505268
 20
8.1849188681
 10
6.4636633173
 20
8.1896447209
 10
6.4732084404
 20
8.1923637636
 10
6.4822255301
 20
8.1930018279
 10
6.4904686237
 20
8.1915415089
 10
6.4977128711
 20
8.1880226403
 10
6.5037606681
 20
8.1825412078
 10
6.5084470465
 20
8.1752467306
 10
6.5116441741
 20
8.1663381829
 10
6.5132648418
 20
8.1560585667
 10
6.5132648418
 20
8.1446882831
 10
6.5116441741
 20
8.1325374839
 10
6.5084470465
 20
8.1199376112
 10
6.5037606681
 20
8.1072323566
 10
6.4977128711
 20
8.0947682864
 10
6.4904686237
 20
8.0828853878
 10
6.4822255301
 20
8.0719077956
 10
6.4732084404
 20
8.0621349496
 10
6.4636633173
 20
8.0538334277
 10
6.4538505268
 20
8.0472296737
 10
6.4440377363
 20
8.0425038209
 10
6.4344926131
 20
8.0397847782
 10
6.4254755234
 20
8.039146714
 10
6.4172324298
 20
8.040607033
 10
6.4099881825
 20
8.0441259016
 10
6.4039403855
 20
8.049607334
 10
6.3992540071
 20
8.0569018113
 10
6.3960568794
 20
8.065810359
 10
6.3944362118
 20
8.0760899752
 10
6.3944362118
 20
8.0874602588
 10
6.3960568794
 20
8.099611058
 10
6.3992540071
 20
8.1122109307
 10
6.4039403855
 20
8.1249161853
 10
6.4099881825
 20
8.1373802555
 10
6.4172324298
 20
8.149263154
 10
6.4254755234
 20
8.1602407463
 10
6.4344926131
 20
8.1700135923
 10
6.4440377363
 20
8.1783151142
 10
6.4538505268
 20
8.1849188681
  0
LINE
  5
303
330
1F
100
AcDbEntity
  8
0
  6
Continuous
 62
     7
370
    15
100
AcDbLine
 10
6.2364151916
 20
8.1007397184
 30
0.0
 11
6.3694396549
 21
8.0239463306
 31
0.0
  0
LINE
  5
304
330
1F
100
AcDbEntity
  8
0
  6
Continuous
 62
     7
370
    15
100
AcDbLine
 10
6.2364151916
 20
8.1007397184
 30
0.0
 11
6.2364151916
 21
8.1013715588
 31
0.0
  0
LINE
  5
305
330
1F
100
AcDbEntity
  8
0
  6
Continuous
 62
     7
370
    15
100
AcDbLine
 10
6.2364151916
 20
8.1013715588
 30
0.0
 11
6.2328796576
 21
8.1198483268
 31
0.0
  0
LINE
  5
306
330
1F
100
AcDbEntity
  8
0
  6
Continuous
 62
     7
370
    15
100
AcDbLine
 10
6.2328796576
 20
8.1198483268
 30
0.0
 11
6.2031123377
 21
8.1370326348
 31
0.0
  0
SPLINE
  5
307
330
1F
100
AcDbEntity
  8
0
  6
Continuous
 62
     7
370
    15
100
AcDbSpline
210
0.0
220
0.0
230
1.0
 70
     8
 71
     3
 72
    10
 73
     6
 74
     0
 42
0.000000001
 43
0.00000001
 40
0.0
 40
0.0
 40
0.0
 40
0.0
 40
0.3702926789854302
 40
0.749805983261868
 40
1.0
 40
1.0
 40
1.0
 40
1.0
 10
6.203112337685382
 20
8.137032634817636
 30
0.0
 10
6.201875942766212
 20
8.1462128988516
 30
0.0
 10
6.199372365567203
 20
8.16480202386333
 30
0.0
 10
6.199975600867134
 20
8.187783558347771
 30
0.0
 10
6.202220427704654
 20
8.200836582817423
 30
0.0
 10
6.203112337683492
 20
8.206022783634307
 30
0.0
  0
LINE
  5
308
330
1F
100
AcDbEntity
  8
0
  6
Continuous
 62
     7
370
    15
100
AcDbLine
 10
6.2031123377
 20
8.2060227836
 30
0.0
 11
6.2328796576
 21
8.1888384756
 31
0.0
  0
LINE
  5
309
330
1F
100
AcDbEntity
  8
0
  6
Continuous
 62
     7
370
    15
100
AcDbLine
 10
6.2328796576
 20
8.1888384756
 30
0.0
 11
6.2364151916
 21
8.2032332031
 31
0.0
  0
LINE
  5
30A
330
1F
100
AcDbEntity
  8
0
  6
Continuous
 62
     7
370
    15
100
AcDbLine
 10
6.2364151916
 20
8.2032332031
 30
0.0
 11
6.2364151916
 21
8.2038650434
 31
0.0
  0
LWPOLYLINE
  5
30B
330
1F
100
AcDbEntity
  8
0
  6
Continuous
 62
     7
370
    15
100
AcDbPolyline
 90
       27
 70
   128
 43
0.0
 10
6.4501942487
 20
8.1826785532
 10
6.4561620654
 20
8.1852768244
 10
6.4652431071
 20
8.1876251214
 10
6.473730712
 20
8.1878049154
 10
6.4813520814
 20
8.1858104275
 10
6.4878622583
 20
8.1817057623
 10
6.4930520003
 20
8.1756228472
 10
6.4967545046
 20
8.1677571919
 10
6.4988507699
 20
8.1583616052
 10
6.4992734204
 20
8.1477380689
 10
6.4980088718
 20
8.1362280322
 10
6.4950977678
 20
8.1242014372
 10
6.4906336735
 20
8.1120448286
 10
6.4847600686
 20
8.1001489296
 10
6.4776657358
 20
8.0888960844
 10
6.4695786926
 20
8.0786479686
 10
6.4607588632
 20
8.0697339651
 10
6.4514897243
 20
8.0624405773
 10
6.4420691936
 20
8.0570022207
 10
6.4328000547
 20
8.0535936885
 10
6.4239802254
 20
8.0523245338
 10
6.4158931821
 20
8.0532355483
 10
6.4087988493
 20
8.0562974511
 10
6.4029252445
 20
8.0614118302
 10
6.3984611502
 20
8.0684143054
 10
6.3955500461
 20
8.0770798111
 10
6.3943442154
 20
8.0859329754
  0
LINE
  5
30C
330
1F
100
AcDbEntity
  8
0
  6
Continuous
 62
     7
370
    15
100
AcDbLine
 10
6.3910947999
 20
8.2931596807
 30
0.0
 11
6.5241192632
 21
8.2163662923
 31
0.0
  0
LINE
  5
30D
330
1F
100
AcDbEntity
  8
0
  6
Continuous
 62
     7
370
    15
100
AcDbLine
 10
6.3137549958
 20
8.3000750246
 30
0.0
 11
6.3142288504
 21
8.3000326549
 31
0.0
  0
LINE
  5
30E
330
1F
100
AcDbEntity
  8
0
  6
Continuous
 62
     7
370
    15
100
AcDbLine
 10
6.3142288504
 20
8.3000326549
 30
0.0
 11
6.3230194595
 21
8.3009715322
 31
0.0
  0
LINE
  5
30F
330
1F
100
AcDbEntity
  8
0
  6
Continuous
 62
     7
370
    15
100
AcDbLine
 10
6.3230194595
 20
8.3009715322
 30
0.0
 11
6.3054957476
 21
8.3110877558
 31
0.0
  0
SPLINE
  5
310
330
1F
100
AcDbEntity
  8
0
  6
Continuous
 62
     7
370
    15
100
AcDbSpline
210
0.0
220
0.0
230
1.0
 70
     8
 71
     3
 72
     9
 73
     5
 74
     0
 42
0.000000001
 43
0.00000001
 40
0.0
 40
0.0
 40
0.0
 40
0.0
 40
0.4968047815473797
 40
1.0
 40
1.0
 40
1.0
 40
1.0
 10
6.31648691054375
 20
8.31743281915216
 30
0.0
 10
6.320756820680248
 20
8.317065796140467
 30
0.0
 10
6.329351565125338
 20
8.316327029072752
 30
0.0
 10
6.339756323632912
 20
8.314465988430946
 30
0.0
 10
6.344991948363077
 20
8.313529521678644
 30
0.0
  0
LINE
  5
311
330
1F
100
AcDbEntity
  8
0
  6
Continuous
 62
     7
370
    15
100
AcDbLine
 10
6.3449919484
 20
8.3135295217
 30
0.0
 11
6.3747592683
 21
8.2963452136
 31
0.0
  0
LINE
  5
312
330
1F
100
AcDbEntity
  8
0
  6
Continuous
 62
     7
370
    15
100
AcDbLine
 10
6.3747592683
 20
8.2963452136
 30
0.0
 11
6.3906209453
 21
8.2932020504
 31
0.0
  0
LINE
  5
313
330
1F
100
AcDbEntity
  8
0
  6
Continuous
 62
     7
370
    15
100
AcDbLine
 10
6.3906209453
 20
8.2932020504
 30
0.0
 11
6.3910947999
 21
8.2931596807
 31
0.0
  0
ARC
  5
314
330
1F
100
AcDbEntity
  8
0
  6
Continuous
 62
     7
370
    15
100
AcDbCircle
 10
6.3847165272
 20
8.1545409063
 30
0.0
 40
0.1887603383301835
100
AcDbArc
 50
153.4158235681
 51
164.1728166869
  0
ARC
  5
315
330
1F
100
AcDbEntity
  8
0
  6
Continuous
 62
     7
370
    15
100
AcDbCircle
 10
6.2473743303
 20
8.1545371023
 30
0.0
 40
0.047597587912416
100
AcDbArc
 50
201.5775090428
 51
228.6238339468
  0
LINE
  5
316
330
1F
100
AcDbEntity
  8
0
  6
Continuous
 62
     7
370
    15
100
AcDbLine
 10
6.2159123354
 20
8.118820534
 30
0.0
 11
6.2352077808
 21
8.1076815105
 31
0.0
  0
LINE
  5
317
330
1F
100
AcDbEntity
  8
0
  6
Continuous
 62
     7
370
    15
100
AcDbLine
 10
5.8908256845
 20
9.8323160401
 30
0.0
 11
5.7648633568
 21
9.9050325437
 31
0.0
  0
SPLINE
  5
318
330
1F
100
AcDbEntity
  8
0
  6
Continuous
 62
     7
370
    15
100
AcDbSpline
210
0.0
220
0.0
230
1.0
 70
     8
 71
     3
 72
    11
 73
     7
 74
     0
 42
0.000000001
 43
0.00000001
 40
0.0
 40
0.0
 40
0.0
 40
0.0
 40
0.2646136110892989
 40
0.534965761037665
 40
0.7653524221553877
 40
1.0
 40
1.0
 40
1.0
 40
1.0
 10
5.764863357050145
 20
9.90503254351948
 30
0.0
 10
5.769580908409266
 20
9.914534987982679
 30
0.0
 10
5.779118318229862
 20
9.933745951519459
 30
0.0
 10
5.797749916089603
 20
9.95961058914059
 30
0.0
 10
5.819136417476264
 20
9.982270190076225
 30
0.0
 10
5.834467422780433
 20
9.994879901079095
 30
0.0
 10
5.842203161268364
 20
10.00124252536832
 30
0.0
  0
LINE
  5
319
330
1F
100
AcDbEntity
  8
0
  6
Continuous
 62
     7
370
    15
100
AcDbLine
 10
5.8422031612
 20
10.0012425253
 30
0.0
 11
5.9752276243
 21
9.9244491372
 31
0.0
  0
LINE
  5
31A
330
1F
100
AcDbEntity
  8
0
  6
Continuous
 62
     7
370
    15
100
AcDbLine
 10
5.9752276243
 20
9.9244491372
 30
0.0
 11
5.9747537696
 21
9.9238596665
 31
0.0
  0
LINE
  5
31B
330
1F
100
AcDbEntity
  8
0
  6
Continuous
 62
     7
370
    15
100
AcDbLine
 10
5.9747537696
 20
9.9238596665
 30
0.0
 11
5.9659631605
 21
9.9064850414
 31
0.0
  0
LINE
  5
31C
330
1F
100
AcDbEntity
  8
0
  6
Continuous
 62
     7
370
    15
100
AcDbLine
 10
5.9659631605
 20
9.9064850414
 30
0.0
 11
5.9926336223
 21
9.8910885116
 31
0.0
  0
LINE
  5
31D
330
1F
100
AcDbEntity
  8
0
  6
Continuous
 62
     7
370
    15
100
AcDbLine
 10
5.8793262671
 20
9.7358291874
 30
0.0
 11
5.764863357
 21
9.801907219
 31
0.0
  0
SPLINE
  5
31E
330
1F
100
AcDbEntity
  8
0
  6
Continuous
 62
     7
370
    15
100
AcDbSpline
210
0.0
220
0.0
230
1.0
 70
     8
 71
     3
 72
    11
 73
     7
 74
     0
 42
0.000000001
 43
0.00000001
 40
0.0
 40
0.0
 40
0.0
 40
0.0
 40
0.2646136134961562
 40
0.5349657659035775
 40
0.7653524246751691
 40
1.0
 40
1.0
 40
1.0
 40
1.0
 10
5.764863357341981
 20
9.801907218753094
 30
0.0
 10
5.76286813472045
 20
9.812009886218073
 30
0.0
 10
5.758834420113811
 20
9.832434312484978
 30
0.0
 10
5.757359023909707
 20
9.860096818325568
 30
0.0
 10
5.759525086918902
 20
9.88447501577133
 30
0.0
 10
5.763073097110689
 20
9.898138303862535
 30
0.0
 10
5.764863356682328
 20
9.90503254343996
 30
0.0
  0
ARC
  5
31F
330
1F
100
AcDbEntity
  8
0
  6
Continuous
 62
     7
370
    15
100
AcDbCircle
 10
6.0333607682
 20
9.8192982408
 30
0.0
 40
0.1101997083646733
100
AcDbArc
 50
112.28969084
 51
127.7049326299
  0
LINE
  5
320
330
1F
100
AcDbEntity
  8
0
  6
Continuous
 62
     7
370
    15
100
AcDbLine
 10
6.0182336177
 20
9.9058670743
 30
0.0
 11
5.9915631559
 21
9.9212636042
 31
0.0
  0
SPLINE
  5
321
330
1F
100
AcDbEntity
  8
0
  6
Continuous
 62
     7
370
    15
100
AcDbSpline
210
0.0
220
0.0
230
1.0
 70
     8
 71
     3
 72
    11
 73
     7
 74
     0
 42
0.000000001
 43
0.00000001
 40
0.0
 40
0.0
 40
0.0
 40
0.0
 40
0.2646136140617513
 40
0.5349657669360341
 40
0.7653524252585224
 40
1.0
 40
1.0
 40
1.0
 40
1.0
 10
5.842203161396604
 20
10.00124252524878
 30
0.0
 10
5.846920712895352
 20
10.00179411948073
 30
0.0
 10
5.856458122996252
 20
10.00290927008393
 30
0.0
 10
5.875089720589952
 20
10.00196312995638
 30
0.0
 10
5.896476221534231
 20
9.99899409157957
 30
0.0
 10
5.911807226321806
 20
9.995892291638869
 30
0.0
 10
5.919542964544887
 20
9.994327181413277
 30
0.0
  0
LINE
  5
322
330
1F
100
AcDbEntity
  8
0
  6
Continuous
 62
     7
370
    15
100
AcDbLine
 10
6.0455052929
 20
9.9216106773
 30
0.0
 11
5.9195429649
 21
9.9943271813
 31
0.0
  0
LINE
  5
323
330
1F
100
AcDbEntity
  8
0
  6
Continuous
 62
     7
370
    15
100
AcDbLine
 10
5.9915631559
 20
9.9212636042
 30
0.0
 11
5.9757014789
 21
9.9244067674
 31
0.0
  0
LINE
  5
324
330
1F
100
AcDbEntity
  8
0
  6
Continuous
 62
     7
370
    15
100
AcDbLine
 10
5.9757014789
 20
9.9244067674
 30
0.0
 11
5.9752276243
 21
9.9244491372
 31
0.0
  0
ARC
  5
325
330
1F
100
AcDbEntity
  8
0
  6
Continuous
 62
     7
370
    15
100
AcDbCircle
 10
6.0345685858
 20
9.8213405188
 30
0.0
 40
0.118692829954534
100
AcDbArc
 50
119.7331910504
 51
120.261432417
  0
LWPOLYLINE
  5
326
330
1F
100
AcDbEntity
  8
0
  6
Continuous
 62
     7
370
    15
100
AcDbPolyline
 90
       26
 70
   128
 43
0.0
 10
5.7927600418
 20
8.6043979356
 10
5.7801042219
 20
8.5953929663
 10
5.7677487081
 20
8.584668323
 10
5.7559049066
 20
8.5724075071
 10
5.7447754683
 20
8.5588203047
 10
5.7345508208
 20
8.5441391967
 10
5.7254059107
 20
8.5286153807
 10
5.71749721
 20
8.5125144737
 10
5.7109600388
 20
8.4961119666
 10
5.7059062498
 20
8.4796885108
 10
5.7024223148
 20
8.4635251162
 10
5.7005678448
 20
8.4478983431
 10
5.7003745704
 20
8.4330755697
 10
5.7018457986
 20
8.4193104179
 10
5.7049563562
 20
8.4068384133
 10
5.7096530206
 20
8.3958729552
 10
5.7158554308
 20
8.3866016658
 10
5.7234574617
 20
8.3791831793
 10
5.7323290405
 20
8.3737444281
 10
5.742318372
 20
8.3703784708
 10
5.753254536
 20
8.3691428998
 10
5.7649504116
 20
8.3700588561
 10
5.7772058793
 20
8.3731106674
 10
5.7898112444
 20
8.3782461163
 10
5.8025508259
 20
8.385377334
 10
5.8084723614
 20
8.3893493452
  0
ARC
  5
327
330
1F
100
AcDbEntity
  8
0
  6
Continuous
 62
     7
370
    15
100
AcDbCircle
 10
5.8453678732
 20
8.5279803196
 30
0.0
 40
0.0927751904786969
100
AcDbArc
 50
92.9109690357
 51
124.5445132209
  0
LWPOLYLINE
  5
328
330
1F
100
AcDbEntity
  8
0
  6
Continuous
 62
     7
370
    15
100
AcDbPolyline
 90
       30
 70
   128
 43
0.0
 10
5.8075497874
 20
8.3987690688
 10
5.8021152026
 20
8.3951222594
 10
5.7900060049
 20
8.3883837131
 10
5.7780393016
 20
8.3836291334
 10
5.7664380097
 20
8.380947089
 10
5.7554182394
 20
8.3803875414
 10
5.7451852681
 20
8.3819609139
 10
5.7359297167
 20
8.3856378976
 10
5.7278239986
 20
8.3913499971
 10
5.721019108
 20
8.3989908069
 10
5.7156418072
 20
8.4084179932
 10
5.711792265
 20
8.4194559454
 10
5.7095421913
 20
8.4318990471
 10
5.7089335005
 20
8.4455155071
 10
5.7099775315
 20
8.4600516764
 10
5.7126548359
 20
8.4752367737
 10
5.7169155406
 20
8.4907879294
 10
5.7226802767
 20
8.5064154548
 10
5.7298416582
 20
8.5218282387
 10
5.738266282
 20
8.5367391702
 10
5.7477972134
 20
8.5508704867
 10
5.758256909
 20
8.5639589487
 10
5.7694505247
 20
8.5757607427
 10
5.7811695444
 20
8.5860560238
 10
5.793195665
 20
8.5946530103
 10
5.8053048627
 20
8.6013915566
 10
5.817271566
 20
8.6061461363
 10
5.8288728579
 20
8.6088281807
 10
5.8398926283
 20
8.6093877283
 10
5.840656365
 20
8.609345686
  0
LWPOLYLINE
  5
329
330
1F
100
AcDbEntity
  8
0
  6
Continuous
 62
     7
370
    15
100
AcDbPolyline
 90
       19
 70
   128
 43
0.0
 10
5.664342029
 20
8.6725298772
 10
5.6521464804
 20
8.6638325243
 10
5.6402510051
 20
8.6534461087
 10
5.6288678782
 20
8.6415559762
 10
5.6182002319
 20
8.6283743064
 10
5.6084384305
 20
8.6141363266
 10
5.5997566737
 20
8.599096114
 10
5.5923098875
 20
8.5835220613
 10
5.5862309601
 20
8.567692088
 10
5.5816283701
 20
8.5518886804
 10
5.5785842507
 20
8.5363938505
 10
5.5771529244
 20
8.5214841041
 10
5.5773599332
 20
8.5074255058
 10
5.5792015831
 20
8.4944689318
 10
5.5826450098
 20
8.4828455923
 10
5.5876287651
 20
8.4727629061
 10
5.594063914
 20
8.4644007991
 10
5.601835621
 20
8.4579084932
 10
5.602039268
 20
8.4577755121
  0
ARC
  5
32A
330
1F
100
AcDbEntity
  8
0
  6
Continuous
 62
     7
370
    15
100
AcDbCircle
 10
5.7073383742
 20
8.6174924811
 30
0.0
 40
0.069841253366857
100
AcDbArc
 50
69.34888081
 51
127.9976848232
  0
LWPOLYLINE
  5
32B
330
1F
100
AcDbEntity
  8
0
  6
Continuous
 62
     7
370
    15
100
AcDbPolyline
 90
        8
 70
   128
 43
0.0
 10
5.8070250361
 20
8.4076125954
 10
5.7951554902
 20
8.3991400159
 10
5.7830462925
 20
8.3924014696
 10
5.7710795892
 20
8.3876468898
 10
5.7594782973
 20
8.3849648454
 10
5.748458527
 20
8.3844052978
 10
5.7382255557
 20
8.3859786704
 10
5.7315311599
 20
8.3883814409
  0
LWPOLYLINE
  5
32C
330
1F
100
AcDbEntity
  8
0
  6
Continuous
 62
     7
370
    15
100
AcDbPolyline
 90
       28
 70
   128
 43
0.0
 10
5.794582716
 20
8.41195302
 10
5.7832947589
 20
8.4057336137
 10
5.7721645404
 20
8.4015000022
 10
5.7614292819
 20
8.3993424174
 10
5.7513177868
 20
8.3993068446
 10
5.742045564
 20
8.4013940418
 10
5.7338102348
 20
8.4055595242
 10
5.7267873209
 20
8.4117145116
 10
5.7211265037
 20
8.4197278213
 10
5.7169484336
 20
8.4294286635
 10
5.7143421589
 20
8.4406102814
 10
5.7133632278
 20
8.4530343584
 10
5.7140325046
 20
8.4664360969
 10
5.7163357247
 20
8.480529862
 10
5.720223799
 20
8.4950152696
 10
5.7256138601
 20
8.5095835883
 10
5.732391028
 20
8.5239243199
 10
5.7404108592
 20
8.5377318164
 10
5.7495024249
 20
8.5507117951
 10
5.7594719543
 20
8.5625876102
 10
5.770106964
 20
8.5731061494
 10
5.7811807874
 20
8.5820432283
 10
5.7924574051
 20
8.5892083685
 10
5.8036964755
 20
8.5944488575
 10
5.8146584574
 20
8.5976530034
 10
5.8251097152
 20
8.5987525154
 10
5.8348274985
 20
8.5977239593
 10
5.840656365
 20
8.5959209232
  0
LWPOLYLINE
  5
32D
330
1F
100
AcDbEntity
  8
0
  6
Continuous
 62
     7
370
    15
100
AcDbPolyline
 90
        3
 70
   128
 43
0.0
 10
5.8064443146
 20
8.4205588954
 10
5.8057878286
 20
8.420025665
 10
5.794582716
 20
8.41195302
  0
LWPOLYLINE
  5
32E
330
1F
100
AcDbEntity
  8
0
  6
Continuous
 62
     7
370
    15
100
AcDbPolyline
 90
        3
 70
   128
 43
0.0
 10
5.7319453043
 20
8.4481128281
 10
5.7206573472
 20
8.4418934218
 10
5.7145474045
 20
8.4393297172
  0
ARC
  5
32F
330
1F
100
AcDbEntity
  8
0
  6
Continuous
 62
     7
370
    15
100
AcDbCircle
 10
5.7078752132
 20
8.5794140498
 30
0.0
 40
0.0975274184972713
100
AcDbArc
 50
355.7084808339
 51
8.9822598076
  0
LINE
  5
330
330
1F
100
AcDbEntity
  8
0
  6
Continuous
 62
     7
370
    15
100
AcDbLine
 10
5.7345148468
 20
8.4497950857
 30
0.0
 11
5.7319453043
 21
8.4481128281
 31
0.0
  0
LWPOLYLINE
  5
331
330
1F
100
AcDbEntity
  8
0
  6
Continuous
 62
     7
370
    15
100
AcDbPolyline
 90
       29
 70
   128
 43
0.0
 10
5.7878489973
 20
8.4571043392
 10
5.7792860096
 20
8.4507984282
 10
5.7700791687
 20
8.4459315045
 10
5.7611003904
 20
8.4431421828
 10
5.7526554362
 20
8.44252545
 10
5.7450318891
 20
8.4441023082
 10
5.7384893597
 20
8.4478190595
 10
5.7332506459
 20
8.4535491342
 10
5.7294941461
 20
8.4610974017
 10
5.7273477831
 20
8.4702068146
 10
5.7268846489
 20
8.4805671629
 10
5.7281205149
 20
8.4918256374
 10
5.7310132952
 20
8.5035988441
 10
5.7354644796
 20
8.5154858607
 10
5.7413224885
 20
8.527081889
 10
5.7483878342
 20
8.5379920402
 10
5.7564199149
 20
8.5478447823
 10
5.7651452079
 20
8.5563045918
 10
5.7742665836
 20
8.5630833802
 10
5.7834734245
 20
8.5679503038
 10
5.7924522028
 20
8.5707396256
 10
5.800897157
 20
8.5713563584
 10
5.8085207041
 20
8.5697795002
 10
5.8150632335
 20
8.5660627489
 10
5.8203019472
 20
8.5603326742
 10
5.8240584471
 20
8.5527844067
 10
5.8262048101
 20
8.5436749938
 10
5.8266679443
 20
8.5333146454
 10
5.8254709396
 20
8.5222745161
  0
LINE
  5
332
330
1F
100
AcDbEntity
  8
0
  6
Continuous
 62
     7
370
    15
100
AcDbLine
 10
5.819942719
 20
8.4442894843
 30
0.0
 11
5.840656365
 21
8.4323317509
 31
0.0
  0
SPLINE
  5
333
330
1F
100
AcDbEntity
  8
0
  6
Continuous
 62
     7
370
    15
100
AcDbSpline
210
0.0
220
0.0
230
1.0
 70
     8
 71
     3
 72
     9
 73
     5
 74
     0
 42
0.000000001
 43
0.00000001
 40
0.0
 40
0.0
 40
0.0
 40
0.0
 40
0.7208461284847887
 40
1.0
 40
1.0
 40
1.0
 40
1.0
 10
5.819942719034292
 20
8.444289484269177
 30
0.0
 10
5.824157942780775
 20
8.4532650140507
 30
0.0
 10
5.830005548226534
 20
8.465716395041522
 30
0.0
 10
5.838332002905095
 20
8.477272170401937
 30
0.0
 10
5.840656364964611
 20
8.480498009832157
 30
0.0
  0
LINE
  5
334
330
1F
100
AcDbEntity
  8
0
  6
Continuous
 62
     7
370
    15
100
AcDbLine
 10
5.8793262671
 20
8.3068827667
 30
0.0
 11
5.819942719
 21
8.3411641592
 31
0.0
  0
SPLINE
  5
335
330
1F
100
AcDbEntity
  8
0
  6
Continuous
 62
     7
370
    15
100
AcDbSpline
210
0.0
220
0.0
230
1.0
 70
     8
 71
     3
 72
     9
 73
     5
 74
     0
 42
0.000000001
 43
0.00000001
 40
0.0
 40
0.0
 40
0.0
 40
0.0
 40
0.4954579634559978
 40
1.0
 40
1.0
 40
1.0
 40
1.0
 10
5.819942719028655
 20
8.34116415917667
 30
0.0
 10
5.818012027039988
 20
8.35065272701658
 30
0.0
 10
5.814115244404381
 20
8.369803832740518
 30
0.0
 10
5.813397259759563
 20
8.387690156942973
 30
0.0
 10
5.81303500632466
 20
8.396714559382366
 30
0.0
  0
SPLINE
  5
336
330
1F
100
AcDbEntity
  8
0
  6
Continuous
 62
     7
370
    15
100
AcDbSpline
210
0.0
220
0.0
230
1.0
 70
     8
 71
     3
 72
     9
 73
     5
 74
     0
 42
0.000000001
 43
0.00000001
 40
0.0
 40
0.0
 40
0.0
 40
0.0
 40
0.4945107285003956
 40
0.9999999999999999
 40
0.9999999999999999
 40
0.9999999999999999
 40
0.9999999999999999
 10
5.81303500632466
 20
8.396714559382366
 30
0.0
 10
5.813383089129807
 20
8.40515354157542
 30
0.0
 10
5.814086982463328
 20
8.422218858274704
 30
0.0
 10
5.817976572832399
 20
8.436878960075806
 30
0.0
 10
5.819942719034493
 20
8.444289484255354
 30
0.0
  0
ARC
  5
337
330
1F
100
AcDbEntity
  8
0
  6
Continuous
 62
     7
370
    15
100
AcDbCircle
 10
6.3056942154
 20
8.1733874347
 30
0.0
 40
0.1066235187752528
100
AcDbArc
 50
172.9458466794
 51
184.4260347606
  0
ARC
  5
338
330
1F
100
AcDbEntity
  8
0
  6
Continuous
 62
     7
370
    15
100
AcDbCircle
 10
6.38520335
 20
8.1557606059
 30
0.0
 40
0.1885186793535109
100
AcDbArc
 50
142.3356063891
 51
150.8752869896
  0
LINE
  5
339
330
1F
100
AcDbEntity
  8
0
  6
Continuous
 62
     7
370
    15
100
AcDbLine
 10
6.3181763429
 20
8.3184081077
 30
0.0
 11
6.320121675
 21
8.3180918797
 31
0.0
  0
LINE
  5
33A
330
1F
100
AcDbEntity
  8
0
  6
Continuous
 62
     7
370
    15
100
AcDbLine
 10
6.409656353
 20
8.2824443242
 30
0.0
 11
6.409656353
 21
8.3712183934
 31
0.0
  0
LINE
  5
33B
330
1F
100
AcDbEntity
  8
0
  6
Continuous
 62
     7
370
    15
100
AcDbLine
 10
6.14449131
 20
8.039519423
 30
0.0
 11
6.2434773271
 21
8.0966628343
 31
0.0
  0
LINE
  5
33C
330
1F
100
AcDbEntity
  8
0
  6
Continuous
 62
     7
370
    15
100
AcDbLine
 10
6.14449131
 20
8.2245200608
 30
0.0
 11
6.14449131
 21
8.039519423
 31
0.0
  0
LINE
  5
33D
330
1F
100
AcDbEntity
  8
0
  6
Continuous
 62
     7
370
    15
100
AcDbLine
 10
6.14449131
 20
8.039519423
 30
0.0
 11
5.8793262671
 21
8.1925959439
 31
0.0
  0
LINE
  5
33E
330
1F
100
AcDbEntity
  8
0
  6
Continuous
 62
     7
370
    15
100
AcDbLine
 10
5.8793262671
 20
8.1925959439
 30
0.0
 11
5.8793262671
 21
8.3775965818
 31
0.0
  0
LINE
  5
33F
330
1F
100
AcDbEntity
  8
0
  6
Continuous
 62
     7
370
    15
100
AcDbLine
 10
6.1058214079
 20
8.3065899471
 30
0.0
 11
6.1099438149
 21
8.3048986764
 31
0.0
  0
ARC
  5
340
330
1F
100
AcDbEntity
  8
0
  6
Continuous
 62
     7
370
    15
100
AcDbCircle
 10
6.1198983293
 20
8.3313159629
 30
0.0
 40
0.0284523385683918
100
AcDbArc
 50
170.1005236091
 51
240.3464396739
  0
ARC
  5
341
330
1F
100
AcDbEntity
  8
0
  6
Continuous
 62
     7
370
    15
100
AcDbCircle
 10
6.1698055041
 20
8.3311003605
 30
0.0
 40
0.0277901703275882
100
AcDbArc
 50
289.5923986097
 51
10.412977923
  0
LINE
  5
342
330
1F
100
AcDbEntity
  8
0
  6
Continuous
 62
     7
370
    15
100
AcDbLine
 10
5.9290447126
 20
8.4086409611
 30
0.0
 11
5.9331671196
 21
8.4069496904
 31
0.0
  0
ARC
  5
343
330
1F
100
AcDbEntity
  8
0
  6
Continuous
 62
     7
370
    15
100
AcDbCircle
 10
5.943121634
 20
8.4333669769
 30
0.0
 40
0.0284523385683618
100
AcDbArc
 50
170.100523609
 51
240.3464396739
  0
ARC
  5
344
330
1F
100
AcDbEntity
  8
0
  6
Continuous
 62
     7
370
    15
100
AcDbCircle
 10
6.3465821994
 20
8.4331513745
 30
0.0
 40
0.0277901703273845
100
AcDbArc
 50
289.5923986087
 51
10.412977924
  0
ENDSEC
  0
SECTION
  2
OBJECTS
  0
DICTIONARY
  5
C
330
0
100
AcDbDictionary
281
     1
  3
ACAD_GROUP
350
D
  3
ACAD_LAYOUT
350
1A
  3
ACAD_MLINESTYLE
350
17
  3
ACAD_PLOTSETTINGS
350
19
  3
ACAD_PLOTSTYLENAME
350
E
  3
ACAD_SCALELIST
350
47
  0
DICTIONARY
  5
D
102
{ACAD_REACTORS
330
C
102
}
330
C
100
AcDbDictionary
281
     1
  0
DICTIONARY
  5
1A
102
{ACAD_REACTORS
330
C
102
}
330
C
100
AcDbDictionary
281
     1
  3
Layout1
350
1E
  3
Layout2
350
26
  3
Model
350
22
  0
DICTIONARY
  5
17
102
{ACAD_REACTORS
330
C
102
}
330
C
100
AcDbDictionary
281
     1
  3
Standard
350
18
  0
DICTIONARY
  5
19
102
{ACAD_REACTORS
330
C
102
}
330
C
100
AcDbDictionary
281
     1
  0
ACDBDICTIONARYWDFLT
  5
E
102
{ACAD_REACTORS
330
C
102
}
330
C
100
AcDbDictionary
281
     1
  3
Normal
350
F
100
AcDbDictionaryWithDefault
340
F
  0
DICTIONARY
  5
47
102
{ACAD_REACTORS
330
C
102
}
330
C
100
AcDbDictionary
281
     1
  3
A0
350
48
  3
A1
350
49
  3
A2
350
4A
  3
A3
350
4B
  3
A4
350
4C
  3
A5
350
4D
  3
A6
350
4E
  3
A7
350
4F
  3
A8
350
50
  3
A9
350
51
  3
B0
350
52
  3
B1
350
53
  3
B2
350
54
  3
B3
350
55
  3
B4
350
56
  3
B5
350
57
  3
B6
350
58
  3
B7
350
59
  3
B8
350
5A
  3
B9
350
5B
  3
C0
350
5C
  3
C1
350
5D
  3
C2
350
5E
  3
C3
350
5F
  3
C4
350
60
  3
C5
350
61
  3
C6
350
62
  3
C7
350
63
  3
C8
350
64
  3
C9
350
65
  3
D0
350
66
  3
D1
350
67
  3
D2
350
68
  0
LAYOUT
  5
1E
102
{ACAD_REACTORS
330
1A
102
}
330
1A
100
AcDbPlotSettings
  1

  2
none_device
  4

  6

 40
0.0
 41
0.0
 42
0.0
 43
0.0
 44
0.0
 45
0.0
 46
0.0
 47
0.0
 48
0.0
 49
0.0
140
0.0
141
0.0
142
1.0
143
1.0
 70
   688
 72
     0
 73
     0
 74
     5
  7

 75
    16
147
1.0
148
0.0
149
0.0
100
AcDbLayout
  1
Layout1
 70
     1
 71
     1
 10
0.0
 20
0.0
 11
12.0
 21
9.0
 12
0.0
 22
0.0
 32
0.0
 14
1.0000000000E+20
 24
1.0000000000E+20
 34
1.0000000000E+20
 15
-1.0000000000E+20
 25
-1.0000000000E+20
 35
-1.0000000000E+20
146
0.0
 13
0.0
 23
0.0
 33
0.0
 16
1.0
 26
0.0
 36
0.0
 17
0.0
 27
1.0
 37
0.0
 76
     0
330
1B
  0
LAYOUT
  5
26
102
{ACAD_REACTORS
330
1A
102
}
330
1A
100
AcDbPlotSettings
  1

  2
none_device
  4

  6

 40
0.0
 41
0.0
 42
0.0
 43
0.0
 44
0.0
 45
0.0
 46
0.0
 47
0.0
 48
0.0
 49
0.0
140
0.0
141
0.0
142
1.0
143
1.0
 70
   688
 72
     0
 73
     0
 74
     5
  7

 75
    16
147
1.0
148
0.0
149
0.0
100
AcDbLayout
  1
Layout2
 70
     1
 71
     2
 10
0.0
 20
0.0
 11
0.0
 21
0.0
 12
0.0
 22
0.0
 32
0.0
 14
0.0
 24
0.0
 34
0.0
 15
0.0
 25
0.0
 35
0.0
146
0.0
 13
0.0
 23
0.0
 33
0.0
 16
1.0
 26
0.0
 36
0.0
 17
0.0
 27
1.0
 37
0.0
 76
     0
330
23
  0
LAYOUT
  5
22
102
{ACAD_REACTORS
330
1A
102
}
330
1A
100
AcDbPlotSettings
  1

  2
none_device
  4
Letter_(8.50_x_11.00_Inches)
  6

 40
6.35
 41
6.35
 42
6.35000508
 43
6.35000508
 44
215.9
 45
279.4
 46
0.0
 47
0.0
 48
0.0
 49
0.0
140
0.0
141
0.0
142
1.0
143
1.0
 70
  1712
 72
     0
 73
     0
 74
     0
  7

 75
     0
147
1.0
148
0.0
149
0.0
100
AcDbLayout
  1
Model
 70
     1
 71
     0
 10
0.0
 20
0.0
 11
8.5
 21
11.0
 12
0.0
 22
0.0
 32
0.0
 14
0.0
 24
0.0
 34
0.0
 15
8.5
 25
11.0
 35
0.0
146
0.0
 13
0.0
 23
0.0
 33
0.0
 16
1.0
 26
0.0
 36
0.0
 17
0.0
 27
1.0
 37
0.0
 76
     0
330
1F
331
29
  0
MLINESTYLE
  5
18
102
{ACAD_REACTORS
330
17
102
}
330
17
100
AcDbMlineStyle
  2
Standard
 70
     0
  3

 62
   256
 51
90.0
 52
90.0
 71
     2
 49
0.5
 62
   256
  6
BYLAYER
 49
-0.5
 62
   256
  6
BYLAYER
  0
ACDBPLACEHOLDER
  5
F
102
{ACAD_REACTORS
330
E
102
}
330
E
  0
SCALE
  5
48
102
{ACAD_REACTORS
330
47
102
}
330
47
100
AcDbScale
 70
     0
300
1:1
140
1.0
141
1.0
290
     1
  0
SCALE
  5
49
102
{ACAD_REACTORS
330
47
102
}
330
47
100
AcDbScale
 70
     0
300
1:2
140
1.0
141
2.0
290
     0
  0
SCALE
  5
4A
102
{ACAD_REACTORS
330
47
102
}
330
47
100
AcDbScale
 70
     0
300
1:4
140
1.0
141
4.0
290
     0
  0
SCALE
  5
4B
102
{ACAD_REACTORS
330
47
102
}
330
47
100
AcDbScale
 70
     0
300
1:5
140
1.0
141
5.0
290
     0
  0
SCALE
  5
4C
102
{ACAD_REACTORS
330
47
102
}
330
47
100
AcDbScale
 70
     0
300
1:8
140
1.0
141
8.0
290
     0
  0
SCALE
  5
4D
102
{ACAD_REACTORS
330
47
102
}
330
47
100
AcDbScale
 70
     0
300
1:10
140
1.0
141
10.0
290
     0
  0
SCALE
  5
4E
102
{ACAD_REACTORS
330
47
102
}
330
47
100
AcDbScale
 70
     0
300
1:16
140
1.0
141
16.0
290
     0
  0
SCALE
  5
4F
102
{ACAD_REACTORS
330
47
102
}
330
47
100
AcDbScale
 70
     0
300
1:20
140
1.0
141
20.0
290
     0
  0
SCALE
  5
50
102
{ACAD_REACTORS
330
47
102
}
330
47
100
AcDbScale
 70
     0
300
1:30
140
1.0
141
30.0
290
     0
  0
SCALE
  5
51
102
{ACAD_REACTORS
330
47
102
}
330
47
100
AcDbScale
 70
     0
300
1:40
140
1.0
141
40.0
290
     0
  0
SCALE
  5
52
102
{ACAD_REACTORS
330
47
102
}
330
47
100
AcDbScale
 70
     0
300
1:50
140
1.0
141
50.0
290
     0
  0
SCALE
  5
53
102
{ACAD_REACTORS
330
47
102
}
330
47
100
AcDbScale
 70
     0
300
1:100
140
1.0
141
100.0
290
     0
  0
SCALE
  5
54
102
{ACAD_REACTORS
330
47
102
}
330
47
100
AcDbScale
 70
     0
300
2:1
140
2.0
141
1.0
290
     0
  0
SCALE
  5
55
102
{ACAD_REACTORS
330
47
102
}
330
47
100
AcDbScale
 70
     0
300
4:1
140
4.0
141
1.0
290
     0
  0
SCALE
  5
56
102
{ACAD_REACTORS
330
47
102
}
330
47
100
AcDbScale
 70
     0
300
8:1
140
8.0
141
1.0
290
     0
  0
SCALE
  5
57
102
{ACAD_REACTORS
330
47
102
}
330
47
100
AcDbScale
 70
     0
300
10:1
140
10.0
141
1.0
290
     0
  0
SCALE
  5
58
102
{ACAD_REACTORS
330
47
102
}
330
47
100
AcDbScale
 70
     0
300
100:1
140
100.0
141
1.0
290
     0
  0
SCALE
  5
59
102
{ACAD_REACTORS
330
47
102
}
330
47
100
AcDbScale
 70
     0
300
1/128" = 1'-0"
140
0.0078125
141
12.0
290
     0
  0
SCALE
  5
5A
102
{ACAD_REACTORS
330
47
102
}
330
47
100
AcDbScale
 70
     0
300
1/64" = 1'-0"
140
0.015625
141
12.0
290
     0
  0
SCALE
  5
5B
102
{ACAD_REACTORS
330
47
102
}
330
47
100
AcDbScale
 70
     0
300
1/32" = 1'-0"
140
0.03125
141
12.0
290
     0
  0
SCALE
  5
5C
102
{ACAD_REACTORS
330
47
102
}
330
47
100
AcDbScale
 70
     0
300
1/16" = 1'-0"
140
0.0625
141
12.0
290
     0
  0
SCALE
  5
5D
102
{ACAD_REACTORS
330
47
102
}
330
47
100
AcDbScale
 70
     0
300
3/32" = 1'-0"
140
0.09375
141
12.0
290
     0
  0
SCALE
  5
5E
102
{ACAD_REACTORS
330
47
102
}
330
47
100
AcDbScale
 70
     0
300
1/8" = 1'-0"
140
0.125
141
12.0
290
     0
  0
SCALE
  5
5F
102
{ACAD_REACTORS
330
47
102
}
330
47
100
AcDbScale
 70
     0
300
3/16" = 1'-0"
140
0.1875
141
12.0
290
     0
  0
SCALE
  5
60
102
{ACAD_REACTORS
330
47
102
}
330
47
100
AcDbScale
 70
     0
300
1/4" = 1'-0"
140
0.25
141
12.0
290
     0
  0
SCALE
  5
61
102
{ACAD_REACTORS
330
47
102
}
330
47
100
AcDbScale
 70
     0
300
3/8" = 1'-0"
140
0.375
141
12.0
290
     0
  0
SCALE
  5
62
102
{ACAD_REACTORS
330
47
102
}
330
47
100
AcDbScale
 70
     0
300
1/2" = 1'-0"
140
0.5
141
12.0
290
     0
  0
SCALE
  5
63
102
{ACAD_REACTORS
330
47
102
}
330
47
100
AcDbScale
 70
     0
300
3/4" = 1'-0"
140
0.75
141
12.0
290
     0
  0
SCALE
  5
64
102
{ACAD_REACTORS
330
47
102
}
330
47
100
AcDbScale
 70
     0
300
1" = 1'-0"
140
1.0
141
12.0
290
     0
  0
SCALE
  5
65
102
{ACAD_REACTORS
330
47
102
}
330
47
100
AcDbScale
 70
     0
300
1-1/2" = 1'-0"
140
1.5
141
12.0
290
     0
  0
SCALE
  5
66
102
{ACAD_REACTORS
330
47
102
}
330
47
100
AcDbScale
 70
     0
300
3" = 1'-0"
140
3.0
141
12.0
290
     0
  0
SCALE
  5
67
102
{ACAD_REACTORS
330
47
102
}
330
47
100
AcDbScale
 70
     0
300
6" = 1'-0"
140
6.0
141
12.0
290
     0
  0
SCALE
  5
68
102
{ACAD_REACTORS
330
47
102
}
330
47
100
AcDbScale
 70
     0
300
1'-0" = 1'-0"
140
12.0
141
12.0
290
     0
  0
ENDSEC
  0
EOF
