  0
SECTION
  2
HEADER
  9
$ACADVER
  1
AC1015
  9
$ACADMAINTVER
 70
     6
  9
$DWGCODEPAGE
  3
ANSI_1252
  9
$INSBASE
 10
0.0
 20
0.0
 30
0.0
  9
$EXTMIN
 10
0.0
 20
0.0
 30
0.0
  9
$EXTMAX
 10
8.5
 20
11.0
 30
0.0
  9
$LIMMIN
 10
0.0
 20
0.0
  9
$LIMMAX
 10
8.5
 20
11.0
  9
$ORTHOMODE
 70
     0
  9
$REGENMODE
 70
     1
  9
$FILLMODE
 70
     1
  9
$QTEXTMODE
 70
     0
  9
$MIRRTEXT
 70
     1
  9
$LTSCALE
 40
1.0
  9
$ATTMODE
 70
     1
  9
$TEXTSIZE
 40
0.09
  9
$TRACEWID
 40
0.05
  9
$TEXTSTYLE
  7
Standard
  9
$CLAYER
  8
0
  9
$CELTYPE
  6
ByLayer
  9
$CECOLOR
 62
   256
  9
$CELTSCALE
 40
1.0
  9
$DISPSILH
 70
     0
  9
$DIMSCALE
 40
1.0
  9
$DIMASZ
 40
0.13
  9
$DIMEXO
 40
0.05
  9
$DIMDLI
 40
0.38
  9
$DIMRND
 40
0.0
  9
$DIMDLE
 40
0.0
  9
$DIMEXE
 40
0.125
  9
$DIMTP
 40
0.0
  9
$DIMTM
 40
0.0
  9
$DIMTXT
 40
0.09
  9
$DIMCEN
 40
0.09
  9
$DIMTSZ
 40
0.0
  9
$DIMTOL
 70
     0
  9
$DIMLIM
 70
     0
  9
$DIMTIH
 70
     1
  9
$DIMTOH
 70
     1
  9
$DIMSE1
 70
     0
  9
$DIMSE2
 70
     0
  9
$DIMTAD
 70
     1
  9
$DIMZIN
 70
     1
  9
$DIMBLK
  1

  9
$DIMASO
 70
     1
  9
$DIMSHO
 70
     1
  9
$DIMPOST
  1

  9
$DIMAPOST
  1

  9
$DIMALT
 70
     0
  9
$DIMALTD
 70
     2
  9
$DIMALTF
 40
25.4
  9
$DIMLFAC
 40
4.0
  9
$DIMTOFL
 70
     0
  9
$DIMTVP
 40
0.0
  9
$DIMTIX
 70
     0
  9
$DIMSOXD
 70
     0
  9
$DIMSAH
 70
     0
  9
$DIMBLK1
  1

  9
$DIMBLK2
  1

  9
$DIMSTYLE
  2
Standard
  9
$DIMCLRD
 70
     0
  9
$DIMCLRE
 70
     0
  9
$DIMCLRT
 70
     0
  9
$DIMTFAC
 40
1.0
  9
$DIMGAP
 40
0.06
  9
$DIMJUST
 70
     0
  9
$DIMSD1
 70
     0
  9
$DIMSD2
 70
     0
  9
$DIMTOLJ
 70
     1
  9
$DIMTZIN
 70
     1
  9
$DIMALTZ
 70
     0
  9
$DIMALTTZ
 70
     0
  9
$DIMUPT
 70
     0
  9
$DIMDEC
 70
     3
  9
$DIMTDEC
 70
     3
  9
$DIMALTU
 70
     2
  9
$DIMALTTD
 70
     2
  9
$DIMTXSTY
  7
Standard
  9
$DIMAUNIT
 70
     0
  9
$DIMADEC
 70
     3
  9
$DIMALTRND
 40
0.0
  9
$DIMAZIN
 70
     0
  9
$DIMDSEP
 70
    46
  9
$DIMATFIT
 70
     3
  9
$DIMFRAC
 70
     0
  9
$DIMLDRBLK
  1

  9
$DIMLUNIT
 70
     2
  9
$DIMLWD
 70
    -2
  9
$DIMLWE
 70
    -2
  9
$DIMTMOVE
 70
     0
  9
$LUNITS
 70
     2
  9
$LUPREC
 70
     3
  9
$SKETCHINC
 40
0.1
  9
$FILLETRAD
 40
0.5
  9
$AUNITS
 70
     0
  9
$AUPREC
 70
     2
  9
$MENU
  1
.
  9
$ELEVATION
 40
0.0
  9
$PELEVATION
 40
0.0
  9
$THICKNESS
 40
0.0
  9
$LIMCHECK
 70
     0
  9
$CHAMFERA
 40
0.0
  9
$CHAMFERB
 40
0.0
  9
$CHAMFERC
 40
0.0
  9
$CHAMFERD
 40
0.0
  9
$SKPOLY
 70
     0
  9
$TDCREATE
 40
2457815.356698426
  9
$TDUCREATE
 40
2457815.565031759
  9
$TDUPDATE
 40
2457815.356698924
  9
$TDUUPDATE
 40
2457815.565032257
  9
$TDINDWG
 40
0.0000000116
  9
$TDUSRTIMER
 40
0.0000000116
  9
$USRTIMER
 70
     1
  9
$ANGBASE
 50
0.0
  9
$ANGDIR
 70
     0
  9
$PDMODE
 70
     0
  9
$PDSIZE
 40
-1.0
  9
$PLINEWID
 40
0.0
  9
$SPLFRAME
 70
     0
  9
$SPLINETYPE
 70
     6
  9
$SPLINESEGS
 70
     8
  9
$HANDSEED
  5
358
  9
$SURFTAB1
 70
     6
  9
$SURFTAB2
 70
     6
  9
$SURFTYPE
 70
     6
  9
$SURFU
 70
     6
  9
$SURFV
 70
     6
  9
$UCSBASE
  2

  9
$UCSNAME
  2

  9
$UCSORG
 10
0.0
 20
0.0
 30
0.0
  9
$UCSXDIR
 10
1.0
 20
0.0
 30
0.0
  9
$UCSYDIR
 10
0.0
 20
1.0
 30
0.0
  9
$UCSORTHOREF
  2

  9
$UCSORTHOVIEW
 70
     0
  9
$UCSORGTOP
 10
0.0
 20
0.0
 30
0.0
  9
$UCSORGBOTTOM
 10
0.0
 20
0.0
 30
0.0
  9
$UCSORGLEFT
 10
0.0
 20
0.0
 30
0.0
  9
$UCSORGRIGHT
 10
0.0
 20
0.0
 30
0.0
  9
$UCSORGFRONT
 10
0.0
 20
0.0
 30
0.0
  9
$UCSORGBACK
 10
0.0
 20
0.0
 30
0.0
  9
$PUCSBASE
  2

  9
$PUCSNAME
  2

  9
$PUCSORG
 10
0.0
 20
0.0
 30
0.0
  9
$PUCSXDIR
 10
1.0
 20
0.0
 30
0.0
  9
$PUCSYDIR
 10
0.0
 20
1.0
 30
0.0
  9
$PUCSORTHOREF
  2

  9
$PUCSORTHOVIEW
 70
     0
  9
$PUCSORGTOP
 10
0.0
 20
0.0
 30
0.0
  9
$PUCSORGBOTTOM
 10
0.0
 20
0.0
 30
0.0
  9
$PUCSORGLEFT
 10
0.0
 20
0.0
 30
0.0
  9
$PUCSORGRIGHT
 10
0.0
 20
0.0
 30
0.0
  9
$PUCSORGFRONT
 10
0.0
 20
0.0
 30
0.0
  9
$PUCSORGBACK
 10
0.0
 20
0.0
 30
0.0
  9
$USERI1
 70
     0
  9
$USERI2
 70
     0
  9
$USERI3
 70
     0
  9
$USERI4
 70
     0
  9
$USERI5
 70
     0
  9
$USERR1
 40
0.0
  9
$USERR2
 40
0.0
  9
$USERR3
 40
0.0
  9
$USERR4
 40
0.0
  9
$USERR5
 40
0.0
  9
$WORLDVIEW
 70
     1
  9
$SHADEDGE
 70
     3
  9
$SHADEDIF
 70
    70
  9
$TILEMODE
 70
     1
  9
$MAXACTVP
 70
    64
  9
$PINSBASE
 10
0.0
 20
0.0
 30
0.0
  9
$PLIMCHECK
 70
     0
  9
$PEXTMIN
 10
1.0000000000E+20
 20
1.0000000000E+20
 30
1.0000000000E+20
  9
$PEXTMAX
 10
-1.0000000000E+20
 20
-1.0000000000E+20
 30
-1.0000000000E+20
  9
$PLIMMIN
 10
0.0
 20
0.0
  9
$PLIMMAX
 10
12.0
 20
9.0
  9
$UNITMODE
 70
     0
  9
$VISRETAIN
 70
     1
  9
$PLINEGEN
 70
     0
  9
$PSLTSCALE
 70
     1
  9
$TREEDEPTH
 70
  3020
  9
$CMLSTYLE
  2
Standard
  9
$CMLJUST
 70
     0
  9
$CMLSCALE
 40
1.0
  9
$PROXYGRAPHICS
 70
     1
  9
$MEASUREMENT
 70
     0
  9
$CELWEIGHT
370
    -1
  9
$ENDCAPS
280
     0
  9
$JOINSTYLE
280
     0
  9
$LWDISPLAY
290
     1
  9
$INSUNITS
 70
     1
  9
$HYPERLINKBASE
  1

  9
$STYLESHEET
  1

  9
$XEDIT
290
     1
  9
$CEPSNTYPE
380
     0
  9
$PSTYLEMODE
290
     1
  9
$FINGERPRINTGUID
  2
{05EFE3F6-A92B-4085-AF67-8D8C21698E36}
  9
$VERSIONGUID
  2
{FAEB1C32-E019-11D5-929B-00C0DF256EC4}
  9
$EXTNAMES
290
     1
  9
$PSVPSCALE
 40
0.0
  9
$OLESTARTUP
290
     0
  0
ENDSEC
  0
SECTION
  2
CLASSES
  0
CLASS
  1
ACDBDICTIONARYWDFLT
  2
AcDbDictionaryWithDefault
  3
ObjectDBX Classes
 90
        0
280
     0
281
     0
  0
CLASS
  1
VISUALSTYLE
  2
AcDbVisualStyle
  3
ObjectDBX Classes
 90
     4095
280
     0
281
     0
  0
CLASS
  1
MATERIAL
  2
AcDbMaterial
  3
ObjectDBX Classes
 90
     1153
280
     0
281
     0
  0
CLASS
  1
SCALE
  2
AcDbScale
  3
ObjectDBX Classes
 90
     1153
280
     0
281
     0
  0
CLASS
  1
SUN
  2
AcDbSun
  3
SCENEOE
 90
     1153
280
     0
281
     0
  0
CLASS
  1
ACDBPLACEHOLDER
  2
AcDbPlaceHolder
  3
ObjectDBX Classes
 90
        0
280
     0
281
     0
  0
CLASS
  1
LAYOUT
  2
AcDbLayout
  3
ObjectDBX Classes
 90
        0
280
     0
281
     0
  0
ENDSEC
  0
SECTION
  2
TABLES
  0
TABLE
  2
VPORT
  5
8
330
0
100
AcDbSymbolTable
 70
     1
  0
VPORT
  5
29
330
8
100
AcDbSymbolTableRecord
100
AcDbViewportTableRecord
  2
*Active
 70
     0
 10
0.0
 20
0.0
 11
1.0
 21
1.0
 12
4.25
 22
5.5
 13
0.0
 23
0.0
 14
0.5
 24
0.5
 15
0.5
 25
0.5
 16
0.0
 26
0.0
 36
1.0
 17
0.0
 27
0.0
 37
0.0
 40
11.0
 41
0.7727272727
 42
50.0
 43
0.0
 44
0.0
 50
0.0
 51
0.0
 71
     0
 72
  2000
 73
     1
 74
     3
 75
     0
 76
     0
 77
     0
 78
     0
281
     0
 65
     1
110
0.0
120
0.0
130
0.0
111
1.0
121
0.0
131
0.0
112
0.0
122
1.0
132
0.0
 79
     0
146
0.0
  0
ENDTAB
  0
TABLE
  2
LTYPE
  5
5
330
0
100
AcDbSymbolTable
 70
     6
  0
LTYPE
  5
14
330
5
100
AcDbSymbolTableRecord
100
AcDbLinetypeTableRecord
  2
ByBlock
 70
     0
  3

 72
    65
 73
     0
 40
0.0
  0
LTYPE
  5
15
330
5
100
AcDbSymbolTableRecord
100
AcDbLinetypeTableRecord
  2
ByLayer
 70
     0
  3

 72
    65
 73
     0
 40
0.0
  0
LTYPE
  5
16
330
5
100
AcDbSymbolTableRecord
100
AcDbLinetypeTableRecord
  2
Continuous
 70
     0
  3
Solid line
 72
    65
 73
     0
 40
0.0
  0
LTYPE
  5
6A
330
5
100
AcDbSymbolTableRecord
100
AcDbLinetypeTableRecord
  2
HIDDEN
 70
     0
  3
Hidden __ __ __ __ __ __ __ __ __ __ __ __ __ __
 72
    65
 73
     2
 40
0.075
 49
0.05
 74
     0
 49
-0.025
 74
     0
  0
LTYPE
  5
6B
330
5
100
AcDbSymbolTableRecord
100
AcDbLinetypeTableRecord
  2
PHANTOM
 70
     0
  3
Phantom ______  __  __  ______  __  __  ______
 72
    65
 73
     6
 40
0.5
 49
0.25
 74
     0
 49
-0.05
 74
     0
 49
0.05
 74
     0
 49
-0.05
 74
     0
 49
0.05
 74
     0
 49
-0.05
 74
     0
  0
LTYPE
  5
6C
330
5
100
AcDbSymbolTableRecord
100
AcDbLinetypeTableRecord
  2
CENTER
 70
     0
  3
Center ____ _ ____ _ ____ _ ____ _ ____ _ ____
 72
    65
 73
     4
 40
0.4
 49
0.25
 74
     0
 49
-0.05
 74
     0
 49
0.05
 74
     0
 49
-0.05
 74
     0
  0
LTYPE
  5
6D
330
5
100
AcDbSymbolTableRecord
100
AcDbLinetypeTableRecord
  2
CENTERX2
 70
     0
  3
Center (2x) ________  __  ________  __  _____
 72
    65
 73
     4
 40
0.8
 49
0.5
 74
     0
 49
-0.1
 74
     0
 49
0.1
 74
     0
 49
-0.1
 74
     0
  0
LTYPE
  5
6E
330
5
100
AcDbSymbolTableRecord
100
AcDbLinetypeTableRecord
  2
DOT2
 70
     0
  3
Dot (.5x) ........................................
 72
    65
 73
     2
 40
0.025
 49
0.0
 74
     0
 49
-0.025
 74
     0
  0
ENDTAB
  0
TABLE
  2
LAYER
  5
2
330
0
100
AcDbSymbolTable
 70
     4
  0
LAYER
  5
10
330
2
100
AcDbSymbolTableRecord
100
AcDbLayerTableRecord
  2
0
 70
     0
 62
     7
  6
Continuous
370
    -3
390
F
  0
LAYER
  5
6F
330
2
100
AcDbSymbolTableRecord
100
AcDbLayerTableRecord
  2
SLD-0
 70
     0
 62
   179
  6
Continuous
370
    -3
390
F
  0
LAYER
  5
70
330
2
100
AcDbSymbolTableRecord
100
AcDbLayerTableRecord
  2
3
 70
     0
 62
     7
  6
Continuous
370
    -3
390
F
  0
LAYER
  5
71
330
2
100
AcDbSymbolTableRecord
100
AcDbLayerTableRecord
  2
1
 70
     0
 62
   179
  6
Continuous
370
    -3
390
F
  0
ENDTAB
  0
TABLE
  2
STYLE
  5
3
330
0
100
AcDbSymbolTable
 70
     1
  0
STYLE
  5
11
330
3
100
AcDbSymbolTableRecord
100
AcDbTextStyleTableRecord
  2
Standard
 70
     0
 40
0.0
 41
1.0
 50
0.0
 71
     0
 42
0.09
  3
txt
  4

  0
ENDTAB
  0
TABLE
  2
VIEW
  5
6
330
0
100
AcDbSymbolTable
 70
     0
  0
ENDTAB
  0
TABLE
  2
UCS
  5
7
330
0
100
AcDbSymbolTable
 70
     0
  0
ENDTAB
  0
TABLE
  2
APPID
  5
9
330
0
100
AcDbSymbolTable
 70
     1
  0
APPID
  5
12
330
9
100
AcDbSymbolTableRecord
100
AcDbRegAppTableRecord
  2
ACAD
 70
     0
  0
ENDTAB
  0
TABLE
  2
DIMSTYLE
  5
A
330
0
100
AcDbSymbolTable
 70
     1
100
AcDbDimStyleTable
  0
DIMSTYLE
105
27
330
A
100
AcDbSymbolTableRecord
100
AcDbDimStyleTableRecord
  2
Standard
 70
     0
178
     0
340
11
  0
ENDTAB
  0
TABLE
  2
BLOCK_RECORD
  5
1
330
0
100
AcDbSymbolTable
 70
     1
  0
BLOCK_RECORD
  5
1F
330
1
100
AcDbSymbolTableRecord
100
AcDbBlockTableRecord
  2
*Model_Space
340
22
  0
BLOCK_RECORD
  5
1B
330
1
100
AcDbSymbolTableRecord
100
AcDbBlockTableRecord
  2
*Paper_Space
340
1E
  0
BLOCK_RECORD
  5
23
330
1
100
AcDbSymbolTableRecord
100
AcDbBlockTableRecord
  2
*Paper_Space0
340
26
  0
ENDTAB
  0
ENDSEC
  0
SECTION
  2
BLOCKS
  0
BLOCK
  5
20
330
1F
100
AcDbEntity
  8
0
100
AcDbBlockBegin
  2
*Model_Space
 70
     0
 10
0.0
 20
0.0
 30
0.0
  3
*Model_Space
  1
*Model_Space
  0
ENDBLK
  5
21
330
1F
100
AcDbEntity
  8
0
100
AcDbBlockEnd
  0
BLOCK
  5
1C
330
1B
100
AcDbEntity
 67
     1
  8
0
100
AcDbBlockBegin
  2
*Paper_Space
 70
     0
 10
0.0
 20
0.0
 30
0.0
  3
*Paper_Space
  1
*Paper_Space
  0
ENDBLK
  5
1D
330
1B
100
AcDbEntity
 67
     1
  8
0
100
AcDbBlockEnd
  0
BLOCK
  5
24
330
23
100
AcDbEntity
  8
0
100
AcDbBlockBegin
  2
*Paper_Space0
 70
     0
 10
0.0
 20
0.0
 30
0.0
  3
*Paper_Space0
  1
*Paper_Space0
  0
ENDBLK
  5
25
330
23
100
AcDbEntity
  8
0
100
AcDbBlockEnd
  0
ENDSEC
  0
SECTION
  2
ENTITIES
  0
LINE
  5
72
330
1F
100
AcDbEntity
  8
0
  6
Continuous
 62
     7
370
    15
100
AcDbLine
 10
4.6910871533
 20
7.6355220863
 30
0.0
 11
4.6761892681
 21
7.6395139626
 31
0.0
  0
LINE
  5
73
330
1F
100
AcDbEntity
  8
0
  6
Continuous
 62
     7
370
    15
100
AcDbLine
 10
4.4894786874
 20
7.6395139626
 30
0.0
 11
4.4745808025
 21
7.6355220864
 31
0.0
  0
LINE
  5
74
330
1F
100
AcDbEntity
  8
0
  6
Continuous
 62
     7
370
    15
100
AcDbLine
 10
4.2202240424
 20
5.5882934823
 30
0.0
 11
4.2234589777
 21
5.6003673263
 31
0.0
  0
LINE
  5
75
330
1F
100
AcDbEntity
  8
0
  6
Continuous
 62
     7
370
    15
100
AcDbLine
 10
4.1827089777
 20
5.6003673263
 30
0.0
 11
4.185943913
 21
5.5882934825
 31
0.0
  0
LINE
  5
76
330
1F
100
AcDbEntity
  8
0
  6
Continuous
 62
     7
370
    15
100
AcDbLine
 10
4.1859439131
 20
5.7688594433
 30
0.0
 11
4.1827089777
 21
5.7567855992
 31
0.0
  0
LINE
  5
77
330
1F
100
AcDbEntity
  8
0
  6
Continuous
 62
     7
370
    15
100
AcDbLine
 10
4.2234589777
 20
5.7567855992
 30
0.0
 11
4.2202240424
 21
5.7688594433
 31
0.0
  0
LINE
  5
78
330
1F
100
AcDbEntity
  8
0
  6
Continuous
 62
     7
370
    15
100
AcDbLine
 10
4.1827089777
 20
5.7162014628
 30
0.0
 11
4.0923339777
 21
5.7162014628
 31
0.0
  0
LINE
  5
79
330
1F
100
AcDbEntity
  8
0
  6
Continuous
 62
     7
370
    15
100
AcDbLine
 10
4.0923339777
 20
5.6409514628
 30
0.0
 11
4.1827089777
 21
5.6409514628
 31
0.0
  0
LINE
  5
7A
330
1F
100
AcDbEntity
  8
0
  6
Continuous
 62
     7
370
    15
100
AcDbLine
 10
5.0103339779
 20
5.5522810916
 30
0.0
 11
5.0203339778
 21
5.5696015994
 31
0.0
  0
LINE
  5
7B
330
1F
100
AcDbEntity
  8
0
  6
Continuous
 62
     7
370
    15
100
AcDbLine
 10
5.0203339778
 20
5.7875513261
 30
0.0
 11
5.0103339777
 21
5.8048718342
 31
0.0
  0
LINE
  5
7C
330
1F
100
AcDbEntity
  8
0
  6
Continuous
 62
     7
370
    15
100
AcDbLine
 10
4.7751116301
 20
5.7958264628
 30
0.0
 11
4.7703339777
 21
5.7875513261
 31
0.0
  0
LINE
  5
7D
330
1F
100
AcDbEntity
  8
0
  6
Continuous
 62
     7
370
    15
100
AcDbLine
 10
4.7703339777
 20
5.5696015994
 30
0.0
 11
4.7751116301
 21
5.5613264628
 31
0.0
  0
LINE
  5
7E
330
1F
100
AcDbEntity
  8
0
  6
Continuous
 62
     7
370
    15
100
AcDbLine
 10
4.8172089777
 20
5.7958264628
 30
0.0
 11
4.7751116301
 21
5.7958264628
 31
0.0
  0
LINE
  5
7F
330
1F
100
AcDbEntity
  8
0
  6
Continuous
 62
     7
370
    15
100
AcDbLine
 10
4.8222089777
 20
5.8044867168
 30
0.0
 11
4.8172089777
 21
5.7958264628
 31
0.0
  0
LINE
  5
80
330
1F
100
AcDbEntity
  8
0
  6
Continuous
 62
     7
370
    15
100
AcDbLine
 10
4.8172089777
 20
5.5613264628
 30
0.0
 11
4.8222089777
 21
5.5526662087
 31
0.0
  0
LINE
  5
81
330
1F
100
AcDbEntity
  8
0
  6
Continuous
 62
     7
370
    15
100
AcDbLine
 10
4.7751116301
 20
5.5613264628
 30
0.0
 11
4.8172089777
 21
5.5613264628
 31
0.0
  0
LINE
  5
82
330
1F
100
AcDbEntity
  8
0
  6
Continuous
 62
     7
370
    15
100
AcDbLine
 10
4.7751116301
 20
7.5458264628
 30
0.0
 11
4.7703339777
 21
7.5375513261
 31
0.0
  0
LINE
  5
83
330
1F
100
AcDbEntity
  8
0
  6
Continuous
 62
     7
370
    15
100
AcDbLine
 10
4.7703339777
 20
7.3196015994
 30
0.0
 11
4.7751116301
 21
7.3113264628
 31
0.0
  0
LINE
  5
84
330
1F
100
AcDbEntity
  8
0
  6
Continuous
 62
     7
370
    15
100
AcDbLine
 10
5.0103339779
 20
7.3022810916
 30
0.0
 11
5.0203339778
 21
7.3196015994
 31
0.0
  0
LINE
  5
85
330
1F
100
AcDbEntity
  8
0
  6
Continuous
 62
     7
370
    15
100
AcDbLine
 10
5.0203339778
 20
7.5375513261
 30
0.0
 11
5.0103339777
 21
7.5548718342
 31
0.0
  0
LINE
  5
86
330
1F
100
AcDbEntity
  8
0
  6
Continuous
 62
     7
370
    15
100
AcDbLine
 10
4.8222089777
 20
7.5544867168
 30
0.0
 11
4.8172089777
 21
7.5458264628
 31
0.0
  0
LINE
  5
87
330
1F
100
AcDbEntity
  8
0
  6
Continuous
 62
     7
370
    15
100
AcDbLine
 10
4.8172089777
 20
7.5458264628
 30
0.0
 11
4.7751116301
 21
7.5458264628
 31
0.0
  0
LINE
  5
88
330
1F
100
AcDbEntity
  8
0
  6
Continuous
 62
     7
370
    15
100
AcDbLine
 10
4.8172089777
 20
7.3113264628
 30
0.0
 11
4.8222089777
 21
7.3026662087
 31
0.0
  0
LINE
  5
89
330
1F
100
AcDbEntity
  8
0
  6
Continuous
 62
     7
370
    15
100
AcDbLine
 10
4.7751116301
 20
7.3113264628
 30
0.0
 11
4.8172089777
 21
7.3113264628
 31
0.0
  0
LINE
  5
8A
330
1F
100
AcDbEntity
  8
0
  6
Continuous
 62
     7
370
    15
100
AcDbLine
 10
4.0923339777
 20
5.8163264628
 30
0.0
 11
3.9103339777
 21
5.8085764628
 31
0.0
  0
LINE
  5
8B
330
1F
100
AcDbEntity
  8
0
  6
Continuous
 62
     7
370
    15
100
AcDbLine
 10
3.9103339777
 20
5.5485764628
 30
0.0
 11
4.0923339777
 21
5.5408264628
 31
0.0
  0
LINE
  5
8C
330
1F
100
AcDbEntity
  8
0
  6
Continuous
 62
     7
370
    15
100
AcDbLine
 10
4.3953339777
 20
5.7879514628
 30
0.0
 11
4.3911472716
 21
5.8035764628
 31
0.0
  0
LINE
  5
8D
330
1F
100
AcDbEntity
  8
0
  6
Continuous
 62
     7
370
    15
100
AcDbLine
 10
4.2332279587
 20
5.8048718341
 30
0.0
 11
4.2234589777
 21
5.7879514628
 31
0.0
  0
LINE
  5
8E
330
1F
100
AcDbEntity
  8
0
  6
Continuous
 62
     7
370
    15
100
AcDbLine
 10
4.2234589777
 20
5.5692014628
 30
0.0
 11
4.2332279587
 21
5.5522810914
 31
0.0
  0
LINE
  5
8F
330
1F
100
AcDbEntity
  8
0
  6
Continuous
 62
     7
370
    15
100
AcDbLine
 10
4.3908001779
 20
5.5522810914
 30
0.0
 11
4.3953339777
 21
5.5692014628
 31
0.0
  0
SPLINE
  5
90
330
1F
100
AcDbEntity
  8
0
  6
Continuous
 62
     7
370
    15
100
AcDbSpline
210
0.0
220
0.0
230
1.0
 70
     8
 71
     3
 72
    11
 73
     7
 74
     0
 42
0.000000001
 43
0.00000001
 40
0.0
 40
0.0
 40
0.0
 40
0.0
 40
0.2471026482985711
 40
0.4952089993517331
 40
0.7469801478326115
 40
1.0
 40
1.0
 40
1.0
 40
1.0
 10
4.636960564962903
 20
7.635522085974922
 30
0.0
 10
4.641402527139177
 20
7.636587556768352
 30
0.0
 10
4.650304494235106
 20
7.638722826175966
 30
0.0
 10
4.66382959572924
 20
7.639736023646098
 30
0.0
 10
4.677463826020452
 20
7.638780969012891
 30
0.0
 10
4.686538561527352
 20
7.636610170493304
 30
0.0
 10
4.691087153387082
 20
7.635522086276655
 30
0.0
  0
LINE
  5
91
330
1F
100
AcDbEntity
  8
0
  6
Continuous
 62
     7
370
    15
100
AcDbLine
 10
4.6910871533
 20
7.6355220863
 30
0.0
 11
4.6910871532
 21
7.5535764628
 31
0.0
  0
LINE
  5
92
330
1F
100
AcDbEntity
  8
0
  6
Continuous
 62
     7
370
    15
100
AcDbLine
 10
4.6369605655
 20
7.5535764628
 30
0.0
 11
4.636960565
 21
7.6355220864
 31
0.0
  0
SPLINE
  5
93
330
1F
100
AcDbEntity
  8
0
  6
Continuous
 62
     7
370
    15
100
AcDbSpline
210
0.0
220
0.0
230
1.0
 70
     8
 71
     3
 72
    11
 73
     7
 74
     0
 42
0.000000001
 43
0.00000001
 40
0.0
 40
0.0
 40
0.0
 40
0.0
 40
0.2471026483657297
 40
0.4952089994577434
 40
0.7469801478925738
 40
1.0
 40
1.0
 40
1.0
 40
1.0
 10
4.52870738961514
 20
7.635522085974926
 30
0.0
 10
4.537591313591675
 20
7.636587556757129
 30
0.0
 10
4.555395247028954
 20
7.638722826142124
 30
0.0
 10
4.582445449905842
 20
7.639736023636805
 30
0.0
 10
4.609713910096981
 20
7.638780969079979
 30
0.0
 10
4.627863380899098
 20
7.636610170632796
 30
0.0
 10
4.63696056451221
 20
7.635522086452471
 30
0.0
  0
LINE
  5
94
330
1F
100
AcDbEntity
  8
0
  6
Continuous
 62
     7
370
    15
100
AcDbLine
 10
4.52870739
 20
7.5535764628
 30
0.0
 11
4.5287073898
 21
7.6355220864
 31
0.0
  0
SPLINE
  5
95
330
1F
100
AcDbEntity
  8
0
  6
Continuous
 62
     7
370
    15
100
AcDbSpline
210
0.0
220
0.0
230
1.0
 70
     8
 71
     3
 72
    11
 73
     7
 74
     0
 42
0.000000001
 43
0.00000001
 40
0.0
 40
0.0
 40
0.0
 40
0.0
 40
0.2471026483657307
 40
0.4952089994577458
 40
0.7469801478925738
 40
1.0
 40
1.0
 40
1.0
 40
1.0
 10
4.474580802392286
 20
7.635522085974926
 30
0.0
 10
4.479022764245602
 20
7.636587556757131
 30
0.0
 10
4.487924730693791
 20
7.638722826142126
 30
0.0
 10
4.501449832241481
 20
7.639736023636802
 30
0.0
 10
4.515084062307823
 20
7.638780969079981
 30
0.0
 10
4.524158797712812
 20
7.6366101706328
 30
0.0
 10
4.528707389521339
 20
7.635522086452474
 30
0.0
  0
LINE
  5
96
330
1F
100
AcDbEntity
  8
0
  6
Continuous
 62
     7
370
    15
100
AcDbLine
 10
4.4745808023
 20
7.5535764628
 30
0.0
 11
4.4745808025
 21
7.6355220864
 31
0.0
  0
LINE
  5
97
330
1F
100
AcDbEntity
  8
0
  6
Continuous
 62
     7
370
    15
100
AcDbLine
 10
4.4894786874
 20
7.6395139626
 30
0.0
 11
4.6761892681
 21
7.6395139626
 31
0.0
  0
LINE
  5
98
330
1F
100
AcDbEntity
  8
0
  6
Continuous
 62
     7
370
    15
100
AcDbLine
 10
4.7937714777
 20
5.8035764628
 30
0.0
 11
4.7937714777
 21
7.3035764628
 31
0.0
  0
LINE
  5
99
330
1F
100
AcDbEntity
  8
0
  6
Continuous
 62
     7
370
    15
100
AcDbLine
 10
4.7703339777
 20
5.8035764628
 30
0.0
 11
4.7703339777
 21
7.3035764628
 31
0.0
  0
LINE
  5
9A
330
1F
100
AcDbEntity
  8
0
  6
Continuous
 62
     7
370
    15
100
AcDbLine
 10
4.7703339777
 20
7.3035764628
 30
0.0
 11
4.7937714777
 21
7.3035764628
 31
0.0
  0
LINE
  5
9B
330
1F
100
AcDbEntity
  8
0
  6
Continuous
 62
     7
370
    15
100
AcDbLine
 10
4.7703339777
 20
5.8035764628
 30
0.0
 11
4.7937714777
 21
5.8035764628
 31
0.0
  0
LINE
  5
9C
330
1F
100
AcDbEntity
  8
0
  6
Continuous
 62
     7
370
    15
100
AcDbLine
 10
4.8015839777
 20
7.2957639628
 30
0.0
 11
4.7937714777
 21
7.3035764628
 31
0.0
  0
LINE
  5
9D
330
1F
100
AcDbEntity
  8
0
  6
Continuous
 62
     7
370
    15
100
AcDbLine
 10
4.8015839777
 20
7.2957639628
 30
0.0
 11
4.8015839777
 21
5.8113889628
 31
0.0
  0
LINE
  5
9E
330
1F
100
AcDbEntity
  8
0
  6
Continuous
 62
     7
370
    15
100
AcDbLine
 10
4.8015839777
 20
5.8113889628
 30
0.0
 11
4.7937714777
 21
5.8035764628
 31
0.0
  0
LINE
  5
9F
330
1F
100
AcDbEntity
  8
0
  6
Continuous
 62
     7
370
    15
100
AcDbLine
 10
4.3718964777
 20
5.8035764628
 30
0.0
 11
4.3640839777
 21
5.8113889628
 31
0.0
  0
LINE
  5
A0
330
1F
100
AcDbEntity
  8
0
  6
Continuous
 62
     7
370
    15
100
AcDbLine
 10
4.3640839777
 20
5.8113889628
 30
0.0
 11
4.3640839777
 21
7.2957639628
 31
0.0
  0
LINE
  5
A1
330
1F
100
AcDbEntity
  8
0
  6
Continuous
 62
     7
370
    15
100
AcDbLine
 10
4.3640839777
 20
7.2957639628
 30
0.0
 11
4.3718964777
 21
7.3035764628
 31
0.0
  0
LINE
  5
A2
330
1F
100
AcDbEntity
  8
0
  6
Continuous
 62
     7
370
    15
100
AcDbLine
 10
4.3718964777
 20
7.3035764628
 30
0.0
 11
4.3718964777
 21
5.8035764628
 31
0.0
  0
LINE
  5
A3
330
1F
100
AcDbEntity
  8
0
  6
Continuous
 62
     7
370
    15
100
AcDbLine
 10
4.3953339777
 20
7.3035764628
 30
0.0
 11
4.3718964777
 21
7.3035764628
 31
0.0
  0
LINE
  5
A4
330
1F
100
AcDbEntity
  8
0
  6
Continuous
 62
     7
370
    15
100
AcDbLine
 10
4.3718964777
 20
5.8035764628
 30
0.0
 11
4.3953339777
 21
5.8035764628
 31
0.0
  0
LINE
  5
A5
330
1F
100
AcDbEntity
  8
0
  6
Continuous
 62
     7
370
    15
100
AcDbLine
 10
4.3953339777
 20
7.3035764628
 30
0.0
 11
4.3953339777
 21
5.8035764628
 31
0.0
  0
LINE
  5
A6
330
1F
100
AcDbEntity
  8
0
  6
Continuous
 62
     7
370
    15
100
AcDbLine
 10
4.3953339777
 20
7.5535764628
 30
0.0
 11
4.7703339777
 21
7.5535764628
 31
0.0
  0
LINE
  5
A7
330
1F
100
AcDbEntity
  8
0
  6
Continuous
 62
     7
370
    15
100
AcDbLine
 10
4.7703339777
 20
7.3035764628
 30
0.0
 11
4.7703339777
 21
7.5535764628
 31
0.0
  0
LINE
  5
A8
330
1F
100
AcDbEntity
  8
0
  6
Continuous
 62
     7
370
    15
100
AcDbLine
 10
4.3953339777
 20
7.3035764628
 30
0.0
 11
4.3953339777
 21
7.5535764628
 31
0.0
  0
CIRCLE
  5
A9
330
1F
100
AcDbEntity
  8
0
  6
Continuous
 62
     7
370
    15
100
AcDbCircle
 10
4.7078339777
 20
7.2410764628
 30
0.0
 40
0.0205750000073142
  0
CIRCLE
  5
AA
330
1F
100
AcDbEntity
  8
0
  6
Continuous
 62
     7
370
    15
100
AcDbCircle
 10
4.4578339777
 20
7.2410764628
 30
0.0
 40
0.0205750000073142
  0
CIRCLE
  5
AB
330
1F
100
AcDbEntity
  8
0
  6
Continuous
 62
     7
370
    15
100
AcDbCircle
 10
4.7078339777
 20
7.2410764628
 30
0.0
 40
0.0487500000009273
  0
CIRCLE
  5
AC
330
1F
100
AcDbEntity
  8
0
  6
Continuous
 62
     7
370
    15
100
AcDbCircle
 10
4.4578339777
 20
7.2410764628
 30
0.0
 40
0.048750000000461
  0
CIRCLE
  5
AD
330
1F
100
AcDbEntity
  8
0
  6
Continuous
 62
     7
370
    15
100
AcDbCircle
 10
4.7078339777
 20
5.8660764628
 30
0.0
 40
0.0487500000009273
  0
CIRCLE
  5
AE
330
1F
100
AcDbEntity
  8
0
  6
Continuous
 62
     7
370
    15
100
AcDbCircle
 10
4.4578339777
 20
5.8660764628
 30
0.0
 40
0.048750000000461
  0
LINE
  5
AF
330
1F
100
AcDbEntity
  8
0
  6
Continuous
 62
     7
370
    15
100
AcDbLine
 10
4.7703339777
 20
5.8035764628
 30
0.0
 11
4.3953339777
 21
5.8035764628
 31
0.0
  0
LINE
  5
B0
330
1F
100
AcDbEntity
  8
0
  6
Continuous
 62
     7
370
    15
100
AcDbLine
 10
4.3953339777
 20
7.3035764628
 30
0.0
 11
4.7703339777
 21
7.3035764628
 31
0.0
  0
CIRCLE
  5
B1
330
1F
100
AcDbEntity
  8
0
  6
Continuous
 62
     7
370
    15
100
AcDbCircle
 10
4.4578339777
 20
7.2410764628
 30
0.0
 40
0.0261249999999995
  0
CIRCLE
  5
B2
330
1F
100
AcDbEntity
  8
0
  6
Continuous
 62
     7
370
    15
100
AcDbCircle
 10
4.4578339777
 20
5.8660764628
 30
0.0
 40
0.0261249999999995
  0
CIRCLE
  5
B3
330
1F
100
AcDbEntity
  8
0
  6
Continuous
 62
     7
370
    15
100
AcDbCircle
 10
4.7078339777
 20
7.2410764628
 30
0.0
 40
0.0261249999999995
  0
CIRCLE
  5
B4
330
1F
100
AcDbEntity
  8
0
  6
Continuous
 62
     7
370
    15
100
AcDbCircle
 10
4.7078339777
 20
5.8660764628
 30
0.0
 40
0.0261249999999995
  0
LINE
  5
B5
330
1F
100
AcDbEntity
  8
0
  6
Continuous
 62
     7
370
    15
100
AcDbLine
 10
4.1827089777
 20
5.674923004
 30
0.0
 11
4.1827089777
 21
5.6822299215
 31
0.0
  0
SPLINE
  5
B6
330
1F
100
AcDbEntity
  8
0
  6
Continuous
 62
     7
370
    15
100
AcDbSpline
210
0.0
220
0.0
230
1.0
 70
     8
 71
     3
 72
    10
 73
     6
 74
     0
 42
0.000000001
 43
0.00000001
 40
0.0
 40
0.0
 40
0.0
 40
0.0
 40
0.4989887185754715
 40
0.7494000253049441
 40
1.0
 40
1.0
 40
1.0
 40
1.0
 10
4.18270897774005
 20
5.682229921502597
 30
0.0
 10
4.18293551105628
 20
5.689147573239898
 30
0.0
 10
4.183275727310868
 20
5.699536762802706
 30
0.0
 10
4.184613870661126
 20
5.713342926731852
 30
0.0
 10
4.185487593392583
 20
5.720234745813322
 30
0.0
 10
4.185924619269068
 20
5.723681952994981
 30
0.0
  0
LINE
  5
B7
330
1F
100
AcDbEntity
  8
0
  6
Continuous
 62
     7
370
    15
100
AcDbLine
 10
4.2202433363
 20
5.7236819525
 30
0.0
 11
4.1859246192
 21
5.7236819528
 31
0.0
  0
SPLINE
  5
B8
330
1F
100
AcDbEntity
  8
0
  6
Continuous
 62
     7
370
    15
100
AcDbSpline
210
0.0
220
0.0
230
1.0
 70
     8
 71
     3
 72
    10
 73
     6
 74
     0
 42
0.000000001
 43
0.00000001
 40
0.0
 40
0.0
 40
0.0
 40
0.0
 40
0.3268376783955426
 40
0.6631067024620156
 40
1.0
 40
1.0
 40
1.0
 40
1.0
 10
4.220243336271119
 20
5.723681952546483
 30
0.0
 10
4.220804496552904
 20
5.719184590800403
 30
0.0
 10
4.221943010159515
 20
5.710060089819177
 30
0.0
 10
4.223083627025821
 20
5.696232822857399
 30
0.0
 10
4.223333783505739
 20
5.686900440158318
 30
0.0
 10
4.223458977740049
 20
5.682229921502601
 30
0.0
  0
SPLINE
  5
B9
330
1F
100
AcDbEntity
  8
0
  6
Continuous
 62
     7
370
    15
100
AcDbSpline
210
0.0
220
0.0
230
1.0
 70
     8
 71
     3
 72
    10
 73
     6
 74
     0
 42
0.000000001
 43
0.00000001
 40
0.0
 40
0.0
 40
0.0
 40
0.0
 40
0.4989887185931112
 40
0.7494000253149559
 40
1.0
 40
1.0
 40
1.0
 40
1.0
 10
4.223458977740049
 20
5.674923004029485
 30
0.0
 10
4.223232444427819
 20
5.668005352367167
 30
0.0
 10
4.222892228179248
 20
5.657616162917197
 30
0.0
 10
4.221554084854876
 20
5.643809999137173
 30
0.0
 10
4.220680362139539
 20
5.636918180130055
 30
0.0
 10
4.220243336271119
 20
5.633470972985602
 30
0.0
  0
LINE
  5
BA
330
1F
100
AcDbEntity
  8
0
  6
Continuous
 62
     7
370
    15
100
AcDbLine
 10
4.2202433363
 20
5.633470973
 30
0.0
 11
4.1859246192
 21
5.6334709731
 31
0.0
  0
SPLINE
  5
BB
330
1F
100
AcDbEntity
  8
0
  6
Continuous
 62
     7
370
    15
100
AcDbSpline
210
0.0
220
0.0
230
1.0
 70
     8
 71
     3
 72
    10
 73
     6
 74
     0
 42
0.000000001
 43
0.00000001
 40
0.0
 40
0.0
 40
0.0
 40
0.0
 40
0.3268376859012319
 40
0.6631067062360275
 40
1.0
 40
1.0
 40
1.0
 40
1.0
 10
4.185924619082119
 20
5.63347097393248
 30
0.0
 10
4.185363458810159
 20
5.637968335679833
 30
0.0
 10
4.184224945243149
 20
5.647092836506035
 30
0.0
 10
4.18308432843471
 20
5.660920103152552
 30
0.0
 10
4.182834171967829
 20
5.67025248553332
 30
0.0
 10
4.18270897774005
 20
5.674923004029488
 30
0.0
  0
SPLINE
  5
BC
330
1F
100
AcDbEntity
  8
0
  6
Continuous
 62
     7
370
    15
100
AcDbSpline
210
0.0
220
0.0
230
1.0
 70
     8
 71
     3
 72
    10
 73
     6
 74
     0
 42
0.000000001
 43
0.00000001
 40
0.0
 40
0.0
 40
0.0
 40
0.0
 40
0.3268376859029214
 40
0.6631067062368882
 40
1.0
 40
1.0
 40
1.0
 40
1.0
 10
4.185924619082089
 20
5.723681953020032
 30
0.0
 10
4.185363458810133
 20
5.725930633893708
 30
0.0
 10
4.18422494524313
 20
5.730492884306791
 30
0.0
 10
4.183084328434704
 20
5.737406517630007
 30
0.0
 10
4.182834171967827
 20
5.742072708820359
 30
0.0
 10
4.18270897774005
 20
5.744407968068427
 30
0.0
  0
LINE
  5
BD
330
1F
100
AcDbEntity
  8
0
  6
Continuous
 62
     7
370
    15
100
AcDbLine
 10
4.1827089777
 20
5.6822299215
 30
0.0
 11
4.1827089777
 21
5.7444079681
 31
0.0
  0
SPLINE
  5
BE
330
1F
100
AcDbEntity
  8
0
  6
Continuous
 62
     7
370
    15
100
AcDbSpline
210
0.0
220
0.0
230
1.0
 70
     8
 71
     3
 72
    10
 73
     6
 74
     0
 42
0.000000001
 43
0.00000001
 40
0.0
 40
0.0
 40
0.0
 40
0.0
 40
0.4989887185931081
 40
0.7494000253149548
 40
1.0
 40
1.0
 40
1.0
 40
1.0
 10
4.223458977740049
 20
5.744407968068427
 30
0.0
 10
4.223232444427819
 20
5.740949142237268
 30
0.0
 10
4.222892228179248
 20
5.735754547512282
 30
0.0
 10
4.221554084854876
 20
5.728851465622268
 30
0.0
 10
4.220680362139539
 20
5.72540555611871
 30
0.0
 10
4.220243336271119
 20
5.723681952546483
 30
0.0
  0
SPLINE
  5
BF
330
1F
100
AcDbEntity
  8
0
  6
Continuous
 62
     7
370
    15
100
AcDbSpline
210
0.0
220
0.0
230
1.0
 70
     8
 71
     3
 72
    10
 73
     6
 74
     0
 42
0.000000001
 43
0.00000001
 40
0.0
 40
0.0
 40
0.0
 40
0.0
 40
0.4989887185754803
 40
0.7494000253049454
 40
1.0
 40
1.0
 40
1.0
 40
1.0
 10
4.18270897774005
 20
5.612744957463656
 30
0.0
 10
4.182935511056279
 20
5.616203783332298
 30
0.0
 10
4.183275727310865
 20
5.62139837811369
 30
0.0
 10
4.184613870661117
 20
5.628301460078247
 30
0.0
 10
4.185487593392571
 20
5.631747369618973
 30
0.0
 10
4.185924619269054
 20
5.633470973209798
 30
0.0
  0
LINE
  5
C0
330
1F
100
AcDbEntity
  8
0
  6
Continuous
 62
     7
370
    15
100
AcDbLine
 10
4.1827089777
 20
5.6127449575
 30
0.0
 11
4.1827089777
 21
5.674923004
 31
0.0
  0
SPLINE
  5
C1
330
1F
100
AcDbEntity
  8
0
  6
Continuous
 62
     7
370
    15
100
AcDbSpline
210
0.0
220
0.0
230
1.0
 70
     8
 71
     3
 72
    10
 73
     6
 74
     0
 42
0.000000001
 43
0.00000001
 40
0.0
 40
0.0
 40
0.0
 40
0.0
 40
0.3268376783954841
 40
0.6631067024620031
 40
1.0
 40
1.0
 40
1.0
 40
1.0
 10
4.220243336271119
 20
5.633470972985602
 30
0.0
 10
4.220804496552904
 20
5.631222292112562
 30
0.0
 10
4.221943010159515
 20
5.626660041621948
 30
0.0
 10
4.22308362702582
 20
5.619746408141058
 30
0.0
 10
4.223333783505739
 20
5.615080216791516
 30
0.0
 10
4.223458977740049
 20
5.612744957463656
 30
0.0
  0
SPLINE
  5
C2
330
1F
100
AcDbEntity
  8
0
  6
Continuous
 62
     7
370
    15
100
AcDbSpline
210
0.0
220
0.0
230
1.0
 70
     8
 71
     3
 72
    10
 73
     6
 74
     0
 42
0.000000001
 43
0.00000001
 40
0.0
 40
0.0
 40
0.0
 40
0.0
 40
0.4989887185931065
 40
0.7494000253149553
 40
1.0
 40
1.0
 40
1.0
 40
1.0
 10
4.223458977740049
 20
5.609091498727108
 30
0.0
 10
4.223232444427819
 20
5.605632672895948
 30
0.0
 10
4.222892228179248
 20
5.600438078170963
 30
0.0
 10
4.221554084854876
 20
5.593534996280949
 30
0.0
 10
4.220680362139539
 20
5.59008908677739
 30
0.0
 10
4.220243336271119
 20
5.588365483205163
 30
0.0
  0
LINE
  5
C3
330
1F
100
AcDbEntity
  8
0
  6
Continuous
 62
     7
370
    15
100
AcDbLine
 10
4.1859246191
 20
5.5883654834
 30
0.0
 11
4.2202433363
 21
5.5883654832
 31
0.0
  0
SPLINE
  5
C4
330
1F
100
AcDbEntity
  8
0
  6
Continuous
 62
     7
370
    15
100
AcDbSpline
210
0.0
220
0.0
230
1.0
 70
     8
 71
     3
 72
    10
 73
     6
 74
     0
 42
0.000000001
 43
0.00000001
 40
0.0
 40
0.0
 40
0.0
 40
0.0
 40
0.3268376748115738
 40
0.6631067006599239
 40
1.0
 40
1.0
 40
1.0
 40
1.0
 10
4.185924619269554
 20
5.588365482979099
 30
0.0
 10
4.185363458983079
 20
5.590614163851836
 30
0.0
 10
4.184224945357558
 20
5.595176414379462
 30
0.0
 10
4.183084328463623
 20
5.602090047935625
 30
0.0
 10
4.182834171977478
 20
5.606756239361159
 30
0.0
 10
4.18270897774005
 20
5.609091498727108
 30
0.0
  0
LINE
  5
C5
330
1F
100
AcDbEntity
  8
0
  6
Continuous
 62
     7
370
    15
100
AcDbLine
 10
4.1827089777
 20
5.6090914987
 30
0.0
 11
4.1827089777
 21
5.6127449575
 31
0.0
  0
SPLINE
  5
C6
330
1F
100
AcDbEntity
  8
0
  6
Continuous
 62
     7
370
    15
100
AcDbSpline
210
0.0
220
0.0
230
1.0
 70
     8
 71
     3
 72
    10
 73
     6
 74
     0
 42
0.000000001
 43
0.00000001
 40
0.0
 40
0.0
 40
0.0
 40
0.0
 40
0.4989887185754732
 40
0.7494000253049453
 40
1.0
 40
1.0
 40
1.0
 40
1.0
 10
4.18270897774005
 20
5.748061426804975
 30
0.0
 10
4.18293551105628
 20
5.751520252673626
 30
0.0
 10
4.183275727310868
 20
5.756714847455031
 30
0.0
 10
4.184613870661126
 20
5.763617929419605
 30
0.0
 10
4.185487593392583
 20
5.767063838960341
 30
0.0
 10
4.185924619269068
 20
5.768787442551171
 30
0.0
  0
LINE
  5
C7
330
1F
100
AcDbEntity
  8
0
  6
Continuous
 62
     7
370
    15
100
AcDbLine
 10
4.2202433363
 20
5.7687874423
 30
0.0
 11
4.1859246192
 21
5.7687874424
 31
0.0
  0
SPLINE
  5
C8
330
1F
100
AcDbEntity
  8
0
  6
Continuous
 62
     7
370
    15
100
AcDbSpline
210
0.0
220
0.0
230
1.0
 70
     8
 71
     3
 72
    10
 73
     6
 74
     0
 42
0.000000001
 43
0.00000001
 40
0.0
 40
0.0
 40
0.0
 40
0.0
 40
0.3268376783954967
 40
0.663106702462011
 40
1.0
 40
1.0
 40
1.0
 40
1.0
 10
4.220243336271119
 20
5.768787442326921
 30
0.0
 10
4.220804496552904
 20
5.766538761453881
 30
0.0
 10
4.221943010159515
 20
5.761976510963267
 30
0.0
 10
4.223083627025821
 20
5.755062877482374
 30
0.0
 10
4.223333783505739
 20
5.750396686132834
 30
0.0
 10
4.223458977740049
 20
5.748061426804977
 30
0.0
  0
LINE
  5
C9
330
1F
100
AcDbEntity
  8
0
  6
Continuous
 62
     7
370
    15
100
AcDbLine
 10
4.1827089777
 20
5.7444079681
 30
0.0
 11
4.1827089777
 21
5.7480614268
 31
0.0
  0
LINE
  5
CA
330
1F
100
AcDbEntity
  8
0
  6
Continuous
 62
     7
370
    15
100
AcDbLine
 10
4.1827089777
 20
5.6003673932
 30
0.0
 11
4.1827089777
 21
5.6090914987
 31
0.0
  0
LINE
  5
CB
330
1F
100
AcDbEntity
  8
0
  6
Continuous
 62
     7
370
    15
100
AcDbLine
 10
4.1827089777
 20
5.7480614268
 30
0.0
 11
4.1827089777
 21
5.7567868418
 31
0.0
  0
LINE
  5
CC
330
1F
100
AcDbEntity
  8
0
  6
Continuous
 62
     7
370
    15
100
AcDbLine
 10
5.0103339777
 20
5.8048718342
 30
0.0
 11
4.8222089777
 21
5.8048718342
 31
0.0
  0
SPLINE
  5
CD
330
1F
100
AcDbEntity
  8
0
  6
Continuous
 62
     7
370
    15
100
AcDbSpline
210
0.0
220
0.0
230
1.0
 70
     8
 71
     3
 72
    11
 73
     7
 74
     0
 42
0.000000001
 43
0.00000001
 40
0.0
 40
0.0
 40
0.0
 40
0.0
 40
0.2646136140617534
 40
0.5349657669360356
 40
0.7653524252585204
 40
1.0
 40
1.0
 40
1.0
 40
1.0
 10
5.010333977986122
 20
5.804871833725064
 30
0.0
 10
5.013155648561084
 20
5.799390876789967
 30
0.0
 10
5.018860181823773
 20
5.788310100236863
 30
0.0
 10
5.020946707178314
 20
5.771892808529267
 30
0.0
 10
5.017883431396102
 20
5.756199386727721
 30
0.0
 10
5.012865787322185
 20
5.746578611893252
 30
0.0
 10
5.010333977986122
 20
5.741724148884867
 30
0.0
  0
LINE
  5
CE
330
1F
100
AcDbEntity
  8
0
  6
Continuous
 62
     7
370
    15
100
AcDbLine
 10
4.8222089777
 20
5.7417241485
 30
0.0
 11
5.0103339779
 21
5.7417241487
 31
0.0
  0
LINE
  5
CF
330
1F
100
AcDbEntity
  8
0
  6
Continuous
 62
     7
370
    15
100
AcDbLine
 10
4.8222089777
 20
5.7417241485
 30
0.0
 11
4.8222089777
 21
5.7421110491
 31
0.0
  0
LINE
  5
D0
330
1F
100
AcDbEntity
  8
0
  6
Continuous
 62
     7
370
    15
100
AcDbLine
 10
4.8222089777
 20
5.7421110491
 30
0.0
 11
4.8172089777
 21
5.7521753028
 31
0.0
  0
LINE
  5
D1
330
1F
100
AcDbEntity
  8
0
  6
Continuous
 62
     7
370
    15
100
AcDbLine
 10
4.8172089777
 20
5.7521753028
 30
0.0
 11
4.7751116301
 21
5.7521753028
 31
0.0
  0
SPLINE
  5
D2
330
1F
100
AcDbEntity
  8
0
  6
Continuous
 62
     7
370
    15
100
AcDbSpline
210
0.0
220
0.0
230
1.0
 70
     8
 71
     3
 72
    10
 73
     6
 74
     0
 42
0.000000001
 43
0.00000001
 40
0.0
 40
0.0
 40
0.0
 40
0.0
 40
0.3702926789854314
 40
0.7498059832618703
 40
1.0
 40
1.0
 40
1.0
 40
1.0
 10
4.775111630123018
 20
5.752175302819182
 30
0.0
 10
4.773363103660583
 20
5.757359678369167
 30
0.0
 10
4.769822510832722
 20
5.767857525146766
 30
0.0
 10
4.770675614374655
 20
5.782143262289235
 30
0.0
 10
4.773850278933504
 20
5.790929678846718
 30
0.0
 10
4.775111630122014
 20
5.79442067978936
 30
0.0
  0
LINE
  5
D3
330
1F
100
AcDbEntity
  8
0
  6
Continuous
 62
     7
370
    15
100
AcDbLine
 10
4.7751116301
 20
5.7944206798
 30
0.0
 11
4.8172089777
 21
5.7944206798
 31
0.0
  0
LINE
  5
D4
330
1F
100
AcDbEntity
  8
0
  6
Continuous
 62
     7
370
    15
100
AcDbLine
 10
4.8172089777
 20
5.7944206798
 30
0.0
 11
4.8222089777
 21
5.8044849335
 31
0.0
  0
LINE
  5
D5
330
1F
100
AcDbEntity
  8
0
  6
Continuous
 62
     7
370
    15
100
AcDbLine
 10
4.8222089777
 20
5.8044849335
 30
0.0
 11
4.8222089777
 21
5.8048718342
 31
0.0
  0
SPLINE
  5
D6
330
1F
100
AcDbEntity
  8
0
  6
Continuous
 62
     7
370
    15
100
AcDbSpline
210
0.0
220
0.0
230
1.0
 70
     8
 71
     3
 72
    11
 73
     7
 74
     0
 42
0.000000001
 43
0.00000001
 40
0.0
 40
0.0
 40
0.0
 40
0.0
 40
0.2646136127554464
 40
0.5349657642288485
 40
0.7653524238103031
 40
1.0
 40
1.0
 40
1.0
 40
1.0
 10
5.010333977645407
 20
5.741724148786511
 30
0.0
 10
5.01315564827881
 20
5.730762234877559
 30
0.0
 10
5.018860181658941
 20
5.708600681695738
 30
0.0
 10
5.020946707208741
 20
5.675766098041239
 30
0.0
 10
5.017883431501964
 20
5.644379254064863
 30
0.0
 10
5.012865787358277
 20
5.6251377040969
 30
0.0
 10
5.010333977986122
 20
5.615428777925845
 30
0.0
  0
LINE
  5
D7
330
1F
100
AcDbEntity
  8
0
  6
Continuous
 62
     7
370
    15
100
AcDbLine
 10
4.8222089777
 20
5.6154287771
 30
0.0
 11
5.0103339779
 21
5.6154287775
 31
0.0
  0
LINE
  5
D8
330
1F
100
AcDbEntity
  8
0
  6
Continuous
 62
     7
370
    15
100
AcDbLine
 10
4.8222089777
 20
5.6154287771
 30
0.0
 11
4.8222089777
 21
5.6162025784
 31
0.0
  0
LINE
  5
D9
330
1F
100
AcDbEntity
  8
0
  6
Continuous
 62
     7
370
    15
100
AcDbLine
 10
4.8222089777
 20
5.6162025784
 30
0.0
 11
4.8172089777
 21
5.6363310858
 31
0.0
  0
LINE
  5
DA
330
1F
100
AcDbEntity
  8
0
  6
Continuous
 62
     7
370
    15
100
AcDbLine
 10
4.8172089777
 20
5.6363310858
 30
0.0
 11
4.7751116301
 21
5.6363310858
 31
0.0
  0
SPLINE
  5
DB
330
1F
100
AcDbEntity
  8
0
  6
Continuous
 62
     7
370
    15
100
AcDbSpline
210
0.0
220
0.0
230
1.0
 70
     8
 71
     3
 72
    10
 73
     6
 74
     0
 42
0.000000001
 43
0.00000001
 40
0.0
 40
0.0
 40
0.0
 40
0.0
 40
0.3702926789854306
 40
0.7498059832618689
 40
1.0
 40
1.0
 40
1.0
 40
1.0
 10
4.775111630123018
 20
5.636331085797362
 30
0.0
 10
4.773363103660583
 20
5.646699836896113
 30
0.0
 10
4.769822510832722
 20
5.667695530448843
 30
0.0
 10
4.770675614374655
 20
5.696267004734705
 30
0.0
 10
4.773850278933504
 20
5.713839837849583
 30
0.0
 10
4.775111630122014
 20
5.720821839734833
 30
0.0
  0
LINE
  5
DC
330
1F
100
AcDbEntity
  8
0
  6
Continuous
 62
     7
370
    15
100
AcDbLine
 10
4.7751116301
 20
5.7208218397
 30
0.0
 11
4.8172089777
 21
5.7208218397
 31
0.0
  0
LINE
  5
DD
330
1F
100
AcDbEntity
  8
0
  6
Continuous
 62
     7
370
    15
100
AcDbLine
 10
4.8172089777
 20
5.7208218397
 30
0.0
 11
4.8222089777
 21
5.7409503471
 31
0.0
  0
LINE
  5
DE
330
1F
100
AcDbEntity
  8
0
  6
Continuous
 62
     7
370
    15
100
AcDbLine
 10
4.8222089777
 20
5.7409503471
 30
0.0
 11
4.8222089777
 21
5.7417241485
 31
0.0
  0
SPLINE
  5
DF
330
1F
100
AcDbEntity
  8
0
  6
Continuous
 62
     7
370
    15
100
AcDbSpline
210
0.0
220
0.0
230
1.0
 70
     8
 71
     3
 72
    11
 73
     7
 74
     0
 42
0.000000001
 43
0.00000001
 40
0.0
 40
0.0
 40
0.0
 40
0.0
 40
0.2646136134961531
 40
0.5349657659035725
 40
0.7653524246751661
 40
1.0
 40
1.0
 40
1.0
 40
1.0
 10
5.01033397742234
 20
5.615428777524813
 30
0.0
 10
5.013155648157824
 20
5.609947820431163
 30
0.0
 10
5.018860181746222
 20
5.598867043555215
 30
0.0
 10
5.020946707192618
 20
5.582449751808667
 30
0.0
 10
5.017883431479711
 20
5.566756329817535
 30
0.0
 10
5.012865787350671
 20
5.557135554872491
 30
0.0
 10
5.010333977986122
 20
5.55228109180702
 30
0.0
  0
LINE
  5
E0
330
1F
100
AcDbEntity
  8
0
  6
Continuous
 62
     7
370
    15
100
AcDbLine
 10
4.8222089777
 20
5.5522810914
 30
0.0
 11
5.0103339779
 21
5.5522810916
 31
0.0
  0
LINE
  5
E1
330
1F
100
AcDbEntity
  8
0
  6
Continuous
 62
     7
370
    15
100
AcDbLine
 10
4.8222089777
 20
5.5522810914
 30
0.0
 11
4.8222089777
 21
5.5526679921
 31
0.0
  0
LINE
  5
E2
330
1F
100
AcDbEntity
  8
0
  6
Continuous
 62
     7
370
    15
100
AcDbLine
 10
4.8222089777
 20
5.5526679921
 30
0.0
 11
4.8172089777
 21
5.5627322457
 31
0.0
  0
LINE
  5
E3
330
1F
100
AcDbEntity
  8
0
  6
Continuous
 62
     7
370
    15
100
AcDbLine
 10
4.8172089777
 20
5.5627322457
 30
0.0
 11
4.7751116301
 21
5.5627322457
 31
0.0
  0
SPLINE
  5
E4
330
1F
100
AcDbEntity
  8
0
  6
Continuous
 62
     7
370
    15
100
AcDbSpline
210
0.0
220
0.0
230
1.0
 70
     8
 71
     3
 72
    10
 73
     6
 74
     0
 42
0.000000001
 43
0.00000001
 40
0.0
 40
0.0
 40
0.0
 40
0.0
 40
0.3702926789854395
 40
0.7498059832618845
 40
1.0
 40
1.0
 40
1.0
 40
1.0
 10
4.775111630123018
 20
5.562732245744224
 30
0.0
 10
4.773363103660583
 20
5.56791662129299
 30
0.0
 10
4.769822510832722
 20
5.578414468068119
 30
0.0
 10
4.770675614374655
 20
5.592700205211513
 30
0.0
 10
4.773850278933504
 20
5.601486621768907
 30
0.0
 10
4.775111630122014
 20
5.604977622711514
 30
0.0
  0
LINE
  5
E5
330
1F
100
AcDbEntity
  8
0
  6
Continuous
 62
     7
370
    15
100
AcDbLine
 10
4.7751116301
 20
5.6049776227
 30
0.0
 11
4.8172089777
 21
5.6049776227
 31
0.0
  0
LINE
  5
E6
330
1F
100
AcDbEntity
  8
0
  6
Continuous
 62
     7
370
    15
100
AcDbLine
 10
4.8172089777
 20
5.6049776227
 30
0.0
 11
4.8222089777
 21
5.6150418764
 31
0.0
  0
LINE
  5
E7
330
1F
100
AcDbEntity
  8
0
  6
Continuous
 62
     7
370
    15
100
AcDbLine
 10
4.8222089777
 20
5.6150418764
 30
0.0
 11
4.8222089777
 21
5.6154287771
 31
0.0
  0
LINE
  5
E8
330
1F
100
AcDbEntity
  8
0
  6
Continuous
 62
     7
370
    15
100
AcDbLine
 10
4.8172089777
 20
5.7521753028
 30
0.0
 11
4.8172089777
 21
5.7208218397
 31
0.0
  0
LINE
  5
E9
330
1F
100
AcDbEntity
  8
0
  6
Continuous
 62
     7
370
    15
100
AcDbLine
 10
4.7751116301
 20
5.7208218397
 30
0.0
 11
4.7751116301
 21
5.7521753028
 31
0.0
  0
LINE
  5
EA
330
1F
100
AcDbEntity
  8
0
  6
Continuous
 62
     7
370
    15
100
AcDbLine
 10
5.0203339778
 20
5.6785764628
 30
0.0
 11
5.0203339778
 21
5.5696015994
 31
0.0
  0
LINE
  5
EB
330
1F
100
AcDbEntity
  8
0
  6
Continuous
 62
     7
370
    15
100
AcDbLine
 10
5.0203339778
 20
5.7875513261
 30
0.0
 11
5.0203339778
 21
5.6785764628
 31
0.0
  0
LINE
  5
EC
330
1F
100
AcDbEntity
  8
0
  6
Continuous
 62
     7
370
    15
100
AcDbLine
 10
4.8172089777
 20
5.6363310858
 30
0.0
 11
4.8172089777
 21
5.6049776227
 31
0.0
  0
LINE
  5
ED
330
1F
100
AcDbEntity
  8
0
  6
Continuous
 62
     7
370
    15
100
AcDbLine
 10
4.7751116301
 20
5.6049776227
 30
0.0
 11
4.7751116301
 21
5.6363310858
 31
0.0
  0
LINE
  5
EE
330
1F
100
AcDbEntity
  8
0
  6
Continuous
 62
     7
370
    15
100
AcDbLine
 10
4.7751116301
 20
5.5613264628
 30
0.0
 11
4.7751116301
 21
5.5627322457
 31
0.0
  0
LINE
  5
EF
330
1F
100
AcDbEntity
  8
0
  6
Continuous
 62
     7
370
    15
100
AcDbLine
 10
4.7751116301
 20
5.7944206798
 30
0.0
 11
4.7751116301
 21
5.7958264628
 31
0.0
  0
LINE
  5
F0
330
1F
100
AcDbEntity
  8
0
  6
Continuous
 62
     7
370
    15
100
AcDbLine
 10
4.8172089777
 20
5.7944206798
 30
0.0
 11
4.8172089777
 21
5.7958264628
 31
0.0
  0
LINE
  5
F1
330
1F
100
AcDbEntity
  8
0
  6
Continuous
 62
     7
370
    15
100
AcDbLine
 10
4.8172089777
 20
5.5627322457
 30
0.0
 11
4.8172089777
 21
5.5613264628
 31
0.0
  0
LINE
  5
F2
330
1F
100
AcDbEntity
  8
0
  6
Continuous
 62
     7
370
    15
100
AcDbLine
 10
5.0103339777
 20
7.5548718342
 30
0.0
 11
4.8222089777
 21
7.5548718342
 31
0.0
  0
SPLINE
  5
F3
330
1F
100
AcDbEntity
  8
0
  6
Continuous
 62
     7
370
    15
100
AcDbSpline
210
0.0
220
0.0
230
1.0
 70
     8
 71
     3
 72
    11
 73
     7
 74
     0
 42
0.000000001
 43
0.00000001
 40
0.0
 40
0.0
 40
0.0
 40
0.0
 40
0.2646136140617534
 40
0.5349657669360356
 40
0.7653524252585204
 40
1.0
 40
1.0
 40
1.0
 40
1.0
 10
5.010333977986122
 20
7.554871833725064
 30
0.0
 10
5.013155648561084
 20
7.549390876789967
 30
0.0
 10
5.018860181823773
 20
7.538310100236862
 30
0.0
 10
5.020946707178314
 20
7.521892808529267
 30
0.0
 10
5.017883431396102
 20
7.506199386727721
 30
0.0
 10
5.012865787322185
 20
7.496578611893252
 30
0.0
 10
5.010333977986122
 20
7.491724148884868
 30
0.0
  0
LINE
  5
F4
330
1F
100
AcDbEntity
  8
0
  6
Continuous
 62
     7
370
    15
100
AcDbLine
 10
4.8222089777
 20
7.4917241485
 30
0.0
 11
5.0103339779
 21
7.4917241487
 31
0.0
  0
LINE
  5
F5
330
1F
100
AcDbEntity
  8
0
  6
Continuous
 62
     7
370
    15
100
AcDbLine
 10
4.8222089777
 20
7.4921110491
 30
0.0
 11
4.8172089777
 21
7.5021753028
 31
0.0
  0
LINE
  5
F6
330
1F
100
AcDbEntity
  8
0
  6
Continuous
 62
     7
370
    15
100
AcDbLine
 10
4.8172089777
 20
7.5021753028
 30
0.0
 11
4.7751116301
 21
7.5021753028
 31
0.0
  0
SPLINE
  5
F7
330
1F
100
AcDbEntity
  8
0
  6
Continuous
 62
     7
370
    15
100
AcDbSpline
210
0.0
220
0.0
230
1.0
 70
     8
 71
     3
 72
    10
 73
     6
 74
     0
 42
0.000000001
 43
0.00000001
 40
0.0
 40
0.0
 40
0.0
 40
0.0
 40
0.3702926789854314
 40
0.7498059832618703
 40
1.0
 40
1.0
 40
1.0
 40
1.0
 10
4.775111630123018
 20
7.502175302819182
 30
0.0
 10
4.773363103660583
 20
7.507359678369167
 30
0.0
 10
4.769822510832722
 20
7.517857525146767
 30
0.0
 10
4.770675614374655
 20
7.532143262289234
 30
0.0
 10
4.773850278933504
 20
7.540929678846718
 30
0.0
 10
4.775111630122014
 20
7.54442067978936
 30
0.0
  0
LINE
  5
F8
330
1F
100
AcDbEntity
  8
0
  6
Continuous
 62
     7
370
    15
100
AcDbLine
 10
4.7751116301
 20
7.5444206798
 30
0.0
 11
4.8172089777
 21
7.5444206798
 31
0.0
  0
LINE
  5
F9
330
1F
100
AcDbEntity
  8
0
  6
Continuous
 62
     7
370
    15
100
AcDbLine
 10
4.8172089777
 20
7.5444206798
 30
0.0
 11
4.8222089777
 21
7.5544849335
 31
0.0
  0
LINE
  5
FA
330
1F
100
AcDbEntity
  8
0
  6
Continuous
 62
     7
370
    15
100
AcDbLine
 10
4.8222089777
 20
7.5544849335
 30
0.0
 11
4.8222089777
 21
7.5548718342
 31
0.0
  0
LINE
  5
FB
330
1F
100
AcDbEntity
  8
0
  6
Continuous
 62
     7
370
    15
100
AcDbLine
 10
4.8222089777
 20
7.4917241485
 30
0.0
 11
4.8222089777
 21
7.4921110491
 31
0.0
  0
SPLINE
  5
FC
330
1F
100
AcDbEntity
  8
0
  6
Continuous
 62
     7
370
    15
100
AcDbSpline
210
0.0
220
0.0
230
1.0
 70
     8
 71
     3
 72
    11
 73
     7
 74
     0
 42
0.000000001
 43
0.00000001
 40
0.0
 40
0.0
 40
0.0
 40
0.0
 40
0.2646136127554464
 40
0.5349657642288485
 40
0.7653524238103031
 40
1.0
 40
1.0
 40
1.0
 40
1.0
 10
5.010333977645407
 20
7.491724148786511
 30
0.0
 10
5.01315564827881
 20
7.480762234877559
 30
0.0
 10
5.018860181658941
 20
7.458600681695738
 30
0.0
 10
5.020946707208741
 20
7.42576609804124
 30
0.0
 10
5.017883431501964
 20
7.394379254064863
 30
0.0
 10
5.012865787358277
 20
7.375137704096901
 30
0.0
 10
5.010333977986122
 20
7.365428777925846
 30
0.0
  0
LINE
  5
FD
330
1F
100
AcDbEntity
  8
0
  6
Continuous
 62
     7
370
    15
100
AcDbLine
 10
4.8222089777
 20
7.3654287771
 30
0.0
 11
5.0103339779
 21
7.3654287775
 31
0.0
  0
LINE
  5
FE
330
1F
100
AcDbEntity
  8
0
  6
Continuous
 62
     7
370
    15
100
AcDbLine
 10
4.8222089777
 20
7.3654287771
 30
0.0
 11
4.8222089777
 21
7.3662025784
 31
0.0
  0
LINE
  5
FF
330
1F
100
AcDbEntity
  8
0
  6
Continuous
 62
     7
370
    15
100
AcDbLine
 10
4.8222089777
 20
7.3662025784
 30
0.0
 11
4.8172089777
 21
7.3863310858
 31
0.0
  0
LINE
  5
100
330
1F
100
AcDbEntity
  8
0
  6
Continuous
 62
     7
370
    15
100
AcDbLine
 10
4.8172089777
 20
7.3863310858
 30
0.0
 11
4.7751116301
 21
7.3863310858
 31
0.0
  0
SPLINE
  5
101
330
1F
100
AcDbEntity
  8
0
  6
Continuous
 62
     7
370
    15
100
AcDbSpline
210
0.0
220
0.0
230
1.0
 70
     8
 71
     3
 72
    10
 73
     6
 74
     0
 42
0.000000001
 43
0.00000001
 40
0.0
 40
0.0
 40
0.0
 40
0.0
 40
0.3702926789854306
 40
0.7498059832618689
 40
1.0
 40
1.0
 40
1.0
 40
1.0
 10
4.775111630123018
 20
7.386331085797362
 30
0.0
 10
4.773363103660583
 20
7.396699836896114
 30
0.0
 10
4.769822510832722
 20
7.417695530448842
 30
0.0
 10
4.770675614374655
 20
7.446267004734706
 30
0.0
 10
4.773850278933504
 20
7.463839837849582
 30
0.0
 10
4.775111630122014
 20
7.470821839734833
 30
0.0
  0
LINE
  5
102
330
1F
100
AcDbEntity
  8
0
  6
Continuous
 62
     7
370
    15
100
AcDbLine
 10
4.7751116301
 20
7.4708218397
 30
0.0
 11
4.8172089777
 21
7.4708218397
 31
0.0
  0
LINE
  5
103
330
1F
100
AcDbEntity
  8
0
  6
Continuous
 62
     7
370
    15
100
AcDbLine
 10
4.8172089777
 20
7.4708218397
 30
0.0
 11
4.8222089777
 21
7.4909503471
 31
0.0
  0
LINE
  5
104
330
1F
100
AcDbEntity
  8
0
  6
Continuous
 62
     7
370
    15
100
AcDbLine
 10
4.8222089777
 20
7.4909503471
 30
0.0
 11
4.8222089777
 21
7.4917241485
 31
0.0
  0
SPLINE
  5
105
330
1F
100
AcDbEntity
  8
0
  6
Continuous
 62
     7
370
    15
100
AcDbSpline
210
0.0
220
0.0
230
1.0
 70
     8
 71
     3
 72
    11
 73
     7
 74
     0
 42
0.000000001
 43
0.00000001
 40
0.0
 40
0.0
 40
0.0
 40
0.0
 40
0.2646136134961531
 40
0.5349657659035725
 40
0.7653524246751661
 40
1.0
 40
1.0
 40
1.0
 40
1.0
 10
5.01033397742234
 20
7.365428777524814
 30
0.0
 10
5.013155648157824
 20
7.359947820431163
 30
0.0
 10
5.018860181746222
 20
7.348867043555216
 30
0.0
 10
5.020946707192618
 20
7.332449751808666
 30
0.0
 10
5.017883431479711
 20
7.316756329817535
 30
0.0
 10
5.012865787350671
 20
7.307135554872492
 30
0.0
 10
5.010333977986122
 20
7.302281091807021
 30
0.0
  0
LINE
  5
106
330
1F
100
AcDbEntity
  8
0
  6
Continuous
 62
     7
370
    15
100
AcDbLine
 10
4.8222089777
 20
7.3022810914
 30
0.0
 11
5.0103339779
 21
7.3022810916
 31
0.0
  0
LINE
  5
107
330
1F
100
AcDbEntity
  8
0
  6
Continuous
 62
     7
370
    15
100
AcDbLine
 10
4.8222089777
 20
7.3022810914
 30
0.0
 11
4.8222089777
 21
7.3026679921
 31
0.0
  0
LINE
  5
108
330
1F
100
AcDbEntity
  8
0
  6
Continuous
 62
     7
370
    15
100
AcDbLine
 10
4.8222089777
 20
7.3026679921
 30
0.0
 11
4.8172089777
 21
7.3127322457
 31
0.0
  0
LINE
  5
109
330
1F
100
AcDbEntity
  8
0
  6
Continuous
 62
     7
370
    15
100
AcDbLine
 10
4.8172089777
 20
7.3127322457
 30
0.0
 11
4.7751116301
 21
7.3127322457
 31
0.0
  0
SPLINE
  5
10A
330
1F
100
AcDbEntity
  8
0
  6
Continuous
 62
     7
370
    15
100
AcDbSpline
210
0.0
220
0.0
230
1.0
 70
     8
 71
     3
 72
    10
 73
     6
 74
     0
 42
0.000000001
 43
0.00000001
 40
0.0
 40
0.0
 40
0.0
 40
0.0
 40
0.3702926789854395
 40
0.7498059832618845
 40
1.0
 40
1.0
 40
1.0
 40
1.0
 10
4.775111630123018
 20
7.312732245744223
 30
0.0
 10
4.773363103660583
 20
7.317916621292989
 30
0.0
 10
4.769822510832722
 20
7.32841446806812
 30
0.0
 10
4.770675614374655
 20
7.342700205211513
 30
0.0
 10
4.773850278933504
 20
7.351486621768908
 30
0.0
 10
4.775111630122014
 20
7.354977622711515
 30
0.0
  0
LINE
  5
10B
330
1F
100
AcDbEntity
  8
0
  6
Continuous
 62
     7
370
    15
100
AcDbLine
 10
4.7751116301
 20
7.3549776227
 30
0.0
 11
4.8172089777
 21
7.3549776227
 31
0.0
  0
LINE
  5
10C
330
1F
100
AcDbEntity
  8
0
  6
Continuous
 62
     7
370
    15
100
AcDbLine
 10
4.8172089777
 20
7.3549776227
 30
0.0
 11
4.8222089777
 21
7.3650418764
 31
0.0
  0
LINE
  5
10D
330
1F
100
AcDbEntity
  8
0
  6
Continuous
 62
     7
370
    15
100
AcDbLine
 10
4.8222089777
 20
7.3650418764
 30
0.0
 11
4.8222089777
 21
7.3654287771
 31
0.0
  0
LINE
  5
10E
330
1F
100
AcDbEntity
  8
0
  6
Continuous
 62
     7
370
    15
100
AcDbLine
 10
4.7751116301
 20
7.4708218397
 30
0.0
 11
4.7751116301
 21
7.5021753028
 31
0.0
  0
LINE
  5
10F
330
1F
100
AcDbEntity
  8
0
  6
Continuous
 62
     7
370
    15
100
AcDbLine
 10
4.7751116301
 20
7.3549776227
 30
0.0
 11
4.7751116301
 21
7.3863310858
 31
0.0
  0
LINE
  5
110
330
1F
100
AcDbEntity
  8
0
  6
Continuous
 62
     7
370
    15
100
AcDbLine
 10
4.7751116301
 20
7.3113264628
 30
0.0
 11
4.7751116301
 21
7.3127322457
 31
0.0
  0
LINE
  5
111
330
1F
100
AcDbEntity
  8
0
  6
Continuous
 62
     7
370
    15
100
AcDbLine
 10
4.7751116301
 20
7.5444206798
 30
0.0
 11
4.7751116301
 21
7.5458264628
 31
0.0
  0
LINE
  5
112
330
1F
100
AcDbEntity
  8
0
  6
Continuous
 62
     7
370
    15
100
AcDbLine
 10
4.8172089777
 20
7.5021753028
 30
0.0
 11
4.8172089777
 21
7.4708218397
 31
0.0
  0
LINE
  5
113
330
1F
100
AcDbEntity
  8
0
  6
Continuous
 62
     7
370
    15
100
AcDbLine
 10
4.8172089777
 20
7.3863310858
 30
0.0
 11
4.8172089777
 21
7.3549776227
 31
0.0
  0
LINE
  5
114
330
1F
100
AcDbEntity
  8
0
  6
Continuous
 62
     7
370
    15
100
AcDbLine
 10
5.0203339778
 20
7.4285764628
 30
0.0
 11
5.0203339778
 21
7.3196015994
 31
0.0
  0
LINE
  5
115
330
1F
100
AcDbEntity
  8
0
  6
Continuous
 62
     7
370
    15
100
AcDbLine
 10
5.0203339778
 20
7.5375513261
 30
0.0
 11
5.0203339778
 21
7.4285764628
 31
0.0
  0
LINE
  5
116
330
1F
100
AcDbEntity
  8
0
  6
Continuous
 62
     7
370
    15
100
AcDbLine
 10
4.8172089777
 20
7.5444206798
 30
0.0
 11
4.8172089777
 21
7.5458264628
 31
0.0
  0
LINE
  5
117
330
1F
100
AcDbEntity
  8
0
  6
Continuous
 62
     7
370
    15
100
AcDbLine
 10
4.8172089777
 20
7.3127322457
 30
0.0
 11
4.8172089777
 21
7.3113264628
 31
0.0
  0
LINE
  5
118
330
1F
100
AcDbEntity
  8
0
  6
Continuous
 62
     7
370
    15
100
AcDbLine
 10
4.0923339777
 20
5.8163264628
 30
0.0
 11
4.0923339777
 21
5.5408264628
 31
0.0
  0
LINE
  5
119
330
1F
100
AcDbEntity
  8
0
  6
Continuous
 62
     7
370
    15
100
AcDbLine
 10
3.9103339777
 20
5.8085764628
 30
0.0
 11
3.9103339777
 21
5.5485764628
 31
0.0
  0
SPLINE
  5
11A
330
1F
100
AcDbEntity
  8
0
  6
Continuous
 62
     7
370
    15
100
AcDbSpline
210
0.0
220
0.0
230
1.0
 70
     8
 71
     3
 72
     9
 73
     5
 74
     0
 42
0.000000001
 43
0.00000001
 40
0.0
 40
0.0
 40
0.0
 40
0.0
 40
0.4774734509844833
 40
1.0
 40
1.0
 40
1.0
 40
1.0
 10
4.391074364584643
 20
5.803576462766043
 30
0.0
 10
4.392246928471023
 20
5.798775180534928
 30
0.0
 10
4.39470269618745
 20
5.788719580121514
 30
0.0
 10
4.39511732380298
 20
5.778590634372409
 30
0.0
 10
4.39533397774005
 20
5.773297991304965
 30
0.0
  0
SPLINE
  5
11B
330
1F
100
AcDbEntity
  8
0
  6
Continuous
 62
     7
370
    15
100
AcDbSpline
210
0.0
220
0.0
230
1.0
 70
     8
 71
     3
 72
     9
 73
     5
 74
     0
 42
0.000000001
 43
0.00000001
 40
0.0
 40
0.0
 40
0.0
 40
0.0
 40
0.4987908232982297
 40
1.0
 40
1.0
 40
1.0
 40
1.0
 10
4.39533397774005
 20
5.773297991304965
 30
0.0
 10
4.39511167927425
 20
5.768029351773018
 30
0.0
 10
4.394666004543651
 20
5.757466528068469
 30
0.0
 10
4.392090862589315
 20
5.746980061521287
 30
0.0
 10
4.390800177810492
 20
5.741724148256663
 30
0.0
  0
LINE
  5
11C
330
1F
100
AcDbEntity
  8
0
  6
Continuous
 62
     7
370
    15
100
AcDbLine
 10
4.2332279587
 20
5.7417241485
 30
0.0
 11
4.3908001779
 21
5.741724148
 31
0.0
  0
SPLINE
  5
11D
330
1F
100
AcDbEntity
  8
0
  6
Continuous
 62
     7
370
    15
100
AcDbSpline
210
0.0
220
0.0
230
1.0
 70
     8
 71
     3
 72
     9
 73
     5
 74
     0
 42
0.000000001
 43
0.00000001
 40
0.0
 40
0.0
 40
0.0
 40
0.0
 40
0.495457963455996
 40
1.0
 40
1.0
 40
1.0
 40
1.0
 10
4.233227958736005
 20
5.741724148466139
 30
0.0
 10
4.23049754793879
 20
5.746851879347749
 30
0.0
 10
4.224986665081708
 20
5.757201356518007
 30
0.0
 10
4.223971281460279
 20
5.767900050470044
 30
0.0
 10
4.223458977740049
 20
5.773297991304965
 30
0.0
  0
SPLINE
  5
11E
330
1F
100
AcDbEntity
  8
0
  6
Continuous
 62
     7
370
    15
100
AcDbSpline
210
0.0
220
0.0
230
1.0
 70
     8
 71
     3
 72
     9
 73
     5
 74
     0
 42
0.000000001
 43
0.00000001
 40
0.0
 40
0.0
 40
0.0
 40
0.0
 40
0.4945107285003942
 40
1.0
 40
1.0
 40
1.0
 40
1.0
 10
4.223458977740049
 20
5.773297991304965
 30
0.0
 10
4.223951241163916
 20
5.778588557308212
 30
0.0
 10
4.224946696662647
 20
5.789287144211049
 30
0.0
 10
4.230447408114663
 20
5.799639054538207
 30
0.0
 10
4.233227958739271
 20
5.804871834148112
 30
0.0
  0
LINE
  5
11F
330
1F
100
AcDbEntity
  8
0
  6
Continuous
 62
     7
370
    15
100
AcDbLine
 10
4.3706011066
 20
5.8048718339
 30
0.0
 11
4.2332279587
 21
5.8048718341
 31
0.0
  0
SPLINE
  5
120
330
1F
100
AcDbEntity
  8
0
  6
Continuous
 62
     7
370
    15
100
AcDbSpline
210
0.0
220
0.0
230
1.0
 70
     8
 71
     3
 72
     9
 73
     5
 74
     0
 42
0.000000001
 43
0.00000001
 40
0.0
 40
0.0
 40
0.0
 40
0.0
 40
0.4989631660173267
 40
1.0
 40
1.0
 40
1.0
 40
1.0
 10
4.390800177997791
 20
5.741724147504712
 30
0.0
 10
4.392085679294674
 20
5.731259550588931
 30
0.0
 10
4.394662024372695
 20
5.710286866373968
 30
0.0
 10
4.39510968385189
 20
5.689161199841329
 30
0.0
 10
4.395333977740049
 20
5.678576462766042
 30
0.0
  0
SPLINE
  5
121
330
1F
100
AcDbEntity
  8
0
  6
Continuous
 62
     7
370
    15
100
AcDbSpline
210
0.0
220
0.0
230
1.0
 70
     8
 71
     3
 72
     9
 73
     5
 74
     0
 42
0.000000001
 43
0.00000001
 40
0.0
 40
0.0
 40
0.0
 40
0.0
 40
0.4987908232982293
 40
1.0
 40
1.0
 40
1.0
 40
1.0
 10
4.395333977740049
 20
5.678576462766042
 30
0.0
 10
4.39511167927425
 20
5.668039183702149
 30
0.0
 10
4.394666004543651
 20
5.64691353629305
 30
0.0
 10
4.392090862589315
 20
5.625940603198686
 30
0.0
 10
4.390800177810492
 20
5.61542877666944
 30
0.0
  0
LINE
  5
122
330
1F
100
AcDbEntity
  8
0
  6
Continuous
 62
     7
370
    15
100
AcDbLine
 10
4.3908001779
 20
5.6154287768
 30
0.0
 11
4.2332279587
 21
5.6154287771
 31
0.0
  0
SPLINE
  5
123
330
1F
100
AcDbEntity
  8
0
  6
Continuous
 62
     7
370
    15
100
AcDbSpline
210
0.0
220
0.0
230
1.0
 70
     8
 71
     3
 72
     9
 73
     5
 74
     0
 42
0.000000001
 43
0.00000001
 40
0.0
 40
0.0
 40
0.0
 40
0.0
 40
0.4954579634559958
 40
1.0
 40
1.0
 40
1.0
 40
1.0
 10
4.233227958736005
 20
5.61542877707975
 30
0.0
 10
4.23049754793879
 20
5.625684238846564
 30
0.0
 10
4.224986665081708
 20
5.646383193194334
 30
0.0
 10
4.223971281460279
 20
5.667780581096939
 30
0.0
 10
4.223458977740049
 20
5.678576462766041
 30
0.0
  0
SPLINE
  5
124
330
1F
100
AcDbEntity
  8
0
  6
Continuous
 62
     7
370
    15
100
AcDbSpline
210
0.0
220
0.0
230
1.0
 70
     8
 71
     3
 72
     9
 73
     5
 74
     0
 42
0.000000001
 43
0.00000001
 40
0.0
 40
0.0
 40
0.0
 40
0.0
 40
0.4945107285003937
 40
0.9999999999999999
 40
0.9999999999999999
 40
0.9999999999999999
 40
0.9999999999999999
 10
4.223458977740049
 20
5.678576462766041
 30
0.0
 10
4.223951241163916
 20
5.689157594772535
 30
0.0
 10
4.224946696662648
 20
5.710554768578209
 30
0.0
 10
4.230447408114663
 20
5.731258589232525
 30
0.0
 10
4.233227958739271
 20
5.741724148452334
 30
0.0
  0
SPLINE
  5
125
330
1F
100
AcDbEntity
  8
0
  6
Continuous
 62
     7
370
    15
100
AcDbSpline
210
0.0
220
0.0
230
1.0
 70
     8
 71
     3
 72
     9
 73
     5
 74
     0
 42
0.000000001
 43
0.00000001
 40
0.0
 40
0.0
 40
0.0
 40
0.0
 40
0.498963166017327
 40
1.0
 40
1.0
 40
1.0
 40
1.0
 10
4.390800177997791
 20
5.615428776590663
 30
0.0
 10
4.392085679294674
 20
5.610196478135186
 30
0.0
 10
4.394662024372695
 20
5.599710136032537
 30
0.0
 10
4.395109683851891
 20
5.589147302765248
 30
0.0
 10
4.39533397774005
 20
5.58385493422712
 30
0.0
  0
LINE
  5
126
330
1F
100
AcDbEntity
  8
0
  6
Continuous
 62
     7
370
    15
100
AcDbLine
 10
4.2234589777
 20
5.7732979913
 30
0.0
 11
4.2234589777
 21
5.6785764628
 31
0.0
  0
SPLINE
  5
127
330
1F
100
AcDbEntity
  8
0
  6
Continuous
 62
     7
370
    15
100
AcDbSpline
210
0.0
220
0.0
230
1.0
 70
     8
 71
     3
 72
     9
 73
     5
 74
     0
 42
0.000000001
 43
0.00000001
 40
0.0
 40
0.0
 40
0.0
 40
0.0
 40
0.494510728500394
 40
1.0
 40
1.0
 40
1.0
 40
1.0
 10
4.223458977740049
 20
5.58385493422712
 30
0.0
 10
4.223951241163916
 20
5.589145500230366
 30
0.0
 10
4.224946696662647
 20
5.599844087133202
 30
0.0
 10
4.230447408114663
 20
5.610195997460361
 30
0.0
 10
4.233227958739271
 20
5.615428777070265
 30
0.0
  0
LINE
  5
128
330
1F
100
AcDbEntity
  8
0
  6
Continuous
 62
     7
370
    15
100
AcDbLine
 10
4.2234589777
 20
5.6785764628
 30
0.0
 11
4.2234589777
 21
5.5838549342
 31
0.0
  0
SPLINE
  5
129
330
1F
100
AcDbEntity
  8
0
  6
Continuous
 62
     7
370
    15
100
AcDbSpline
210
0.0
220
0.0
230
1.0
 70
     8
 71
     3
 72
     9
 73
     5
 74
     0
 42
0.000000001
 43
0.00000001
 40
0.0
 40
0.0
 40
0.0
 40
0.0
 40
0.498790823319233
 40
1.0
 40
1.0
 40
1.0
 40
1.0
 10
4.39533397774005
 20
5.58385493422712
 30
0.0
 10
4.395111679279349
 20
5.578586294751931
 30
0.0
 10
4.394666004558992
 20
5.568023471161617
 30
0.0
 10
4.392090862654995
 20
5.557537004726525
 30
0.0
 10
4.390800177901457
 20
5.552281091518302
 30
0.0
  0
LINE
  5
12A
330
1F
100
AcDbEntity
  8
0
  6
Continuous
 62
     7
370
    15
100
AcDbLine
 10
4.3908001779
 20
5.5522810914
 30
0.0
 11
4.2332279587
 21
5.5522810914
 31
0.0
  0
SPLINE
  5
12B
330
1F
100
AcDbEntity
  8
0
  6
Continuous
 62
     7
370
    15
100
AcDbSpline
210
0.0
220
0.0
230
1.0
 70
     8
 71
     3
 72
     9
 73
     5
 74
     0
 42
0.000000001
 43
0.00000001
 40
0.0
 40
0.0
 40
0.0
 40
0.0
 40
0.4954579634559958
 40
1.0
 40
1.0
 40
1.0
 40
1.0
 10
4.233227958736005
 20
5.552281091379652
 30
0.0
 10
4.23049754793879
 20
5.557408822264857
 30
0.0
 10
4.224986665081708
 20
5.567758299442369
 30
0.0
 10
4.223971281460279
 20
5.578456993392938
 30
0.0
 10
4.223458977740049
 20
5.58385493422712
 30
0.0
  0
LINE
  5
12C
330
1F
100
AcDbEntity
  8
0
  6
Continuous
 62
     7
370
    15
100
AcDbLine
 10
4.2234589777
 20
5.7879514628
 30
0.0
 11
4.2234589777
 21
5.7732979913
 31
0.0
  0
LINE
  5
12D
330
1F
100
AcDbEntity
  8
0
  6
Continuous
 62
     7
370
    15
100
AcDbLine
 10
4.2234589777
 20
5.5838549342
 30
0.0
 11
4.2234589777
 21
5.5692014628
 31
0.0
  0
LINE
  5
12E
330
1F
100
AcDbEntity
  8
0
  6
Continuous
 62
     7
370
    15
100
AcDbLine
 10
4.7703339777
 20
5.8035764628
 30
0.0
 11
4.7703339777
 21
5.5535764628
 31
0.0
  0
LINE
  5
12F
330
1F
100
AcDbEntity
  8
0
  6
Continuous
 62
     7
370
    15
100
AcDbLine
 10
4.7703339777
 20
5.5535764628
 30
0.0
 11
4.3953339777
 21
5.5535764628
 31
0.0
  0
LINE
  5
130
330
1F
100
AcDbEntity
  8
0
  6
Continuous
 62
     7
370
    15
100
AcDbLine
 10
4.3953339777
 20
5.5535764628
 30
0.0
 11
4.3953339777
 21
5.8035764628
 31
0.0
  0
CIRCLE
  5
131
330
1F
100
AcDbEntity
  8
0
  6
Continuous
 62
     7
370
    15
100
AcDbCircle
 10
4.7078339777
 20
5.8660764628
 30
0.0
 40
0.020575000006847
  0
CIRCLE
  5
132
330
1F
100
AcDbEntity
  8
0
  6
Continuous
 62
     7
370
    15
100
AcDbCircle
 10
4.4578339777
 20
5.8660764628
 30
0.0
 40
0.020575000006847
  0
SPLINE
  5
133
330
1F
100
AcDbEntity
  8
0
  6
Continuous
 62
     7
370
    15
100
AcDbSpline
210
0.0
220
0.0
230
1.0
 70
     8
 71
     3
 72
    10
 73
     6
 74
     0
 42
0.000000001
 43
0.00000001
 40
0.0
 40
0.0
 40
0.0
 40
0.0
 40
0.4925038256239663
 40
0.9881466173019081
 40
1.0
 40
1.0
 40
1.0
 40
1.0
 10
4.707833977740049
 20
5.845501462766042
 30
0.0
 10
4.710365157289766
 20
5.845806885549204
 30
0.0
 10
4.715443648825683
 20
5.846419677723247
 30
0.0
 10
4.720501624041915
 20
5.849192173640993
 30
0.0
 10
4.722475216219229
 20
5.851641592246464
 30
0.0
 10
4.722521312612757
 20
5.851698802325248
 30
0.0
  0
LINE
  5
134
330
1F
100
AcDbEntity
  8
0
  6
Continuous
 62
     7
370
    15
100
AcDbLine
 10
4.711997462
 20
5.8858573049
 30
0.0
 11
4.7078339777
 21
5.8866514628
 31
0.0
  0
LINE
  5
135
330
1F
100
AcDbEntity
  8
0
  6
Continuous
 62
     7
370
    15
100
AcDbLine
 10
6.5682340065
 20
7.6395139626
 30
0.0
 11
6.5678392969
 21
7.6394082004
 31
0.0
  0
SPLINE
  5
136
330
1F
100
AcDbEntity
  8
0
  6
Continuous
 62
     7
370
    15
100
AcDbSpline
210
0.0
220
0.0
230
1.0
 70
     8
 71
     3
 72
    11
 73
     7
 74
     0
 42
0.000000001
 43
0.00000001
 40
0.0
 40
0.0
 40
0.0
 40
0.0
 40
0.247102648482259
 40
0.4952089995988385
 40
0.7469801479828466
 40
1.0
 40
1.0
 40
1.0
 40
1.0
 10
6.661589297760028
 20
7.635522086417726
 30
0.0
 10
6.669283001519262
 20
7.636587557025265
 30
0.0
 10
6.684701659980517
 20
7.638722826059823
 30
0.0
 10
6.708127822548525
 20
7.639736023582666
 30
0.0
 10
6.731743001485708
 20
7.638780968966233
 30
0.0
 10
6.747460904057375
 20
7.636610170548314
 30
0.0
 10
6.755339296064251
 20
7.63552208638274
 30
0.0
  0
LINE
  5
137
330
1F
100
AcDbEntity
  8
0
  6
Continuous
 62
     7
370
    15
100
AcDbLine
 10
6.7553392969
 20
7.5535764627
 30
0.0
 11
6.7553392965
 21
7.6355220863
 31
0.0
  0
LINE
  5
138
330
1F
100
AcDbEntity
  8
0
  6
Continuous
 62
     7
370
    15
100
AcDbLine
 10
6.6615892971
 20
7.6355220862
 30
0.0
 11
6.6615892969
 21
7.5548718341
 31
0.0
  0
SPLINE
  5
139
330
1F
100
AcDbEntity
  8
0
  6
Continuous
 62
     7
370
    15
100
AcDbSpline
210
0.0
220
0.0
230
1.0
 70
     8
 71
     3
 72
    11
 73
     7
 74
     0
 42
0.000000001
 43
0.00000001
 40
0.0
 40
0.0
 40
0.0
 40
0.0
 40
0.247102648298571
 40
0.4952089993517332
 40
0.7469801478326115
 40
1.0
 40
1.0
 40
1.0
 40
1.0
 10
6.56783929674752
 20
7.63552208590519
 30
0.0
 10
6.575533000610469
 20
7.636587556698618
 30
0.0
 10
6.590951659283346
 20
7.638722826106232
 30
0.0
 10
6.614377822501004
 20
7.639736023576366
 30
0.0
 10
6.63799300201998
 20
7.638780968943157
 30
0.0
 10
6.653710904992259
 20
7.63661017042357
 30
0.0
 10
6.661589297200757
 20
7.635522086206922
 30
0.0
  0
LINE
  5
13A
330
1F
100
AcDbEntity
  8
0
  6
Continuous
 62
     7
370
    15
100
AcDbLine
 10
6.5678392969
 20
7.5535764627
 30
0.0
 11
6.5678392969
 21
7.6355220863
 31
0.0
  0
SPLINE
  5
13B
330
1F
100
AcDbEntity
  8
0
  6
Continuous
 62
     7
370
    15
100
AcDbSpline
210
0.0
220
0.0
230
1.0
 70
     8
 71
     3
 72
    11
 73
     7
 74
     0
 42
0.000000001
 43
0.00000001
 40
0.0
 40
0.0
 40
0.0
 40
0.0
 40
0.2471026483657308
 40
0.495208999457746
 40
0.7469801478925736
 40
1.0
 40
1.0
 40
1.0
 40
1.0
 10
6.661589297420218
 20
7.635522085905192
 30
0.0
 10
6.653895593493336
 20
7.636587556687396
 30
0.0
 10
6.63847693469322
 20
7.638722826072392
 30
0.0
 10
6.615050771887384
 20
7.639736023567067
 30
0.0
 10
6.591435592622899
 20
7.638780969010249
 30
0.0
 10
6.575717689845291
 20
7.636610170563066
 30
0.0
 10
6.567839297734583
 20
7.63552208638274
 30
0.0
  0
SPLINE
  5
13C
330
1F
100
AcDbEntity
  8
0
  6
Continuous
 62
     7
370
    15
100
AcDbSpline
210
0.0
220
0.0
230
1.0
 70
     8
 71
     3
 72
    11
 73
     7
 74
     0
 42
0.000000001
 43
0.00000001
 40
0.0
 40
0.0
 40
0.0
 40
0.0
 40
0.2471026483657308
 40
0.4952089994577448
 40
0.7469801478925732
 40
1.0
 40
1.0
 40
1.0
 40
1.0
 10
6.755339297051313
 20
7.635522085905196
 30
0.0
 10
6.747645593280258
 20
7.6365875566874
 30
0.0
 10
6.732226934792431
 20
7.638722826072394
 30
0.0
 10
6.708800771860449
 20
7.639736023567071
 30
0.0
 10
6.685185592629713
 20
7.638780969010247
 30
0.0
 10
6.669467689847568
 20
7.636610170563066
 30
0.0
 10
6.661589297734583
 20
7.63552208638274
 30
0.0
  0
SPLINE
  5
13D
330
1F
100
AcDbEntity
  8
0
  6
Continuous
 62
     7
370
    15
100
AcDbSpline
210
0.0
220
0.0
230
1.0
 70
     8
 71
     3
 72
     9
 73
     5
 74
     0
 42
0.000000001
 43
0.00000001
 40
0.0
 40
0.0
 40
0.0
 40
0.0
 40
0.4989865867468276
 40
1.0
 40
1.0
 40
1.0
 40
1.0
 10
6.755339296530511
 20
7.635522085905192
 30
0.0
 10
6.755339296684159
 20
7.636614329968741
 30
0.0
 10
6.75533929699208
 20
7.638803254666438
 30
0.0
 10
6.755339296930345
 20
7.639206021536318
 30
0.0
 10
6.755339296899416
 20
7.639407813140542
 30
0.0
  0
SPLINE
  5
13E
330
1F
100
AcDbEntity
  8
0
  6
Continuous
 62
     7
370
    15
100
AcDbSpline
210
0.0
220
0.0
230
1.0
 70
    24
 71
     3
 72
     9
 73
     5
 74
     0
 42
0.000000001
 43
0.00000001
 40
0.0
 40
0.0
 40
0.0
 40
0.0
 40
0.49396075102696
 40
1.0
 40
1.0
 40
1.0
 40
1.0
 10
6.567839296899416
 20
7.639388671830114
 30
0.0
 10
6.567839296899416
 20
7.639209900590722
 30
0.0
 10
6.567839296899416
 20
7.638847986736187
 30
0.0
 10
6.567839296899416
 20
7.636639611120667
 30
0.0
 10
6.567839296899416
 20
7.635522086382737
 30
0.0
  0
LINE
  5
13F
330
1F
100
AcDbEntity
  8
0
  6
Continuous
 62
     7
370
    15
100
AcDbLine
 10
6.6155600942
 20
7.4207639627
 30
0.0
 11
6.7076184996
 21
7.4207639627
 31
0.0
  0
LINE
  5
140
330
1F
100
AcDbEntity
  8
0
  6
Continuous
 62
     7
370
    15
100
AcDbLine
 10
6.8725267969
 20
5.8113889627
 30
0.0
 11
6.8803392969
 21
5.8035764627
 31
0.0
  0
LINE
  5
141
330
1F
100
AcDbEntity
  8
0
  6
Continuous
 62
     7
370
    15
100
AcDbLine
 10
6.8803392969
 20
5.8035764627
 30
0.0
 11
6.663832946
 21
5.8035764627
 31
0.0
  0
LINE
  5
142
330
1F
100
AcDbEntity
  8
0
  6
Continuous
 62
     7
370
    15
100
AcDbLine
 10
6.6593456478
 20
5.8035764627
 30
0.0
 11
6.4428392969
 21
5.8035764627
 31
0.0
  0
LINE
  5
143
330
1F
100
AcDbEntity
  8
0
  6
Continuous
 62
     7
370
    15
100
AcDbLine
 10
6.4506517969
 20
5.8113889627
 30
0.0
 11
6.4428392969
 21
5.8035764627
 31
0.0
  0
LINE
  5
144
330
1F
100
AcDbEntity
  8
0
  6
Continuous
 62
     7
370
    15
100
AcDbLine
 10
6.4506517969
 20
5.8113889627
 30
0.0
 11
6.8725267969
 21
5.8113889627
 31
0.0
  0
LINE
  5
145
330
1F
100
AcDbEntity
  8
0
  6
Continuous
 62
     7
370
    15
100
AcDbLine
 10
6.8725267969
 20
7.2957639627
 30
0.0
 11
6.4506517969
 21
7.2957639627
 31
0.0
  0
LINE
  5
146
330
1F
100
AcDbEntity
  8
0
  6
Continuous
 62
     7
370
    15
100
AcDbLine
 10
6.8725267969
 20
5.8113889627
 30
0.0
 11
6.8725267969
 21
7.2957639627
 31
0.0
  0
LINE
  5
147
330
1F
100
AcDbEntity
  8
0
  6
Continuous
 62
     7
370
    15
100
AcDbLine
 10
6.4506517969
 20
7.2957639627
 30
0.0
 11
6.4506517969
 21
5.8113889627
 31
0.0
  0
CIRCLE
  5
148
330
1F
100
AcDbEntity
  8
0
  6
Continuous
 62
     7
370
    15
100
AcDbCircle
 10
6.5365892969
 20
7.2410764627
 30
0.0
 40
0.0507812500000178
  0
CIRCLE
  5
149
330
1F
100
AcDbEntity
  8
0
  6
Continuous
 62
     7
370
    15
100
AcDbCircle
 10
6.5365892969
 20
5.8660764627
 30
0.0
 40
0.050781250000016
  0
CIRCLE
  5
14A
330
1F
100
AcDbEntity
  8
0
  6
Continuous
 62
     7
370
    15
100
AcDbCircle
 10
6.7865892969
 20
7.2410764627
 30
0.0
 40
0.0507812499999236
  0
CIRCLE
  5
14B
330
1F
100
AcDbEntity
  8
0
  6
Continuous
 62
     7
370
    15
100
AcDbCircle
 10
6.7865892969
 20
5.8660764627
 30
0.0
 40
0.0507812499999227
  0
LINE
  5
14C
330
1F
100
AcDbEntity
  8
0
  6
Continuous
 62
     7
370
    15
100
AcDbLine
 10
6.8803392969
 20
7.3035764627
 30
0.0
 11
6.8725267969
 21
7.2957639627
 31
0.0
  0
LINE
  5
14D
330
1F
100
AcDbEntity
  8
0
  6
Continuous
 62
     7
370
    15
100
AcDbLine
 10
6.8803392969
 20
7.3035764627
 30
0.0
 11
6.8803392969
 21
5.8035764627
 31
0.0
  0
LINE
  5
14E
330
1F
100
AcDbEntity
  8
0
  6
Continuous
 62
     7
370
    15
100
AcDbLine
 10
6.4506517969
 20
7.2957639627
 30
0.0
 11
6.4428392969
 21
7.3035764627
 31
0.0
  0
LINE
  5
14F
330
1F
100
AcDbEntity
  8
0
  6
Continuous
 62
     7
370
    15
100
AcDbLine
 10
6.4428392969
 20
7.3035764627
 30
0.0
 11
6.6593456478
 21
7.3035764627
 31
0.0
  0
LINE
  5
150
330
1F
100
AcDbEntity
  8
0
  6
Continuous
 62
     7
370
    15
100
AcDbLine
 10
6.6638329453
 20
7.3035764627
 30
0.0
 11
6.8803392969
 21
7.3035764627
 31
0.0
  0
LINE
  5
151
330
1F
100
AcDbEntity
  8
0
  6
Continuous
 62
     7
370
    15
100
AcDbLine
 10
6.4428392969
 20
5.8035764627
 30
0.0
 11
6.4428392969
 21
7.3035764627
 31
0.0
  0
CIRCLE
  5
152
330
1F
100
AcDbEntity
  8
0
  6
Continuous
 62
     7
370
    15
100
AcDbCircle
 10
6.7865892969
 20
5.8660764627
 30
0.0
 40
0.0261250000000004
  0
CIRCLE
  5
153
330
1F
100
AcDbEntity
  8
0
  6
Continuous
 62
     7
370
    15
100
AcDbCircle
 10
6.7865892969
 20
7.2410764627
 30
0.0
 40
0.0261249999999995
  0
CIRCLE
  5
154
330
1F
100
AcDbEntity
  8
0
  6
Continuous
 62
     7
370
    15
100
AcDbCircle
 10
6.5365892969
 20
5.8660764627
 30
0.0
 40
0.0261250000000004
  0
CIRCLE
  5
155
330
1F
100
AcDbEntity
  8
0
  6
Continuous
 62
     7
370
    15
100
AcDbCircle
 10
6.5365892969
 20
7.2410764627
 30
0.0
 40
0.0261249999999995
  0
LINE
  5
156
330
1F
100
AcDbEntity
  8
0
  6
Continuous
 62
     7
370
    15
100
AcDbLine
 10
6.4740892969
 20
7.3035764627
 30
0.0
 11
6.4740892969
 21
7.5535764627
 31
0.0
  0
LINE
  5
157
330
1F
100
AcDbEntity
  8
0
  6
Continuous
 62
     7
370
    15
100
AcDbLine
 10
6.4740892969
 20
7.5535764627
 30
0.0
 11
6.6593456478
 21
7.5535764627
 31
0.0
  0
LINE
  5
158
330
1F
100
AcDbEntity
  8
0
  6
Continuous
 62
     7
370
    15
100
AcDbLine
 10
6.663832946
 20
7.5535764627
 30
0.0
 11
6.8490892969
 21
7.5535764627
 31
0.0
  0
LINE
  5
159
330
1F
100
AcDbEntity
  8
0
  6
Continuous
 62
     7
370
    15
100
AcDbLine
 10
6.8490892969
 20
7.5535764627
 30
0.0
 11
6.8490892969
 21
7.3035764627
 31
0.0
  0
CIRCLE
  5
15A
330
1F
100
AcDbEntity
  8
0
  6
Continuous
 62
     7
370
    15
100
AcDbCircle
 10
6.7865892969
 20
7.2410764627
 30
0.0
 40
0.0205750000067546
  0
CIRCLE
  5
15B
330
1F
100
AcDbEntity
  8
0
  6
Continuous
 62
     7
370
    15
100
AcDbCircle
 10
6.5365892969
 20
7.2410764627
 30
0.0
 40
0.0205750000067546
  0
LINE
  5
15C
330
1F
100
AcDbEntity
  8
0
  6
Continuous
 62
     7
370
    15
100
AcDbLine
 10
6.6149017969
 20
7.4285764627
 30
0.0
 11
6.7082767969
 21
7.4285764627
 31
0.0
  0
CIRCLE
  5
15D
330
1F
100
AcDbEntity
  8
0
  6
Continuous
 62
     7
370
    15
100
AcDbCircle
 10
6.6615892969
 20
5.6785764627
 30
0.0
 40
0.0080744900322554
  0
CIRCLE
  5
15E
330
1F
100
AcDbEntity
  8
0
  6
Continuous
 62
     7
370
    15
100
AcDbCircle
 10
6.6615892969
 20
5.6785764627
 30
0.0
 40
0.1089748633215066
  0
SPLINE
  5
15F
330
1F
100
AcDbEntity
  8
0
  6
Continuous
 62
     7
370
    15
100
AcDbSpline
210
0.0
220
0.0
230
1.0
 70
     8
 71
     3
 72
    11
 73
     7
 74
     0
 42
0.000000001
 43
0.00000001
 40
0.0
 40
0.0
 40
0.0
 40
0.0
 40
0.2646136134961537
 40
0.5349657659035753
 40
0.7653524246751676
 40
1.0
 40
1.0
 40
1.0
 40
1.0
 10
6.6615892964867
 20
5.552281091499006
 30
0.0
 10
6.671082592491171
 20
5.557762048322737
 30
0.0
 10
6.690275060712593
 20
5.568842824652994
 30
0.0
 10
6.718710644264974
 20
5.585260116615493
 30
0.0
 10
6.745892448469887
 20
5.600953538557524
 30
0.0
 10
6.762556119486511
 20
5.610574313508846
 30
0.0
 10
6.770964296161201
 20
5.615428776577484
 30
0.0
  0
SPLINE
  5
160
330
1F
100
AcDbEntity
  8
0
  6
Continuous
 62
     7
370
    15
100
AcDbSpline
210
0.0
220
0.0
230
1.0
 70
     8
 71
     3
 72
    11
 73
     7
 74
     0
 42
0.000000001
 43
0.00000001
 40
0.0
 40
0.0
 40
0.0
 40
0.0
 40
0.2646136134961531
 40
0.5349657659035725
 40
0.7653524246751661
 40
1.0
 40
1.0
 40
1.0
 40
1.0
 10
6.552214296855809
 20
5.61542877745508
 30
0.0
 10
6.561707592704441
 20
5.60994782036143
 30
0.0
 10
6.580900060610808
 20
5.598867043485481
 30
0.0
 10
6.609335644287868
 20
5.582449751738934
 30
0.0
 10
6.636517448464432
 20
5.566756329747801
 30
0.0
 10
6.653181119484682
 20
5.557135554802757
 30
0.0
 10
6.661589296161202
 20
5.552281091737287
 30
0.0
  0
SPLINE
  5
161
330
1F
100
AcDbEntity
  8
0
  6
Continuous
 62
     7
370
    15
100
AcDbSpline
210
0.0
220
0.0
230
1.0
 70
    24
 71
     3
 72
    11
 73
     7
 74
     0
 42
0.000000001
 43
0.00000001
 40
0.0
 40
0.0
 40
0.0
 40
0.0
 40
0.2646136127554464
 40
0.5349657642288485
 40
0.7653524238103031
 40
1.0
 40
1.0
 40
1.0
 40
1.0
 10
6.552214296899417
 20
5.741724148716778
 30
0.0
 10
6.552214296899417
 20
5.730762234807826
 30
0.0
 10
6.552214296899417
 20
5.708600681626005
 30
0.0
 10
6.552214296899417
 20
5.675766097971507
 30
0.0
 10
6.552214296899417
 20
5.644379253995131
 30
0.0
 10
6.552214296899417
 20
5.625137704027168
 30
0.0
 10
6.552214296899417
 20
5.615428777856112
 30
0.0
  0
SPLINE
  5
162
330
1F
100
AcDbEntity
  8
0
  6
Continuous
 62
     7
370
    15
100
AcDbSpline
210
0.0
220
0.0
230
1.0
 70
    24
 71
     3
 72
    11
 73
     7
 74
     0
 42
0.000000001
 43
0.00000001
 40
0.0
 40
0.0
 40
0.0
 40
0.0
 40
0.2646136140617534
 40
0.5349657669360356
 40
0.7653524252585204
 40
1.0
 40
1.0
 40
1.0
 40
1.0
 10
6.661589296161202
 20
5.80487183365533
 30
0.0
 10
6.652096000275517
 20
5.799390876720233
 30
0.0
 10
6.632903532298221
 20
5.78831010016713
 30
0.0
 10
6.604467948937987
 20
5.771892808459534
 30
0.0
 10
6.577286145033099
 20
5.756199386657987
 30
0.0
 10
6.56062247421162
 20
5.746578611823519
 30
0.0
 10
6.552214297637633
 20
5.741724148815133
 30
0.0
  0
SPLINE
  5
163
330
1F
100
AcDbEntity
  8
0
  6
Continuous
 62
     7
370
    15
100
AcDbSpline
210
0.0
220
0.0
230
1.0
 70
     8
 71
     3
 72
    11
 73
     7
 74
     0
 42
0.000000001
 43
0.00000001
 40
0.0
 40
0.0
 40
0.0
 40
0.0
 40
0.2646136110892973
 40
0.534965761037666
 40
0.7653524221553871
 40
0.9999999999999999
 40
0.9999999999999999
 40
0.9999999999999999
 40
0.9999999999999999
 10
6.770964296943027
 20
5.741724147937537
 30
0.0
 10
6.761471001094367
 20
5.747205105031203
 30
0.0
 10
6.742278533187947
 20
5.758285881907183
 30
0.0
 10
6.713842949346252
 20
5.774703173748782
 30
0.0
 10
6.686661144833446
 20
5.790396595934045
 30
0.0
 10
6.669997473502122
 20
5.800017371058686
 30
0.0
 10
6.66158929666633
 20
5.804871834216113
 30
0.0
  0
SPLINE
  5
164
330
1F
100
AcDbEntity
  8
0
  6
Continuous
 62
     7
370
    15
100
AcDbSpline
210
0.0
220
0.0
230
1.0
 70
     8
 71
     3
 72
    11
 73
     7
 74
     0
 42
0.000000001
 43
0.00000001
 40
0.0
 40
0.0
 40
0.0
 40
0.0
 40
0.2646136134961561
 40
0.5349657659035771
 40
0.7653524246751684
 40
0.9999999999999999
 40
0.9999999999999999
 40
0.9999999999999999
 40
0.9999999999999999
 10
6.77096429653031
 20
5.615428776740234
 30
0.0
 10
6.770964296686148
 20
5.626390690657616
 30
0.0
 10
6.770964297001202
 20
5.648552243863821
 30
0.0
 10
6.770964296876523
 20
5.681386827572867
 30
0.0
 10
6.770964296904872
 20
5.712773671506032
 30
0.0
 10
6.770964296901247
 20
5.732015221402397
 30
0.0
 10
6.770964296899417
 20
5.741724147536505
 30
0.0
  0
CIRCLE
  5
165
330
1F
100
AcDbEntity
  8
0
  6
Continuous
 62
     7
370
    15
100
AcDbCircle
 10
6.6615892969
 20
5.6785764627
 30
0.0
 40
0.0843125000000002
  0
CIRCLE
  5
166
330
1F
100
AcDbEntity
  8
0
  6
Continuous
 62
     7
370
    15
100
AcDbCircle
 10
6.6615892969
 20
5.6785764627
 30
0.0
 40
0.0743125000000004
  0
CIRCLE
  5
167
330
1F
100
AcDbEntity
  8
0
  6
Continuous
 62
     7
370
    15
100
AcDbCircle
 10
6.6615892969
 20
5.6785764627
 30
0.0
 40
0.0466875000190843
  0
CIRCLE
  5
168
330
1F
100
AcDbEntity
  8
0
  6
Continuous
 62
     7
370
    15
100
AcDbCircle
 10
6.6615892969
 20
7.4285764627
 30
0.0
 40
0.1089748633215066
  0
SPLINE
  5
169
330
1F
100
AcDbEntity
  8
0
  6
Continuous
 62
     7
370
    15
100
AcDbSpline
210
0.0
220
0.0
230
1.0
 70
     8
 71
     3
 72
    11
 73
     7
 74
     0
 42
0.000000001
 43
0.00000001
 40
0.0
 40
0.0
 40
0.0
 40
0.0
 40
0.2646136134961537
 40
0.5349657659035753
 40
0.7653524246751676
 40
1.0
 40
1.0
 40
1.0
 40
1.0
 10
6.6615892964867
 20
7.302281091499006
 30
0.0
 10
6.67108259249117
 20
7.307762048322738
 30
0.0
 10
6.690275060712593
 20
7.318842824652994
 30
0.0
 10
6.718710644264973
 20
7.335260116615492
 30
0.0
 10
6.745892448469886
 20
7.350953538557524
 30
0.0
 10
6.762556119486511
 20
7.360574313508846
 30
0.0
 10
6.770964296161201
 20
7.365428776577485
 30
0.0
  0
SPLINE
  5
16A
330
1F
100
AcDbEntity
  8
0
  6
Continuous
 62
     7
370
    15
100
AcDbSpline
210
0.0
220
0.0
230
1.0
 70
     8
 71
     3
 72
    11
 73
     7
 74
     0
 42
0.000000001
 43
0.00000001
 40
0.0
 40
0.0
 40
0.0
 40
0.0
 40
0.2646136134961531
 40
0.5349657659035725
 40
0.7653524246751661
 40
1.0
 40
1.0
 40
1.0
 40
1.0
 10
6.552214296855809
 20
7.365428777455081
 30
0.0
 10
6.561707592704441
 20
7.359947820361429
 30
0.0
 10
6.580900060610808
 20
7.348867043485482
 30
0.0
 10
6.609335644287868
 20
7.332449751738934
 30
0.0
 10
6.636517448464432
 20
7.316756329747802
 30
0.0
 10
6.653181119484682
 20
7.307135554802758
 30
0.0
 10
6.661589296161201
 20
7.302281091737288
 30
0.0
  0
SPLINE
  5
16B
330
1F
100
AcDbEntity
  8
0
  6
Continuous
 62
     7
370
    15
100
AcDbSpline
210
0.0
220
0.0
230
1.0
 70
    24
 71
     3
 72
    11
 73
     7
 74
     0
 42
0.000000001
 43
0.00000001
 40
0.0
 40
0.0
 40
0.0
 40
0.0
 40
0.2646136127554464
 40
0.5349657642288485
 40
0.7653524238103031
 40
1.0
 40
1.0
 40
1.0
 40
1.0
 10
6.552214296899417
 20
7.491724148716778
 30
0.0
 10
6.552214296899417
 20
7.480762234807825
 30
0.0
 10
6.552214296899417
 20
7.458600681626004
 30
0.0
 10
6.552214296899417
 20
7.425766097971507
 30
0.0
 10
6.552214296899417
 20
7.39437925399513
 30
0.0
 10
6.552214296899417
 20
7.375137704027169
 30
0.0
 10
6.552214296899417
 20
7.365428777856113
 30
0.0
  0
SPLINE
  5
16C
330
1F
100
AcDbEntity
  8
0
  6
Continuous
 62
     7
370
    15
100
AcDbSpline
210
0.0
220
0.0
230
1.0
 70
    24
 71
     3
 72
    11
 73
     7
 74
     0
 42
0.000000001
 43
0.00000001
 40
0.0
 40
0.0
 40
0.0
 40
0.0
 40
0.2646136140617534
 40
0.5349657669360356
 40
0.7653524252585204
 40
1.0
 40
1.0
 40
1.0
 40
1.0
 10
6.661589296161202
 20
7.554871833655331
 30
0.0
 10
6.652096000275516
 20
7.549390876720234
 30
0.0
 10
6.632903532298221
 20
7.53831010016713
 30
0.0
 10
6.604467948937987
 20
7.521892808459533
 30
0.0
 10
6.577286145033099
 20
7.506199386657988
 30
0.0
 10
6.56062247421162
 20
7.496578611823518
 30
0.0
 10
6.552214297637633
 20
7.491724148815134
 30
0.0
  0
SPLINE
  5
16D
330
1F
100
AcDbEntity
  8
0
  6
Continuous
 62
     7
370
    15
100
AcDbSpline
210
0.0
220
0.0
230
1.0
 70
     8
 71
     3
 72
    11
 73
     7
 74
     0
 42
0.000000001
 43
0.00000001
 40
0.0
 40
0.0
 40
0.0
 40
0.0
 40
0.2646136110892973
 40
0.534965761037666
 40
0.7653524221553871
 40
0.9999999999999999
 40
0.9999999999999999
 40
0.9999999999999999
 40
0.9999999999999999
 10
6.770964296943025
 20
7.491724147937537
 30
0.0
 10
6.761471001094367
 20
7.497205105031203
 30
0.0
 10
6.742278533187946
 20
7.508285881907183
 30
0.0
 10
6.713842949346252
 20
7.524703173748782
 30
0.0
 10
6.686661144833446
 20
7.540396595934044
 30
0.0
 10
6.669997473502122
 20
7.550017371058686
 30
0.0
 10
6.661589296666329
 20
7.554871834216113
 30
0.0
  0
SPLINE
  5
16E
330
1F
100
AcDbEntity
  8
0
  6
Continuous
 62
     7
370
    15
100
AcDbSpline
210
0.0
220
0.0
230
1.0
 70
     8
 71
     3
 72
    11
 73
     7
 74
     0
 42
0.000000001
 43
0.00000001
 40
0.0
 40
0.0
 40
0.0
 40
0.0
 40
0.2646136134961561
 40
0.5349657659035771
 40
0.7653524246751684
 40
0.9999999999999999
 40
0.9999999999999999
 40
0.9999999999999999
 40
0.9999999999999999
 10
6.770964296530309
 20
7.365428776740234
 30
0.0
 10
6.770964296686146
 20
7.376390690657615
 30
0.0
 10
6.770964297001202
 20
7.398552243863822
 30
0.0
 10
6.770964296876523
 20
7.431386827572867
 30
0.0
 10
6.770964296904872
 20
7.462773671506032
 30
0.0
 10
6.770964296901247
 20
7.482015221402397
 30
0.0
 10
6.770964296899417
 20
7.491724147536505
 30
0.0
  0
CIRCLE
  5
16F
330
1F
100
AcDbEntity
  8
0
  6
Continuous
 62
     7
370
    15
100
AcDbCircle
 10
6.6615892969
 20
7.4285764627
 30
0.0
 40
0.0843125000000011
  0
CIRCLE
  5
170
330
1F
100
AcDbEntity
  8
0
  6
Continuous
 62
     7
370
    15
100
AcDbCircle
 10
6.6615892969
 20
7.4285764627
 30
0.0
 40
0.0743125000000004
  0
CIRCLE
  5
171
330
1F
100
AcDbEntity
  8
0
  6
Continuous
 62
     7
370
    15
100
AcDbCircle
 10
6.6615892969
 20
7.4285764627
 30
0.0
 40
0.0466875000190861
  0
LINE
  5
172
330
1F
100
AcDbEntity
  8
0
  6
Continuous
 62
     7
370
    15
100
AcDbLine
 10
6.6598361533
 20
5.5530965831
 30
0.0
 11
6.6504864286
 21
5.5535764627
 31
0.0
  0
LINE
  5
173
330
1F
100
AcDbEntity
  8
0
  6
Continuous
 62
     7
370
    15
100
AcDbLine
 10
6.6726921652
 20
5.5535764627
 30
0.0
 11
6.6615892969
 21
5.5530843367
 31
0.0
  0
ARC
  5
174
330
1F
100
AcDbEntity
  8
0
  6
Continuous
 62
     7
370
    15
100
AcDbCircle
 10
6.6615892969
 20
5.6785764627
 30
0.0
 40
0.1377499999999993
100
AcDbArc
 50
245.1540801856
 51
294.8459198144
  0
LWPOLYLINE
  5
175
330
1F
100
AcDbEntity
  8
0
  6
Continuous
 62
     7
370
    15
100
AcDbPolyline
 90
        3
 70
   128
 43
0.0
 10
6.7713397483
 20
5.6896978867
 10
6.7719017969
 20
5.6785764627
 10
6.7716328513
 20
5.6708781647
  0
LINE
  5
176
330
1F
100
AcDbEntity
  8
0
  6
Continuous
 62
     7
370
    15
100
AcDbLine
 10
6.8490892969
 20
5.5535764627
 30
0.0
 11
6.8490892969
 21
5.8035764627
 31
0.0
  0
LINE
  5
177
330
1F
100
AcDbEntity
  8
0
  6
Continuous
 62
     7
370
    15
100
AcDbLine
 10
6.4740892969
 20
5.5535764627
 30
0.0
 11
6.6593456478
 21
5.5535764627
 31
0.0
  0
LINE
  5
178
330
1F
100
AcDbEntity
  8
0
  6
Continuous
 62
     7
370
    15
100
AcDbLine
 10
6.6638329456
 20
5.5535764627
 30
0.0
 11
6.8490892969
 21
5.5535764627
 31
0.0
  0
LINE
  5
179
330
1F
100
AcDbEntity
  8
0
  6
Continuous
 62
     7
370
    15
100
AcDbLine
 10
6.4740892969
 20
5.8035764627
 30
0.0
 11
6.4740892969
 21
5.5535764627
 31
0.0
  0
CIRCLE
  5
17A
330
1F
100
AcDbEntity
  8
0
  6
Continuous
 62
     7
370
    15
100
AcDbCircle
 10
6.7865892969
 20
5.8660764627
 30
0.0
 40
0.0205750000066143
  0
CIRCLE
  5
17B
330
1F
100
AcDbEntity
  8
0
  6
Continuous
 62
     7
370
    15
100
AcDbCircle
 10
6.5365892969
 20
5.8660764627
 30
0.0
 40
0.0205750000066143
  0
LINE
  5
17C
330
1F
100
AcDbEntity
  8
0
  6
Continuous
 62
     7
370
    15
100
AcDbLine
 10
2.2871276235
 20
7.6395139626
 30
0.0
 11
2.2867329139
 21
7.6394082004
 31
0.0
  0
SPLINE
  5
17D
330
1F
100
AcDbEntity
  8
0
  6
Continuous
 62
     7
370
    15
100
AcDbSpline
210
0.0
220
0.0
230
1.0
 70
     8
 71
     3
 72
    11
 73
     7
 74
     0
 42
0.000000001
 43
0.00000001
 40
0.0
 40
0.0
 40
0.0
 40
0.0
 40
0.2471026483657308
 40
0.4952089994577461
 40
0.7469801478925736
 40
1.0
 40
1.0
 40
1.0
 40
1.0
 10
2.380482913399754
 20
7.635522085905192
 30
0.0
 10
2.388176617326637
 20
7.636587556687396
 30
0.0
 10
2.403595276126752
 20
7.638722826072393
 30
0.0
 10
2.427021438932587
 20
7.639736023567066
 30
0.0
 10
2.450636618197073
 20
7.638780969010249
 30
0.0
 10
2.46635452097468
 20
7.636610170563066
 30
0.0
 10
2.47423291308539
 20
7.63552208638274
 30
0.0
  0
LINE
  5
17E
330
1F
100
AcDbEntity
  8
0
  6
Continuous
 62
     7
370
    15
100
AcDbLine
 10
2.4742329139
 20
7.5535764627
 30
0.0
 11
2.4742329135
 21
7.6355220863
 31
0.0
  0
LINE
  5
17F
330
1F
100
AcDbEntity
  8
0
  6
Continuous
 62
     7
370
    15
100
AcDbLine
 10
2.3804829139
 20
7.5535764627
 30
0.0
 11
2.3804829135
 21
7.6355220863
 31
0.0
  0
SPLINE
  5
180
330
1F
100
AcDbEntity
  8
0
  6
Continuous
 62
     7
370
    15
100
AcDbSpline
210
0.0
220
0.0
230
1.0
 70
     8
 71
     3
 72
    11
 73
     7
 74
     0
 42
0.000000001
 43
0.00000001
 40
0.0
 40
0.0
 40
0.0
 40
0.0
 40
0.2471026483657308
 40
0.4952089994577449
 40
0.7469801478925732
 40
1.0
 40
1.0
 40
1.0
 40
1.0
 10
2.28673291376866
 20
7.635522085905196
 30
0.0
 10
2.294426617539715
 20
7.6365875566874
 30
0.0
 10
2.309845276027541
 20
7.638722826072396
 30
0.0
 10
2.333271438959522
 20
7.639736023567071
 30
0.0
 10
2.356886618190259
 20
7.638780969010249
 30
0.0
 10
2.372604520972405
 20
7.636610170563066
 30
0.0
 10
2.38048291308539
 20
7.63552208638274
 30
0.0
  0
LINE
  5
181
330
1F
100
AcDbEntity
  8
0
  6
Continuous
 62
     7
370
    15
100
AcDbLine
 10
2.2867329139
 20
7.5535764627
 30
0.0
 11
2.2867329139
 21
7.6355220863
 31
0.0
  0
SPLINE
  5
182
330
1F
100
AcDbEntity
  8
0
  6
Continuous
 62
     7
370
    15
100
AcDbSpline
210
0.0
220
0.0
230
1.0
 70
    24
 71
     3
 72
     9
 73
     5
 74
     0
 42
0.000000001
 43
0.00000001
 40
0.0
 40
0.0
 40
0.0
 40
0.0
 40
0.4939607510269476
 40
1.0
 40
1.0
 40
1.0
 40
1.0
 10
2.286732913920556
 20
7.639388671830115
 30
0.0
 10
2.286732913920556
 20
7.639209900590726
 30
0.0
 10
2.286732913920556
 20
7.638847986736196
 30
0.0
 10
2.286732913920556
 20
7.636639611120673
 30
0.0
 10
2.286732913920556
 20
7.635522086382744
 30
0.0
  0
SPLINE
  5
183
330
1F
100
AcDbEntity
  8
0
  6
Continuous
 62
     7
370
    15
100
AcDbSpline
210
0.0
220
0.0
230
1.0
 70
     8
 71
     3
 72
    11
 73
     7
 74
     0
 42
0.000000001
 43
0.00000001
 40
0.0
 40
0.0
 40
0.0
 40
0.0
 40
0.2471026484822589
 40
0.4952089995988385
 40
0.7469801479828466
 40
1.0
 40
1.0
 40
1.0
 40
1.0
 10
2.380482913059943
 20
7.635522086417726
 30
0.0
 10
2.372789209300711
 20
7.636587557025265
 30
0.0
 10
2.357370550839455
 20
7.638722826059824
 30
0.0
 10
2.333944388271447
 20
7.639736023582666
 30
0.0
 10
2.310329209334264
 20
7.638780968966233
 30
0.0
 10
2.294611306762597
 20
7.636610170548314
 30
0.0
 10
2.286732914755722
 20
7.63552208638274
 30
0.0
  0
SPLINE
  5
184
330
1F
100
AcDbEntity
  8
0
  6
Continuous
 62
     7
370
    15
100
AcDbSpline
210
0.0
220
0.0
230
1.0
 70
     8
 71
     3
 72
    11
 73
     7
 74
     0
 42
0.000000001
 43
0.00000001
 40
0.0
 40
0.0
 40
0.0
 40
0.0
 40
0.247102648298571
 40
0.4952089993517333
 40
0.7469801478326115
 40
1.0
 40
1.0
 40
1.0
 40
1.0
 10
2.474232914072452
 20
7.635522085905188
 30
0.0
 10
2.466539210209503
 20
7.636587556698617
 30
0.0
 10
2.451120551536626
 20
7.638722826106232
 30
0.0
 10
2.427694388318968
 20
7.639736023576365
 30
0.0
 10
2.404079208799992
 20
7.638780968943157
 30
0.0
 10
2.388361305827714
 20
7.63661017042357
 30
0.0
 10
2.380482913619215
 20
7.635522086206922
 30
0.0
  0
SPLINE
  5
185
330
1F
100
AcDbEntity
  8
0
  6
Continuous
 62
     7
370
    15
100
AcDbSpline
210
0.0
220
0.0
230
1.0
 70
     8
 71
     3
 72
     9
 73
     5
 74
     0
 42
0.000000001
 43
0.00000001
 40
0.0
 40
0.0
 40
0.0
 40
0.0
 40
0.4989865867468249
 40
1.0
 40
1.0
 40
1.0
 40
1.0
 10
2.47423291355165
 20
7.635522085905192
 30
0.0
 10
2.474232913705299
 20
7.636614329968742
 30
0.0
 10
2.47423291401322
 20
7.638803254666438
 30
0.0
 10
2.474232913951486
 20
7.639206021536317
 30
0.0
 10
2.474232913920556
 20
7.639407813140542
 30
0.0
  0
LINE
  5
186
330
1F
100
AcDbEntity
  8
0
  6
Continuous
 62
     7
370
    15
100
AcDbLine
 10
2.5914204139
 20
7.2957639627
 30
0.0
 11
2.5992329139
 21
7.3035764627
 31
0.0
  0
LINE
  5
187
330
1F
100
AcDbEntity
  8
0
  6
Continuous
 62
     7
370
    15
100
AcDbLine
 10
2.5914204139
 20
7.2957639627
 30
0.0
 11
2.1695454139
 21
7.2957639627
 31
0.0
  0
LINE
  5
188
330
1F
100
AcDbEntity
  8
0
  6
Continuous
 62
     7
370
    15
100
AcDbLine
 10
2.1695454139
 20
7.2957639627
 30
0.0
 11
2.1617329139
 21
7.3035764627
 31
0.0
  0
LINE
  5
189
330
1F
100
AcDbEntity
  8
0
  6
Continuous
 62
     7
370
    15
100
AcDbLine
 10
2.1617329139
 20
7.3035764627
 30
0.0
 11
2.5992329139
 21
7.3035764627
 31
0.0
  0
LINE
  5
18A
330
1F
100
AcDbEntity
  8
0
  6
Continuous
 62
     7
370
    15
100
AcDbLine
 10
2.5914204139
 20
5.8113889627
 30
0.0
 11
2.5914204139
 21
7.2957639627
 31
0.0
  0
LINE
  5
18B
330
1F
100
AcDbEntity
  8
0
  6
Continuous
 62
     7
370
    15
100
AcDbLine
 10
2.1695454139
 20
5.8113889627
 30
0.0
 11
2.3439329161
 21
5.8113889627
 31
0.0
  0
LINE
  5
18C
330
1F
100
AcDbEntity
  8
0
  6
Continuous
 62
     7
370
    15
100
AcDbLine
 10
2.4170329118
 20
5.8113889627
 30
0.0
 11
2.5914204139
 21
5.8113889627
 31
0.0
  0
LINE
  5
18D
330
1F
100
AcDbEntity
  8
0
  6
Continuous
 62
     7
370
    15
100
AcDbLine
 10
2.1695454139
 20
7.2957639627
 30
0.0
 11
2.1695454139
 21
5.8113889627
 31
0.0
  0
CIRCLE
  5
18E
330
1F
100
AcDbEntity
  8
0
  6
Continuous
 62
     7
370
    15
100
AcDbCircle
 10
2.5054829139
 20
7.2410764627
 30
0.0
 40
0.0488750000005114
  0
CIRCLE
  5
18F
330
1F
100
AcDbEntity
  8
0
  6
Continuous
 62
     7
370
    15
100
AcDbCircle
 10
2.2554829139
 20
7.2410764627
 30
0.0
 40
0.0488750000006037
  0
CIRCLE
  5
190
330
1F
100
AcDbEntity
  8
0
  6
Continuous
 62
     7
370
    15
100
AcDbCircle
 10
2.5054829139
 20
5.8660764627
 30
0.0
 40
0.0488750000005114
  0
CIRCLE
  5
191
330
1F
100
AcDbEntity
  8
0
  6
Continuous
 62
     7
370
    15
100
AcDbCircle
 10
2.2554829139
 20
5.8660764627
 30
0.0
 40
0.0488750000006037
  0
LINE
  5
192
330
1F
100
AcDbEntity
  8
0
  6
Continuous
 62
     7
370
    15
100
AcDbLine
 10
2.1695454139
 20
5.8113889627
 30
0.0
 11
2.1617329139
 21
5.8035764627
 31
0.0
  0
LINE
  5
193
330
1F
100
AcDbEntity
  8
0
  6
Continuous
 62
     7
370
    15
100
AcDbLine
 10
2.1617329139
 20
5.8035764627
 30
0.0
 11
2.1617329139
 21
7.3035764627
 31
0.0
  0
LINE
  5
194
330
1F
100
AcDbEntity
  8
0
  6
Continuous
 62
     7
370
    15
100
AcDbLine
 10
2.5992329139
 20
5.8035764627
 30
0.0
 11
2.5914204139
 21
5.8113889627
 31
0.0
  0
LINE
  5
195
330
1F
100
AcDbEntity
  8
0
  6
Continuous
 62
     7
370
    15
100
AcDbLine
 10
2.5992329139
 20
5.8035764627
 30
0.0
 11
2.4383626383
 21
5.8035764627
 31
0.0
  0
LINE
  5
196
330
1F
100
AcDbEntity
  8
0
  6
Continuous
 62
     7
370
    15
100
AcDbLine
 10
2.3226031895
 20
5.8035764627
 30
0.0
 11
2.1617329139
 21
5.8035764627
 31
0.0
  0
LINE
  5
197
330
1F
100
AcDbEntity
  8
0
  6
Continuous
 62
     7
370
    15
100
AcDbLine
 10
2.5992329139
 20
7.3035764627
 30
0.0
 11
2.5992329139
 21
5.8035764627
 31
0.0
  0
CIRCLE
  5
198
330
1F
100
AcDbEntity
  8
0
  6
Continuous
 62
     7
370
    15
100
AcDbCircle
 10
2.5054829139
 20
5.8660764627
 30
0.0
 40
0.026125
  0
CIRCLE
  5
199
330
1F
100
AcDbEntity
  8
0
  6
Continuous
 62
     7
370
    15
100
AcDbCircle
 10
2.2554829139
 20
5.8660764627
 30
0.0
 40
0.026125
  0
CIRCLE
  5
19A
330
1F
100
AcDbEntity
  8
0
  6
Continuous
 62
     7
370
    15
100
AcDbCircle
 10
2.5054829139
 20
7.2410764627
 30
0.0
 40
0.026125
  0
CIRCLE
  5
19B
330
1F
100
AcDbEntity
  8
0
  6
Continuous
 62
     7
370
    15
100
AcDbCircle
 10
2.2554829139
 20
7.2410764627
 30
0.0
 40
0.026125
  0
LINE
  5
19C
330
1F
100
AcDbEntity
  8
0
  6
Continuous
 62
     7
370
    15
100
AcDbLine
 10
2.5679829139
 20
7.5535764627
 30
0.0
 11
2.1929829139
 21
7.5535764627
 31
0.0
  0
LINE
  5
19D
330
1F
100
AcDbEntity
  8
0
  6
Continuous
 62
     7
370
    15
100
AcDbLine
 10
2.1929829139
 20
7.5535764627
 30
0.0
 11
2.1929829139
 21
7.3035764627
 31
0.0
  0
LINE
  5
19E
330
1F
100
AcDbEntity
  8
0
  6
Continuous
 62
     7
370
    15
100
AcDbLine
 10
2.5679829139
 20
7.3035764627
 30
0.0
 11
2.5679829139
 21
7.5535764627
 31
0.0
  0
CIRCLE
  5
19F
330
1F
100
AcDbEntity
  8
0
  6
Continuous
 62
     7
370
    15
100
AcDbCircle
 10
2.5054829139
 20
7.2410764627
 30
0.0
 40
0.0205750000072689
  0
CIRCLE
  5
1A0
330
1F
100
AcDbEntity
  8
0
  6
Continuous
 62
     7
370
    15
100
AcDbCircle
 10
2.2554829139
 20
7.2410764627
 30
0.0
 40
0.0205750000072689
  0
CIRCLE
  5
1A1
330
1F
100
AcDbEntity
  8
0
  6
Continuous
 62
     7
370
    15
100
AcDbCircle
 10
2.3804829139
 20
5.6785764627
 30
0.0
 40
0.1377499999999996
  0
CIRCLE
  5
1A2
330
1F
100
AcDbEntity
  8
0
  6
Continuous
 62
     7
370
    15
100
AcDbCircle
 10
2.3804829139
 20
5.6785764627
 30
0.0
 40
0.1299999999999999
  0
LINE
  5
1A3
330
1F
100
AcDbEntity
  8
0
  6
Continuous
 62
     7
370
    15
100
AcDbLine
 10
2.1929829139
 20
5.8035764627
 30
0.0
 11
2.1929829139
 21
5.5535764627
 31
0.0
  0
LINE
  5
1A4
330
1F
100
AcDbEntity
  8
0
  6
Continuous
 62
     7
370
    15
100
AcDbLine
 10
2.5679829139
 20
5.5535764627
 30
0.0
 11
2.5679829139
 21
5.8035764627
 31
0.0
  0
LINE
  5
1A5
330
1F
100
AcDbEntity
  8
0
  6
Continuous
 62
     7
370
    15
100
AcDbLine
 10
2.1929829139
 20
5.5535764627
 30
0.0
 11
2.3226031895
 21
5.5535764627
 31
0.0
  0
LINE
  5
1A6
330
1F
100
AcDbEntity
  8
0
  6
Continuous
 62
     7
370
    15
100
AcDbLine
 10
2.4383626383
 20
5.5535764627
 30
0.0
 11
2.5679829139
 21
5.5535764627
 31
0.0
  0
CIRCLE
  5
1A7
330
1F
100
AcDbEntity
  8
0
  6
Continuous
 62
     7
370
    15
100
AcDbCircle
 10
2.5054829139
 20
5.8660764627
 30
0.0
 40
0.0205750000068479
  0
CIRCLE
  5
1A8
330
1F
100
AcDbEntity
  8
0
  6
Continuous
 62
     7
370
    15
100
AcDbCircle
 10
2.2554829139
 20
5.8660764627
 30
0.0
 40
0.0205750000068479
  0
LINE
  5
1A9
330
1F
100
AcDbEntity
  8
0
  6
Continuous
 62
     7
370
    15
100
AcDbLine
 10
6.719350037
 20
8.4914633041
 30
0.0
 11
6.6852410949
 21
8.5111539773
 31
0.0
  0
LINE
  5
1AA
330
1F
100
AcDbEntity
  8
0
  6
Continuous
 62
     7
370
    15
100
AcDbLine
 10
6.6476191526
 20
8.4459838004
 30
0.0
 11
6.6857342185
 21
8.4239804411
 31
0.0
  0
LINE
  5
1AB
330
1F
100
AcDbEntity
  8
0
  6
Continuous
 62
     7
370
    15
100
AcDbLine
 10
6.6813353523
 20
8.5126216661
 30
0.0
 11
6.6687298927
 21
8.5151899341
 31
0.0
  0
LINE
  5
1AC
330
1F
100
AcDbEntity
  8
0
  6
Continuous
 62
     7
370
    15
100
AcDbLine
 10
6.635867158
 20
8.4582638397
 30
0.0
 11
6.644394977
 21
8.4486321257
 31
0.0
  0
LINE
  5
1AD
330
1F
100
AcDbEntity
  8
0
  6
Continuous
 62
     7
370
    15
100
AcDbLine
 10
6.719350037
 20
8.60539766
 30
0.0
 11
6.610663426
 21
8.6608012497
 31
0.0
  0
LINE
  5
1AE
330
1F
100
AcDbEntity
  8
0
  6
Continuous
 62
     7
370
    15
100
AcDbLine
 10
6.48073294
 20
8.4357306595
 30
0.0
 11
6.6054367498
 21
8.3547960539
 31
0.0
  0
LINE
  5
1AF
330
1F
100
AcDbEntity
  8
0
  6
Continuous
 62
     7
370
    15
100
AcDbLine
 10
6.5923185167
 20
8.4398097747
 30
0.0
 11
6.6201627988
 21
8.4237356128
 31
0.0
  0
LINE
  5
1B0
330
1F
100
AcDbEntity
  8
0
  6
Continuous
 62
     7
370
    15
100
AcDbLine
 10
6.6907771384
 20
8.5460564905
 30
0.0
 11
6.6629328564
 21
8.5621306524
 31
0.0
  0
LWPOLYLINE
  5
1B1
330
1F
100
AcDbEntity
  8
0
  6
Continuous
 62
     7
370
    15
100
AcDbPolyline
 90
       41
 70
   128
 43
0.0
 10
7.0891971409
 20
9.9119121992
 10
7.0780578449
 20
9.9174044323
 10
7.0655673969
 20
9.9218230827
 10
7.0520333533
 20
9.9250593487
 10
7.0377889669
 20
9.9270335425
 10
7.023184982
 20
9.9276970531
 10
7.0085809971
 20
9.9270335425
 10
6.9943366108
 20
9.9250593487
 10
6.9808025671
 20
9.9218230827
 10
6.9683121191
 20
9.9174044323
 10
6.9571728231
 20
9.9119121992
 10
6.9476589656
 20
9.9054816206
 10
6.9400048092
 20
9.8982710384
 10
6.9343988248
 20
9.8904580013
 10
6.9309790502
 20
9.8822348921
 10
6.9298296916
 20
9.8738041911
 10
6.9309790502
 20
9.86537349
 10
6.9343988248
 20
9.8571503808
 10
6.9400048092
 20
9.8493373437
 10
6.9476589656
 20
9.8421267616
 10
6.9571728231
 20
9.8356961829
 10
6.9683121191
 20
9.8302039498
 10
6.9808025671
 20
9.8257852994
 10
6.9943366108
 20
9.8225490335
 10
7.0085809971
 20
9.8205748396
 10
7.023184982
 20
9.8199113291
 10
7.0377889669
 20
9.8205748396
 10
7.0520333533
 20
9.8225490335
 10
7.0655673969
 20
9.8257852994
 10
7.0780578449
 20
9.8302039498
 10
7.0891971409
 20
9.8356961829
 10
7.0987109984
 20
9.8421267616
 10
7.1063651548
 20
9.8493373437
 10
7.1119711393
 20
9.8571503808
 10
7.1153909139
 20
9.86537349
 10
7.1165402724
 20
9.8738041911
 10
7.1153909139
 20
9.8822348921
 10
7.1119711393
 20
9.8904580013
 10
7.1063651548
 20
9.8982710384
 10
7.0987109984
 20
9.9054816206
 10
7.0891971409
 20
9.9119121992
  0
SPLINE
  5
1B2
330
1F
100
AcDbEntity
  8
0
  6
Continuous
 62
     7
370
    15
100
AcDbSpline
210
0.0
220
0.0
230
1.0
 70
     8
 71
     3
 72
    11
 73
     7
 74
     0
 42
0.000000001
 43
0.00000001
 40
0.0
 40
0.0
 40
0.0
 40
0.0
 40
0.2471026459675048
 40
0.4952089963882025
 40
0.7469801441417959
 40
1.0
 40
1.0
 40
1.0
 40
1.0
 10
6.946638428022456
 20
9.914734046572724
 30
0.0
 10
6.944339099141595
 20
9.91065021884352
 30
0.0
 10
6.939731101752498
 20
9.90246597531475
 30
0.0
 10
6.93272999423319
 20
9.888209636586215
 30
0.0
 10
6.925672397325273
 20
9.872224435469219
 30
0.0
 10
6.920974968587378
 20
9.860331434369204
 30
0.0
 10
6.918620444172991
 20
9.854370223883048
 30
0.0
  0
SPLINE
  5
1B3
330
1F
100
AcDbEntity
  8
0
  6
Continuous
 62
     7
370
    15
100
AcDbSpline
210
0.0
220
0.0
230
1.0
 70
     8
 71
     3
 72
    11
 73
     7
 74
     0
 42
0.000000001
 43
0.00000001
 40
0.0
 40
0.0
 40
0.0
 40
0.0
 40
0.247102645967505
 40
0.4952089963882015
 40
0.7469801441417958
 40
1.0
 40
1.0
 40
1.0
 40
1.0
 10
7.051202965863691
 20
9.930908483896284
 30
0.0
 10
7.042621754252858
 20
9.930451110021234
 30
0.0
 10
7.025424475069719
 20
9.9295345044675
 30
0.0
 10
6.999295985616059
 20
9.926320168176346
 30
0.0
 10
6.972956675505419
 20
9.92146606319072
 30
0.0
 10
6.955425632773304
 20
9.916981749746986
 30
0.0
 10
6.946638428022456
 20
9.914734046572724
 30
0.0
  0
SPLINE
  5
1B4
330
1F
100
AcDbEntity
  8
0
  6
Continuous
 62
     7
370
    15
100
AcDbSpline
210
0.0
220
0.0
230
1.0
 70
     8
 71
     3
 72
    11
 73
     7
 74
     0
 42
0.000000001
 43
0.00000001
 40
0.0
 40
0.0
 40
0.0
 40
0.0
 40
0.2471026459675082
 40
0.4952089963882041
 40
0.7469801441417996
 40
1.0
 40
1.0
 40
1.0
 40
1.0
 10
7.127749519855464
 20
9.886719098530163
 30
0.0
 10
7.121467637125492
 20
9.891215552619643
 30
0.0
 10
7.108878355331449
 20
9.900226724912994
 30
0.0
 10
7.089750973397096
 20
9.912096044561876
 30
0.0
 10
7.070469260194374
 20
9.922447299636413
 30
0.0
 10
7.057635646200154
 20
9.928083441743523
 30
0.0
 10
7.051202965863691
 20
9.930908483896284
 30
0.0
  0
SPLINE
  5
1B5
330
1F
100
AcDbEntity
  8
0
  6
Continuous
 62
     7
370
    15
100
AcDbSpline
210
0.0
220
0.0
230
1.0
 70
     8
 71
     3
 72
    11
 73
     7
 74
     0
 42
0.000000001
 43
0.00000001
 40
0.0
 40
0.0
 40
0.0
 40
0.0
 40
0.2471026534718042
 40
0.4952090014825342
 40
0.7469801467148162
 40
1.0
 40
1.0
 40
1.0
 40
1.0
 10
7.099731536682611
 20
9.82635527586852
 30
0.0
 10
7.102030865377364
 20
9.832179104303073
 30
0.0
 10
7.106638862300951
 20
9.843850416704454
 30
0.0
 10
7.113639970024895
 20
9.859761389738228
 30
0.0
 10
7.120697566785837
 20
9.874186908534734
 30
0.0
 10
7.125394995468796
 20
9.882534818420629
 30
0.0
 10
7.127749519855464
 20
9.886719098530163
 30
0.0
  0
SPLINE
  5
1B6
330
1F
100
AcDbEntity
  8
0
  6
Continuous
 62
     7
370
    15
100
AcDbSpline
210
0.0
220
0.0
230
1.0
 70
     8
 71
     3
 72
    11
 73
     7
 74
     0
 42
0.000000001
 43
0.00000001
 40
0.0
 40
0.0
 40
0.0
 40
0.0
 40
0.2471026473044743
 40
0.4952089990961497
 40
0.7469801483264494
 40
1.0
 40
1.0
 40
1.0
 40
1.0
 10
6.995166998164764
 20
9.810180838516931
 30
0.0
 10
7.00374820987809
 20
9.812378212887642
 30
0.0
 10
7.020945489267623
 20
9.816781887128407
 30
0.0
 10
7.047073979039942
 20
9.821650857871813
 30
0.0
 10
7.073413289273175
 20
9.82494528070622
 30
0.0
 10
7.090944332021718
 20
9.825884503029082
 30
0.0
 10
7.099731536682611
 20
9.82635527586852
 30
0.0
  0
SPLINE
  5
1B7
330
1F
100
AcDbEntity
  8
0
  6
Continuous
 62
     7
370
    15
100
AcDbSpline
210
0.0
220
0.0
230
1.0
 70
     8
 71
     3
 72
    11
 73
     7
 74
     0
 42
0.000000001
 43
0.00000001
 40
0.0
 40
0.0
 40
0.0
 40
0.0
 40
0.2471026459675052
 40
0.4952089963882008
 40
0.7469801441417975
 40
1.0
 40
1.0
 40
1.0
 40
1.0
 10
6.918620444172991
 20
9.854370223883048
 30
0.0
 10
6.924902326902965
 20
9.851613770264214
 30
0.0
 10
6.937491608697006
 20
9.846089666607496
 30
0.0
 10
6.95661899063136
 20
9.835874981381622
 30
0.0
 10
6.975900703834082
 20
9.823964044193398
 30
0.0
 10
6.988734317828301
 20
9.814782810987953
 30
0.0
 10
6.995166998164764
 20
9.810180838516931
 30
0.0
  0
LINE
  5
1B8
330
1F
100
AcDbEntity
  8
0
  6
Continuous
 62
     7
370
    15
100
AcDbLine
 10
7.0997315367
 20
9.8263552759
 30
0.0
 11
7.0997315365
 21
9.7594433299
 31
0.0
  0
LINE
  5
1B9
330
1F
100
AcDbEntity
  8
0
  6
Continuous
 62
     7
370
    15
100
AcDbLine
 10
7.0997315365
 20
9.7594433299
 30
0.0
 11
6.9951669985
 21
9.7432688923
 31
0.0
  0
LINE
  5
1BA
330
1F
100
AcDbEntity
  8
0
  6
Continuous
 62
     7
370
    15
100
AcDbLine
 10
6.9951669985
 20
9.7432688923
 30
0.0
 11
6.9951669982
 21
9.8101808385
 31
0.0
  0
LWPOLYLINE
  5
1BB
330
1F
100
AcDbEntity
  8
0
  6
Continuous
 62
     7
370
    15
100
AcDbPolyline
 90
       27
 70
   128
 43
0.0
 10
6.9955636234
 20
9.8897496621
 10
7.0029764736
 20
9.8931023167
 10
7.011563769
 20
9.8953334343
 10
7.020826447
 20
9.8963133506
 10
7.0302261944
 20
9.8959851164
 10
7.0392167322
 20
9.8943678074
 10
7.047275563
 20
9.8915554158
 10
7.0539343367
 20
9.8877113876
 10
7.0588060697
 20
9.8830591236
 10
7.0616076346
 20
9.8778689966
 10
7.0621762146
 20
9.8724426379
 10
7.0604787659
 20
9.8670954077
 10
7.056613938
 20
9.8621380676
 10
7.0508063407
 20
9.8578587203
 10
7.0433934904
 20
9.8545060657
 10
7.0348061951
 20
9.852274948
 10
7.0255435171
 20
9.8512950317
 10
7.0161437696
 20
9.851623266
 10
7.0071532318
 20
9.8532405749
 10
6.9990944011
 20
9.8560529666
 10
6.9924356273
 20
9.8598969948
 10
6.9875638943
 20
9.8645492588
 10
6.9847623294
 20
9.8697393858
 10
6.9841937494
 20
9.8751657445
 10
6.9858911982
 20
9.8805129747
 10
6.9897560261
 20
9.8854703147
 10
6.9955636234
 20
9.8897496621
  0
LINE
  5
1BC
330
1F
100
AcDbEntity
  8
0
  6
Continuous
 62
     7
370
    15
100
AcDbLine
 10
6.9951669985
 20
9.7432688923
 30
0.0
 11
6.918620444
 21
9.7874582776
 31
0.0
  0
LINE
  5
1BD
330
1F
100
AcDbEntity
  8
0
  6
Continuous
 62
     7
370
    15
100
AcDbLine
 10
6.918620444
 20
9.7874582776
 30
0.0
 11
6.9186204442
 21
9.8543702239
 31
0.0
  0
LINE
  5
1BE
330
1F
100
AcDbEntity
  8
0
  6
Continuous
 62
     7
370
    15
100
AcDbLine
 10
7.12774952
 20
9.8198071528
 30
0.0
 11
7.1277495199
 21
9.8867190985
 31
0.0
  0
LINE
  5
1BF
330
1F
100
AcDbEntity
  8
0
  6
Continuous
 62
     7
370
    15
100
AcDbLine
 10
7.12774952
 20
9.8198071528
 30
0.0
 11
7.0997315365
 21
9.7594433299
 31
0.0
  0
LWPOLYLINE
  5
1C0
330
1F
100
AcDbEntity
  8
0
  6
Continuous
 62
     7
370
    15
100
AcDbPolyline
 90
       19
 70
   128
 43
0.0
 10
6.9941631657
 20
9.8587104292
 10
6.993014822
 20
9.8597799222
 10
6.989534541
 20
9.8646303753
 10
6.988347482
 20
9.8698355526
 10
6.989534541
 20
9.8750407298
 10
6.993014822
 20
9.8798911829
 10
6.9985511495
 20
9.8840563614
 10
7.005766232
 20
9.8872524152
 10
7.0141683735
 20
9.8892615386
 10
7.023184982
 20
9.8899468132
 10
7.0322015905
 20
9.8892615386
 10
7.040603732
 20
9.8872524152
 10
7.0478188145
 20
9.8840563614
 10
7.053355142
 20
9.8798911829
 10
7.056835423
 20
9.8750407298
 10
7.058022482
 20
9.8698355526
 10
7.056835423
 20
9.8646303753
 10
7.053355142
 20
9.8597799222
 10
7.0522067984
 20
9.8587104292
  0
LINE
  5
1C1
330
1F
100
AcDbEntity
  8
0
  6
Continuous
 62
     7
370
    15
100
AcDbLine
 10
7.0287092537
 20
8.2056653392
 30
0.0
 11
7.0176607103
 21
8.1992861141
 31
0.0
  0
LINE
  5
1C2
330
1F
100
AcDbEntity
  8
0
  6
Continuous
 62
     7
370
    15
100
AcDbLine
 10
7.0176607103
 20
8.1992861141
 30
0.0
 11
7.0176607103
 21
9.4240973319
 31
0.0
  0
LINE
  5
1C3
330
1F
100
AcDbEntity
  8
0
  6
Continuous
 62
     7
370
    15
100
AcDbLine
 10
7.0287092537
 20
9.4177181068
 30
0.0
 11
7.0176607103
 21
9.4240973319
 31
0.0
  0
LINE
  5
1C4
330
1F
100
AcDbEntity
  8
0
  6
Continuous
 62
     7
370
    15
100
AcDbLine
 10
7.0287092537
 20
9.4177181068
 30
0.0
 11
7.0287092537
 21
8.2056653392
 31
0.0
  0
LINE
  5
1C5
330
1F
100
AcDbEntity
  8
0
  6
Continuous
 62
     7
370
    15
100
AcDbLine
 10
7.0176607103
 20
9.4240973319
 30
0.0
 11
7.1387438143
 21
9.49399712
 31
0.0
  0
LINE
  5
1C6
330
1F
100
AcDbEntity
  8
0
  6
Continuous
 62
     7
370
    15
100
AcDbLine
 10
7.1497932558
 20
9.4876184133
 30
0.0
 11
7.0287092537
 21
9.4177181068
 31
0.0
  0
LINE
  5
1C7
330
1F
100
AcDbEntity
  8
0
  6
Continuous
 62
     7
370
    15
100
AcDbLine
 10
7.0010878951
 20
8.2088533966
 30
0.0
 11
7.0176607103
 21
8.1992861141
 31
0.0
  0
LINE
  5
1C8
330
1F
100
AcDbEntity
  8
0
  6
Continuous
 62
     7
370
    15
100
AcDbLine
 10
7.0010878951
 20
8.2088533966
 30
0.0
 11
7.0010878951
 21
9.4336646145
 31
0.0
  0
LINE
  5
1C9
330
1F
100
AcDbEntity
  8
0
  6
Continuous
 62
     7
370
    15
100
AcDbLine
 10
7.0010878951
 20
9.4336646145
 30
0.0
 11
7.0176607103
 21
9.4240973319
 31
0.0
  0
LINE
  5
1CA
330
1F
100
AcDbEntity
  8
0
  6
Continuous
 62
     7
370
    15
100
AcDbLine
 10
7.0010878951
 20
9.4336646145
 30
0.0
 11
7.1221709991
 21
9.5035644026
 31
0.0
  0
LINE
  5
1CB
330
1F
100
AcDbEntity
  8
0
  6
Continuous
 62
     7
370
    15
100
AcDbLine
 10
7.3270199271
 20
8.3778764253
 30
0.0
 11
7.3270199271
 21
9.4252768091
 31
0.0
  0
LINE
  5
1CC
330
1F
100
AcDbEntity
  8
0
  6
Continuous
 62
     7
370
    15
100
AcDbLine
 10
7.0287092537
 20
8.2056653392
 30
0.0
 11
7.3270199271
 21
8.3778764253
 31
0.0
  0
LWPOLYLINE
  5
1CD
330
1F
100
AcDbEntity
  8
0
  6
Continuous
 62
     7
370
    15
100
AcDbPolyline
 90
       30
 70
   128
 43
0.0
 10
7.125384009
 20
9.4288726794
 10
7.1245445054
 20
9.4194743029
 10
7.1220652488
 20
9.4095461138
 10
7.1180621665
 20
9.3995523432
 10
7.1127224381
 20
9.3899602887
 10
7.1062957435
 20
9.381218464
 10
7.0990825878
 20
9.3737356273
 10
7.09142025
 20
9.3678616676
 10
7.0836670126
 20
9.3638712447
 10
7.0761854084
 20
9.3619509465
 10
7.0693252688
 20
9.3621905638
 10
7.0634073663
 20
9.3645788925
 10
7.0587084156
 20
9.369004257
 10
7.0554481342
 20
9.3752597321
 10
7.0537789694
 20
9.3830528188
 10
7.0537789694
 20
9.3920191211
 10
7.0554481342
 20
9.4017393845
 10
7.0587084156
 20
9.4117591003
 10
7.0634073663
 20
9.4216097579
 10
7.0693252688
 20
9.4308307513
 10
7.0761854084
 20
9.4389909173
 10
7.0836670126
 20
9.4457086954
 10
7.09142025
 20
9.4506699699
 10
7.0990825878
 20
9.4536427571
 10
7.1062957435
 20
9.4544880527
 10
7.1127224381
 20
9.4531663317
 10
7.1180621665
 20
9.4497393962
 10
7.1220652488
 20
9.4443674861
 10
7.1245445054
 20
9.4373017857
 10
7.125384009
 20
9.4288726794
  0
LWPOLYLINE
  5
1CE
330
1F
100
AcDbEntity
  8
0
  6
Continuous
 62
     7
370
    15
100
AcDbPolyline
 90
       30
 70
   128
 43
0.0
 10
7.125384009
 20
8.3061290631
 10
7.1245445054
 20
8.2967306866
 10
7.1220652488
 20
8.2868024975
 10
7.1180621665
 20
8.2768087269
 10
7.1127224381
 20
8.2672166723
 10
7.1062957435
 20
8.2584748477
 10
7.0990825878
 20
8.2509920109
 10
7.09142025
 20
8.2451180512
 10
7.0836670126
 20
8.2411276284
 10
7.0761854084
 20
8.2392073301
 10
7.0693252688
 20
8.2394469475
 10
7.0634073663
 20
8.2418352762
 10
7.0587084156
 20
8.2462606407
 10
7.0554481342
 20
8.2525161158
 10
7.0537789694
 20
8.2603092025
 10
7.0537789694
 20
8.2692755047
 10
7.0554481342
 20
8.2789957681
 10
7.0587084156
 20
8.289015484
 10
7.0634073663
 20
8.2988661416
 10
7.0693252688
 20
8.308087135
 10
7.0761854084
 20
8.3162473009
 10
7.0836670126
 20
8.3229650791
 10
7.09142025
 20
8.3279263536
 10
7.0990825878
 20
8.3308991407
 10
7.1062957435
 20
8.3317444363
 10
7.1127224381
 20
8.3304227153
 10
7.1180621665
 20
8.3269957799
 10
7.1220652488
 20
8.3216238697
 10
7.1245445054
 20
8.3145581693
 10
7.125384009
 20
8.3061290631
  0
LWPOLYLINE
  5
1CF
330
1F
100
AcDbEntity
  8
0
  6
Continuous
 62
     7
370
    15
100
AcDbPolyline
 90
       30
 70
   128
 43
0.0
 10
7.3021607043
 20
8.4081800771
 10
7.3013212007
 20
8.3987817006
 10
7.2988419441
 20
8.3888535115
 10
7.2948388617
 20
8.3788597409
 10
7.2894991334
 20
8.3692676863
 10
7.2830724388
 20
8.3605258617
 10
7.2758592831
 20
8.3530430249
 10
7.2681969453
 20
8.3471690652
 10
7.2604437079
 20
8.3431786424
 10
7.2529621037
 20
8.3412583441
 10
7.2461019641
 20
8.3414979614
 10
7.2401840616
 20
8.3438862902
 10
7.2354851109
 20
8.3483116546
 10
7.2322248295
 20
8.3545671298
 10
7.2305556647
 20
8.3623602165
 10
7.2305556647
 20
8.3713265187
 10
7.2322248295
 20
8.3810467821
 10
7.2354851109
 20
8.391066498
 10
7.2401840616
 20
8.4009171555
 10
7.2461019641
 20
8.410138149
 10
7.2529621037
 20
8.4182983149
 10
7.2604437079
 20
8.4250160931
 10
7.2681969453
 20
8.4299773675
 10
7.2758592831
 20
8.4329501547
 10
7.2830724388
 20
8.4337954503
 10
7.2894991334
 20
8.4324737293
 10
7.2948388617
 20
8.4290467939
 10
7.2988419441
 20
8.4236748837
 10
7.3013212007
 20
8.4166091833
 10
7.3021607043
 20
8.4081800771
  0
LWPOLYLINE
  5
1D0
330
1F
100
AcDbEntity
  8
0
  6
Continuous
 62
     7
370
    15
100
AcDbPolyline
 90
       13
 70
   128
 43
0.0
 10
7.080566029
 20
9.4431679048
 10
7.0829618158
 20
9.4420488138
 10
7.0860637742
 20
9.4385856676
 10
7.0876868626
 20
9.4334463816
 10
7.0876868626
 20
9.427087604
 10
7.0860637742
 20
9.42007434
 10
7.0829618158
 20
9.413029749
 10
7.0786566102
 20
9.4065797737
 10
7.0735306938
 20
9.4012975228
 10
7.0680395266
 20
9.3976523474
 10
7.062671023
 20
9.3959681374
 10
7.0579021981
 20
9.3963945422
 10
7.0546900891
 20
9.3983446056
  0
LWPOLYLINE
  5
1D1
330
1F
100
AcDbEntity
  8
0
  6
Continuous
 62
     7
370
    15
100
AcDbPolyline
 90
       12
 70
   128
 43
0.0
 10
7.0553780627
 20
9.3977544646
 10
7.0558613261
 20
9.3975727126
 10
7.0606301509
 20
9.3971463078
 10
7.0659986545
 20
9.3988305178
 10
7.0714898217
 20
9.4024756932
 10
7.0766157382
 20
9.4077579441
 10
7.0809209438
 20
9.4142079194
 10
7.0840229021
 20
9.4212525104
 10
7.0856459905
 20
9.4282657744
 10
7.0856459905
 20
9.434624552
 10
7.0840229021
 20
9.4397638379
 10
7.0814211211
 20
9.442867253
  0
LWPOLYLINE
  5
1D2
330
1F
100
AcDbEntity
  8
0
  6
Continuous
 62
     7
370
    15
100
AcDbPolyline
 90
       13
 70
   128
 43
0.0
 10
7.080566029
 20
8.3204242885
 10
7.0829618158
 20
8.3193051974
 10
7.0860637742
 20
8.3158420512
 10
7.0876868626
 20
8.3107027653
 10
7.0876868626
 20
8.3043439877
 10
7.0860637742
 20
8.2973307237
 10
7.0829618158
 20
8.2902861327
 10
7.0786566102
 20
8.2838361574
 10
7.0735306938
 20
8.2785539064
 10
7.0680395266
 20
8.2749087311
 10
7.062671023
 20
8.273224521
 10
7.0579021981
 20
8.2736509259
 10
7.0546900891
 20
8.2756009893
  0
LINE
  5
1D3
330
1F
100
AcDbEntity
  8
0
  6
Continuous
 62
     7
370
    15
100
AcDbLine
 10
7.3270199271
 20
8.3778753886
 30
0.0
 11
7.0176607103
 21
8.1992861141
 31
0.0
  0
LINE
  5
1D4
330
1F
100
AcDbEntity
  8
0
  6
Continuous
 62
     7
370
    15
100
AcDbLine
 10
7.3270199271
 20
8.3778764253
 30
0.0
 11
7.3270199271
 21
8.3778753886
 31
0.0
  0
LWPOLYLINE
  5
1D5
330
1F
100
AcDbEntity
  8
0
  6
Continuous
 62
     7
370
    15
100
AcDbPolyline
 90
       12
 70
   128
 43
0.0
 10
7.0553780627
 20
8.2750108482
 10
7.0558613261
 20
8.2748290962
 10
7.0606301509
 20
8.2744026914
 10
7.0659986545
 20
8.2760869014
 10
7.0714898217
 20
8.2797320768
 10
7.0766157382
 20
8.2850143277
 10
7.0809209438
 20
8.291464303
 10
7.0840229021
 20
8.2985088941
 10
7.0856459905
 20
8.305522158
 10
7.0856459905
 20
8.3118809356
 10
7.0840229021
 20
8.3170202216
 10
7.0814211211
 20
8.3201236367
  0
LWPOLYLINE
  5
1D6
330
1F
100
AcDbEntity
  8
0
  6
Continuous
 62
     7
370
    15
100
AcDbPolyline
 90
       13
 70
   128
 43
0.0
 10
7.2573427243
 20
8.4224753024
 10
7.2597385111
 20
8.4213562114
 10
7.2628404695
 20
8.4178930652
 10
7.2644635579
 20
8.4127537792
 10
7.2644635579
 20
8.4063950016
 10
7.2628404695
 20
8.3993817377
 10
7.2597385111
 20
8.3923371466
 10
7.2554333055
 20
8.3858871713
 10
7.2503073891
 20
8.3806049204
 10
7.2448162219
 20
8.376959745
 10
7.2394477183
 20
8.375275535
 10
7.2346788934
 20
8.3757019398
 10
7.2314667844
 20
8.3776520033
  0
LWPOLYLINE
  5
1D7
330
1F
100
AcDbEntity
  8
0
  6
Continuous
 62
     7
370
    15
100
AcDbPolyline
 90
       12
 70
   128
 43
0.0
 10
7.232154758
 20
8.3770618622
 10
7.2326380214
 20
8.3768801102
 10
7.2374068462
 20
8.3764537054
 10
7.2427753498
 20
8.3781379154
 10
7.248266517
 20
8.3817830908
 10
7.2533924335
 20
8.3870653417
 10
7.2576976391
 20
8.393515317
 10
7.2607995974
 20
8.400559908
 10
7.2624226858
 20
8.407573172
 10
7.2624226858
 20
8.4139319496
 10
7.2607995974
 20
8.4190712356
 10
7.2581978164
 20
8.4221746506
  0
LINE
  5
1D8
330
1F
100
AcDbEntity
  8
0
  6
Continuous
 62
     7
370
    15
100
AcDbLine
 10
6.719350037
 20
9.596308418
 30
0.0
 11
6.719350037
 21
8.3714972002
 31
0.0
  0
LINE
  5
1D9
330
1F
100
AcDbEntity
  8
0
  6
Continuous
 62
     7
370
    15
100
AcDbLine
 10
6.7359228522
 20
9.5867411354
 30
0.0
 11
6.719350037
 21
9.596308418
 31
0.0
  0
LINE
  5
1DA
330
1F
100
AcDbEntity
  8
0
  6
Continuous
 62
     7
370
    15
100
AcDbLine
 10
6.7359228522
 20
9.5867411354
 30
0.0
 11
6.7359228522
 21
8.3619299176
 31
0.0
  0
LINE
  5
1DB
330
1F
100
AcDbEntity
  8
0
  6
Continuous
 62
     7
370
    15
100
AcDbLine
 10
6.719350037
 20
8.3714972002
 30
0.0
 11
6.7359228522
 21
8.3619299176
 31
0.0
  0
LINE
  5
1DC
330
1F
100
AcDbEntity
  8
0
  6
Continuous
 62
     7
370
    15
100
AcDbLine
 10
6.7580199391
 20
9.5994975122
 30
0.0
 11
6.7359228522
 21
9.5867411354
 31
0.0
  0
LINE
  5
1DD
330
1F
100
AcDbEntity
  8
0
  6
Continuous
 62
     7
370
    15
100
AcDbLine
 10
6.7580199391
 20
9.6186320773
 30
0.0
 11
6.719350037
 21
9.596308418
 31
0.0
  0
LINE
  5
1DE
330
1F
100
AcDbEntity
  8
0
  6
Continuous
 62
     7
370
    15
100
AcDbLine
 10
7.023184982
 20
9.6505561942
 30
0.0
 11
7.288350025
 21
9.8036327152
 31
0.0
  0
LINE
  5
1DF
330
1F
100
AcDbEntity
  8
0
  6
Continuous
 62
     7
370
    15
100
AcDbLine
 10
6.7580199391
 20
9.8036327152
 30
0.0
 11
7.023184982
 21
9.6505561942
 31
0.0
  0
LINE
  5
1E0
330
1F
100
AcDbEntity
  8
0
  6
Continuous
 62
     7
370
    15
100
AcDbLine
 10
6.7580199391
 20
9.8036327152
 30
0.0
 11
6.9448561612
 21
9.9114909704
 31
0.0
  0
LINE
  5
1E1
330
1F
100
AcDbEntity
  8
0
  6
Continuous
 62
     7
370
    15
100
AcDbLine
 10
6.9532774116
 20
9.9163524547
 30
0.0
 11
7.023184982
 21
9.9567092361
 31
0.0
  0
LINE
  5
1E2
330
1F
100
AcDbEntity
  8
0
  6
Continuous
 62
     7
370
    15
100
AcDbLine
 10
7.023184982
 20
9.9567092361
 30
0.0
 11
7.288350025
 21
9.8036327152
 31
0.0
  0
LINE
  5
1E3
330
1F
100
AcDbEntity
  8
0
  6
Continuous
 62
     7
370
    15
100
AcDbLine
 10
7.023184982
 20
9.4464209912
 30
0.0
 11
7.023184982
 21
9.6505561942
 31
0.0
  0
LINE
  5
1E4
330
1F
100
AcDbEntity
  8
0
  6
Continuous
 62
     7
370
    15
100
AcDbLine
 10
6.7580199391
 20
9.5994975122
 30
0.0
 11
6.7580199391
 21
9.8036327152
 31
0.0
  0
ARC
  5
1E5
330
1F
100
AcDbEntity
  8
0
  6
Continuous
 62
     7
370
    15
100
AcDbCircle
 10
7.1808511384
 20
9.5807733644
 30
0.0
 40
0.103089255560814
100
AcDbArc
 50
170.9535642937
 51
189.5111674447
  0
ARC
  5
1E6
330
1F
100
AcDbEntity
  8
0
  6
Continuous
 62
     7
370
    15
100
AcDbCircle
 10
7.2548336551
 20
9.5684811735
 30
0.0
 40
0.1778099500198482
100
AcDbArc
 50
131.9379497836
 51
153.3788514419
  0
LWPOLYLINE
  5
1E7
330
1F
100
AcDbEntity
  8
0
  6
Continuous
 62
     7
370
    15
100
AcDbPolyline
 90
        3
 70
   128
 43
0.0
 10
7.1909250554
 20
9.7257293074
 10
7.1979389561
 20
9.7251475391
 10
7.2015471544
 20
9.7243847997
  0
LINE
  5
1E8
330
1F
100
AcDbEntity
  8
0
  6
Continuous
 62
     7
370
    15
100
AcDbLine
 10
7.288350025
 20
9.8036327152
 30
0.0
 11
7.288350025
 21
9.6893458924
 31
0.0
  0
ARC
  5
1E9
330
1F
100
AcDbEntity
  8
0
  6
Continuous
 62
     7
370
    15
100
AcDbCircle
 10
7.048392201
 20
9.4315636395
 30
0.0
 40
0.027758169831199
100
AcDbArc
 50
299.0124034129
 51
13.6725072228
  0
LWPOLYLINE
  5
1EA
330
1F
100
AcDbEntity
  8
0
  6
Continuous
 62
     7
370
    15
100
AcDbPolyline
 90
        3
 70
   128
 43
0.0
 10
7.0564556817
 20
9.4053715595
 10
7.0568789281
 20
9.4054293364
 10
7.0618548841
 20
9.407288711
  0
LINE
  5
1EB
330
1F
100
AcDbEntity
  8
0
  6
Continuous
 62
     7
370
    15
100
AcDbLine
 10
6.9845150799
 20
9.407288711
 30
0.0
 11
6.9885520051
 21
9.4056179507
 31
0.0
  0
ARC
  5
1EC
330
1F
100
AcDbEntity
  8
0
  6
Continuous
 62
     7
370
    15
100
AcDbCircle
 10
6.9986308824
 20
9.4320430121
 30
0.0
 40
0.0284961629994232
100
AcDbArc
 50
170.3455656406
 51
240.3066394882
  0
LINE
  5
1ED
330
1F
100
AcDbEntity
  8
0
  6
Continuous
 62
     7
370
    15
100
AcDbLine
 10
6.8077383846
 20
9.5093397249
 30
0.0
 11
6.8117753098
 21
9.5076689647
 31
0.0
  0
ARC
  5
1EE
330
1F
100
AcDbEntity
  8
0
  6
Continuous
 62
     7
370
    15
100
AcDbCircle
 10
6.8218541871
 20
9.5340940261
 30
0.0
 40
0.0284961629995901
100
AcDbArc
 50
170.3455656415
 51
240.306639488
  0
LINE
  5
1EF
330
1F
100
AcDbEntity
  8
0
  6
Continuous
 62
     7
370
    15
100
AcDbLine
 10
6.7580199391
 20
9.5994975122
 30
0.0
 11
7.023184982
 21
9.4464209912
 31
0.0
  0
LINE
  5
1F0
330
1F
100
AcDbEntity
  8
0
  6
Continuous
 62
     7
370
    15
100
AcDbLine
 10
7.023184982
 20
9.4464209912
 30
0.0
 11
7.0010878951
 21
9.4336646145
 31
0.0
  0
LINE
  5
1F1
330
1F
100
AcDbEntity
  8
0
  6
Continuous
 62
     7
370
    15
100
AcDbLine
 10
6.7359228522
 20
9.5867411354
 30
0.0
 11
7.0010878951
 21
9.4336646145
 31
0.0
  0
LWPOLYLINE
  5
1F2
330
1F
100
AcDbEntity
  8
0
  6
Continuous
 62
     7
370
    15
100
AcDbPolyline
 90
       30
 70
   128
 43
0.0
 10
6.9913651769
 20
9.3882436195
 10
6.9905592534
 20
9.3801516775
 10
6.988179167
 20
9.3733686052
 10
6.984336208
 20
9.3682115714
 10
6.9792100688
 20
9.3649217134
 10
6.973040442
 20
9.3636528612
 10
6.9661158125
 20
9.364464345
 10
6.9587599683
 20
9.3673182207
 10
6.9513168604
 20
9.3720810442
 10
6.9441345203
 20
9.3785301112
 10
6.9375487863
 20
9.3863638705
 10
6.9318675999
 20
9.3952160242
 10
6.9273566072
 20
9.4046726554
 10
6.9242267371
 20
9.4142915827
 10
6.9226243388
 20
9.4236230355
 10
6.9226243388
 20
9.4322306857
 10
6.9242267371
 20
9.4397120489
 10
6.9273566072
 20
9.445717305
 10
6.9318675999
 20
9.4499656549
 10
6.9375487863
 20
9.4522584505
 10
6.9441345203
 20
9.4524884832
 10
6.9513168604
 20
9.4506449968
 10
6.9587599683
 20
9.4468141909
 10
6.9661158125
 20
9.4411751896
 10
6.973040442
 20
9.4339916663
 10
6.9792100688
 20
9.4255995146
 10
6.984336208
 20
9.4163911423
 10
6.988179167
 20
9.4067971225
 10
6.9905592534
 20
9.3972660609
 10
6.9913651769
 20
9.3882436195
  0
LWPOLYLINE
  5
1F3
330
1F
100
AcDbEntity
  8
0
  6
Continuous
 62
     7
370
    15
100
AcDbPolyline
 90
       30
 70
   128
 43
0.0
 10
6.8145884816
 20
9.4902946335
 10
6.8137825581
 20
9.4822026915
 10
6.8114024717
 20
9.4754196191
 10
6.8075595127
 20
9.4702625854
 10
6.8024333735
 20
9.4669727273
 10
6.7962637467
 20
9.4657038752
 10
6.7893391172
 20
9.466515359
 10
6.781983273
 20
9.4693692346
 10
6.7745401651
 20
9.4741320581
 10
6.767357825
 20
9.4805811252
 10
6.760772091
 20
9.4884148845
 10
6.7550909046
 20
9.4972670382
 10
6.7505799119
 20
9.5067236694
 10
6.7474500418
 20
9.5163425967
 10
6.7458476435
 20
9.5256740495
 10
6.7458476435
 20
9.5342816997
 10
6.7474500418
 20
9.5417630629
 10
6.7505799119
 20
9.547768319
 10
6.7550909046
 20
9.5520166689
 10
6.760772091
 20
9.5543094645
 10
6.767357825
 20
9.5545394971
 10
6.7745401651
 20
9.5526960108
 10
6.781983273
 20
9.5488652049
 10
6.7893391172
 20
9.5432262035
 10
6.7962637467
 20
9.5360426803
 10
6.8024333735
 20
9.5276505286
 10
6.8075595127
 20
9.5184421563
 10
6.8114024717
 20
9.5088481365
 10
6.8137825581
 20
9.4993170749
 10
6.8145884816
 20
9.4902946335
  0
LWPOLYLINE
  5
1F4
330
1F
100
AcDbEntity
  8
0
  6
Continuous
 62
     7
370
    15
100
AcDbPolyline
 90
       30
 70
   128
 43
0.0
 10
6.9913651769
 20
8.2655000032
 10
6.9905592534
 20
8.2574080612
 10
6.988179167
 20
8.2506249888
 10
6.984336208
 20
8.245467955
 10
6.9792100688
 20
8.242178097
 10
6.973040442
 20
8.2409092449
 10
6.9661158125
 20
8.2417207286
 10
6.9587599683
 20
8.2445746043
 10
6.9513168604
 20
8.2493374278
 10
6.9441345203
 20
8.2557864948
 10
6.9375487863
 20
8.2636202541
 10
6.9318675999
 20
8.2724724078
 10
6.9273566072
 20
8.2819290391
 10
6.9242267371
 20
8.2915479663
 10
6.9226243388
 20
8.3008794192
 10
6.9226243388
 20
8.3094870693
 10
6.9242267371
 20
8.3169684326
 10
6.9273566072
 20
8.3229736887
 10
6.9318675999
 20
8.3272220386
 10
6.9375487863
 20
8.3295148342
 10
6.9441345203
 20
8.3297448668
 10
6.9513168604
 20
8.3279013805
 10
6.9587599683
 20
8.3240705746
 10
6.9661158125
 20
8.3184315732
 10
6.973040442
 20
8.31124805
 10
6.9792100688
 20
8.3028558983
 10
6.984336208
 20
8.2936475259
 10
6.988179167
 20
8.2840535061
 10
6.9905592534
 20
8.2745224446
 10
6.9913651769
 20
8.2655000032
  0
LWPOLYLINE
  5
1F5
330
1F
100
AcDbEntity
  8
0
  6
Continuous
 62
     7
370
    15
100
AcDbPolyline
 90
       30
 70
   128
 43
0.0
 10
6.8145884816
 20
8.3675510171
 10
6.8137825581
 20
8.3594590751
 10
6.8114024717
 20
8.3526760028
 10
6.8075595127
 20
8.347518969
 10
6.8024333735
 20
8.344229111
 10
6.7962637467
 20
8.3429602588
 10
6.7893391172
 20
8.3437717426
 10
6.781983273
 20
8.3466256183
 10
6.7745401651
 20
8.3513884418
 10
6.767357825
 20
8.3578375088
 10
6.760772091
 20
8.3656712681
 10
6.7550909046
 20
8.3745234218
 10
6.7505799119
 20
8.3839800531
 10
6.7474500418
 20
8.3935989803
 10
6.7458476435
 20
8.4029304332
 10
6.7458476435
 20
8.4115380833
 10
6.7474500418
 20
8.4190194466
 10
6.7505799119
 20
8.4250247027
 10
6.7550909046
 20
8.4292730526
 10
6.760772091
 20
8.4315658481
 10
6.767357825
 20
8.4317958808
 10
6.7745401651
 20
8.4299523945
 10
6.781983273
 20
8.4261215885
 10
6.7893391172
 20
8.4204825872
 10
6.7962637467
 20
8.4132990639
 10
6.8024333735
 20
8.4049069123
 10
6.8075595127
 20
8.3956985399
 10
6.8114024717
 20
8.3861045201
 10
6.8137825581
 20
8.3765734586
 10
6.8145884816
 20
8.3675510171
  0
LINE
  5
1F6
330
1F
100
AcDbEntity
  8
0
  6
Continuous
 62
     7
370
    15
100
AcDbLine
 10
7.0010878951
 20
8.2088533966
 30
0.0
 11
6.7359228522
 21
8.3619299176
 31
0.0
  0
ARC
  5
1F7
330
1F
100
AcDbEntity
  8
0
  6
Continuous
 62
     7
370
    15
100
AcDbCircle
 10
6.9681811644
 20
9.4313718937
 30
0.0
 40
0.0115211260304761
100
AcDbArc
 50
107.3408803697
 51
189.6921618774
  0
LWPOLYLINE
  5
1F8
330
1F
100
AcDbEntity
  8
0
  6
Continuous
 62
     7
370
    15
100
AcDbPolyline
 90
       10
 70
   128
 43
0.0
 10
6.9904599157
 20
9.3978288505
 10
6.9888394377
 20
9.3964408888
 10
6.9845342321
 20
9.3949615981
 10
6.9794083156
 20
9.3955976044
 10
6.9739171484
 20
9.3982923957
 10
6.9685486448
 20
9.402806528
 10
6.96377982
 20
9.4087389008
 10
6.9600344048
 20
9.4155623967
 10
6.9576451959
 20
9.4226707183
 10
6.9568244851
 20
9.4294322599
  0
LWPOLYLINE
  5
1F9
330
1F
100
AcDbEntity
  8
0
  6
Continuous
 62
     7
370
    15
100
AcDbPolyline
 90
        9
 70
   128
 43
0.0
 10
6.9605176435
 20
9.4315642749
 10
6.9613383544
 20
9.4248027333
 10
6.9637275633
 20
9.4176944117
 10
6.9674729784
 20
9.4108709158
 10
6.9722418033
 20
9.404938543
 10
6.9776103069
 20
9.4004244107
 10
6.983101474
 20
9.3977296194
 10
6.9882273905
 20
9.3970936131
 10
6.99007452
 20
9.3974355884
  0
ARC
  5
1FA
330
1F
100
AcDbEntity
  8
0
  6
Continuous
 62
     7
370
    15
100
AcDbCircle
 10
6.974133647
 20
9.4328209061
 30
0.0
 40
0.0136738682603085
100
AcDbArc
 50
136.5063041212
 51
185.2729334072
  0
ARC
  5
1FB
330
1F
100
AcDbEntity
  8
0
  6
Continuous
 62
     7
370
    15
100
AcDbCircle
 10
6.7914044691
 20
9.5334229077
 30
0.0
 40
0.0115211260303325
100
AcDbArc
 50
107.3408803651
 51
189.6921618777
  0
LWPOLYLINE
  5
1FC
330
1F
100
AcDbEntity
  8
0
  6
Continuous
 62
     7
370
    15
100
AcDbPolyline
 90
       10
 70
   128
 43
0.0
 10
6.8136832204
 20
9.4998798644
 10
6.8120627424
 20
9.4984919028
 10
6.8077575368
 20
9.4970126121
 10
6.8026316203
 20
9.4976486184
 10
6.7971404531
 20
9.5003434097
 10
6.7917719495
 20
9.5048575419
 10
6.7870031247
 20
9.5107899147
 10
6.7832577095
 20
9.5176134107
 10
6.7808685006
 20
9.5247217323
 10
6.7800477898
 20
9.5314832739
  0
LWPOLYLINE
  5
1FD
330
1F
100
AcDbEntity
  8
0
  6
Continuous
 62
     7
370
    15
100
AcDbPolyline
 90
        9
 70
   128
 43
0.0
 10
6.7837409482
 20
9.5336152889
 10
6.7845616591
 20
9.5268537473
 10
6.786950868
 20
9.5197454257
 10
6.7906962831
 20
9.5129219297
 10
6.795465108
 20
9.5069895569
 10
6.8008336116
 20
9.5024754247
 10
6.8063247787
 20
9.4997806334
 10
6.8114506952
 20
9.4991446271
 10
6.8132978247
 20
9.4994866024
  0
ARC
  5
1FE
330
1F
100
AcDbEntity
  8
0
  6
Continuous
 62
     7
370
    15
100
AcDbCircle
 10
6.7973569517
 20
9.5348719201
 30
0.0
 40
0.013673868260223
100
AcDbArc
 50
136.50630412
 51
185.2729334073
  0
ARC
  5
1FF
330
1F
100
AcDbEntity
  8
0
  6
Continuous
 62
     7
370
    15
100
AcDbCircle
 10
6.9681811644
 20
8.3086282774
 30
0.0
 40
0.0115211260304602
100
AcDbArc
 50
107.3408803692
 51
189.6921618774
  0
LWPOLYLINE
  5
200
330
1F
100
AcDbEntity
  8
0
  6
Continuous
 62
     7
370
    15
100
AcDbPolyline
 90
       10
 70
   128
 43
0.0
 10
6.9904599157
 20
8.2750852341
 10
6.9888394377
 20
8.2736972725
 10
6.9845342321
 20
8.2722179818
 10
6.9794083156
 20
8.272853988
 10
6.9739171484
 20
8.2755487793
 10
6.9685486448
 20
8.2800629116
 10
6.96377982
 20
8.2859952844
 10
6.9600344048
 20
8.2928187804
 10
6.9576451959
 20
8.299927102
 10
6.9568244851
 20
8.3066886436
  0
LWPOLYLINE
  5
201
330
1F
100
AcDbEntity
  8
0
  6
Continuous
 62
     7
370
    15
100
AcDbPolyline
 90
        9
 70
   128
 43
0.0
 10
6.9605176435
 20
8.3088206586
 10
6.9613383544
 20
8.302059117
 10
6.9637275633
 20
8.2949507954
 10
6.9674729784
 20
8.2881272994
 10
6.9722418033
 20
8.2821949266
 10
6.9776103069
 20
8.2776807943
 10
6.983101474
 20
8.274986003
 10
6.9882273905
 20
8.2743499968
 10
6.99007452
 20
8.2746919721
  0
ARC
  5
202
330
1F
100
AcDbEntity
  8
0
  6
Continuous
 62
     7
370
    15
100
AcDbCircle
 10
6.974133647
 20
8.3100772898
 30
0.0
 40
0.013673868260185
100
AcDbArc
 50
136.5063041198
 51
185.2729334074
  0
ARC
  5
203
330
1F
100
AcDbEntity
  8
0
  6
Continuous
 62
     7
370
    15
100
AcDbCircle
 10
6.7914044691
 20
8.4106792914
 30
0.0
 40
0.0115211260305381
100
AcDbArc
 50
107.3408803714
 51
189.6921618772
  0
LWPOLYLINE
  5
204
330
1F
100
AcDbEntity
  8
0
  6
Continuous
 62
     7
370
    15
100
AcDbPolyline
 90
       10
 70
   128
 43
0.0
 10
6.8136832204
 20
8.3771362481
 10
6.8120627424
 20
8.3757482865
 10
6.8077575368
 20
8.3742689958
 10
6.8026316203
 20
8.374905002
 10
6.7971404531
 20
8.3775997933
 10
6.7917719495
 20
8.3821139256
 10
6.7870031247
 20
8.3880462984
 10
6.7832577095
 20
8.3948697944
 10
6.7808685006
 20
8.401978116
 10
6.7800477898
 20
8.4087396576
  0
LWPOLYLINE
  5
205
330
1F
100
AcDbEntity
  8
0
  6
Continuous
 62
     7
370
    15
100
AcDbPolyline
 90
        9
 70
   128
 43
0.0
 10
6.7837409482
 20
8.4108716726
 10
6.7845616591
 20
8.404110131
 10
6.786950868
 20
8.3970018094
 10
6.7906962831
 20
8.3901783134
 10
6.795465108
 20
8.3842459406
 10
6.8008336116
 20
8.3797318083
 10
6.8063247787
 20
8.377037017
 10
6.8114506952
 20
8.3764010108
 10
6.8132978247
 20
8.3767429861
  0
ARC
  5
206
330
1F
100
AcDbEntity
  8
0
  6
Continuous
 62
     7
370
    15
100
AcDbCircle
 10
6.7973569517
 20
8.4121283037
 30
0.0
 40
0.0136738682601935
100
AcDbArc
 50
136.5063041198
 51
185.2729334074
  0
LINE
  5
207
330
1F
100
AcDbEntity
  8
0
  6
Continuous
 62
     7
370
    15
100
AcDbLine
 10
6.6850111639
 20
8.4010772007
 30
0.0
 11
6.6850111639
 21
8.407043597
 31
0.0
  0
SPLINE
  5
208
330
1F
100
AcDbEntity
  8
0
  6
Continuous
 62
     7
370
    15
100
AcDbSpline
210
0.0
220
0.0
230
1.0
 70
     8
 71
     3
 72
    10
 73
     6
 74
     0
 42
0.000000001
 43
0.00000001
 40
0.0
 40
0.0
 40
0.0
 40
0.0
 40
0.4989887185754721
 40
0.7494000253049435
 40
1.0
 40
1.0
 40
1.0
 40
1.0
 10
6.685011163911762
 20
8.407043597044062
 30
0.0
 10
6.685171347155833
 20
8.412599670191495
 30
0.0
 10
6.685411916376522
 20
8.420943989816935
 30
0.0
 10
6.68635812661369
 20
8.431671050577703
 30
0.0
 10
6.686975941881981
 20
8.436941844963133
 30
0.0
 10
6.687284965842797
 20
8.439578234578663
 30
0.0
  0
LINE
  5
209
330
1F
100
AcDbEntity
  8
0
  6
Continuous
 62
     7
370
    15
100
AcDbLine
 10
6.7029897752
 20
8.4305120408
 30
0.0
 11
6.6872849658
 21
8.4395782344
 31
0.0
  0
LINE
  5
20A
330
1F
100
AcDbEntity
  8
0
  6
Continuous
 62
     7
370
    15
100
AcDbLine
 10
6.692544551
 20
8.3628809938
 30
0.0
 11
6.6872849657
 21
8.3659172877
 31
0.0
  0
SPLINE
  5
20B
330
1F
100
AcDbEntity
  8
0
  6
Continuous
 62
     7
370
    15
100
AcDbSpline
210
0.0
220
0.0
230
1.0
 70
     8
 71
     3
 72
    10
 73
     6
 74
     0
 42
0.000000001
 43
0.00000001
 40
0.0
 40
0.0
 40
0.0
 40
0.0
 40
0.3268376859012319
 40
0.6631067062360263
 40
1.0
 40
1.0
 40
1.0
 40
1.0
 10
6.687284965710603
 20
8.365917288570275
 30
0.0
 10
6.68688816547697
 20
8.369818635881833
 30
0.0
 10
6.686083114813266
 20
8.377733909050278
 30
0.0
 10
6.685276576933279
 20
8.389490040991427
 30
0.0
 10
6.685099689599189
 20
8.397212426961842
 30
0.0
 10
6.685011163911762
 20
8.401077200718188
 30
0.0
  0
LINE
  5
20C
330
1F
100
AcDbEntity
  8
0
  6
Continuous
 62
     7
370
    15
100
AcDbLine
 10
6.7103952451
 20
8.4724684278
 30
0.0
 11
6.7148698
 21
8.4780347315
 31
0.0
  0
LINE
  5
20D
330
1F
100
AcDbEntity
  8
0
  6
Continuous
 62
     7
370
    15
100
AcDbLine
 10
6.7148698
 20
8.4780347315
 30
0.0
 11
6.719350037
 21
8.4831885252
 31
0.0
  0
SPLINE
  5
20E
330
1F
100
AcDbEntity
  8
0
  6
Continuous
 62
     7
370
    15
100
AcDbSpline
210
0.0
220
0.0
230
1.0
 70
     8
 71
     3
 72
    10
 73
     6
 74
     0
 42
0.000000001
 43
0.00000001
 40
0.0
 40
0.0
 40
0.0
 40
0.0
 40
0.3268376859029202
 40
0.6631067062368882
 40
1.0
 40
1.0
 40
1.0
 40
1.0
 10
6.68728496629056
 20
8.43957823501026
 30
0.0
 10
6.689642226424359
 20
8.443233327824013
 30
0.0
 10
6.694424768556088
 20
8.450648985997036
 30
0.0
 10
6.702085667631414
 20
8.461648001478448
 30
0.0
 10
6.707623674026637
 20
8.46885938983163
 30
0.0
 10
6.710395245126647
 20
8.47246842783633
 30
0.0
  0
ARC
  5
20F
330
1F
100
AcDbEntity
  8
0
  6
Continuous
 62
     7
370
    15
100
AcDbCircle
 10
6.657803769
 20
8.460968078
 30
0.0
 40
0.0181178086125433
100
AcDbArc
 50
172.8912510322
 51
235.7965685745
  0
LWPOLYLINE
  5
210
330
1F
100
AcDbEntity
  8
0
  6
Continuous
 62
     7
370
    15
100
AcDbPolyline
 90
       11
 70
   128
 43
0.0
 10
6.6852410949
 20
8.5111539773
 10
6.6833887205
 20
8.5120308544
 10
6.6777579361
 20
8.5129067073
 10
6.6714153835
 20
8.5116249888
 10
6.6647595887
 20
8.508266234
 10
6.6582087598
 20
8.5030414857
 10
6.6521745094
 20
8.4962790342
 10
6.6470359916
 20
8.4884037891
 10
6.6431160786
 20
8.4799105811
 10
6.6406610727
 20
8.4713330696
 10
6.6398252311
 20
8.4632102112
  0
LWPOLYLINE
  5
211
330
1F
100
AcDbEntity
  8
0
  6
Continuous
 62
     7
370
    15
100
AcDbPolyline
 90
       13
 70
   128
 43
0.0
 10
6.6687298927
 20
8.5151899341
 10
6.6673040326
 20
8.5153971215
 10
6.6615957309
 20
8.5148321755
 10
6.6554699686
 20
8.5122271322
 10
6.6493442063
 20
8.507759521
 10
6.6436359046
 20
8.501733802
 10
6.6387340748
 20
8.4945606183
 10
6.6349727685
 20
8.4867288102
 10
6.6326083126
 20
8.4787721027
 10
6.6318018407
 20
8.4712327322
 10
6.6326083126
 20
8.4646244944
 10
6.6349727685
 20
8.4593977297
 10
6.635867158
 20
8.4582638397
  0
LWPOLYLINE
  5
212
330
1F
100
AcDbEntity
  8
0
  6
Continuous
 62
     7
370
    15
100
AcDbPolyline
 90
       44
 70
   128
 43
0.0
 10
7.255487334
 20
8.0495454372
 10
7.2563085006
 20
8.0370635419
 10
7.2587544988
 20
8.0257957753
 10
7.2627731963
 20
8.0159822904
 10
7.2682789417
 20
8.0078322444
 10
7.2751543894
 20
8.0015193416
 10
7.2832530012
 20
7.9971781305
 10
7.2924021694
 20
7.9949011365
 10
7.3024068952
 20
7.9947368896
 10
7.3130539453
 20
7.9966888906
 10
7.3241163964
 20
8.000715536
 10
7.3353584714
 20
8.0067310048
 10
7.3465405651
 20
8.0146070877
 10
7.3574243505
 20
8.0241759197
 10
7.3677778587
 20
8.0352335577
 10
7.3773804226
 20
8.0475443274
 10
7.3860273802
 20
8.0608458462
 10
7.3935344367
 20
8.0748546151
 10
7.3997415922
 20
8.0892720617
 10
7.4045165518
 20
8.1037909032
 10
7.4077575458
 20
8.1181016955
 10
7.4093954978
 20
8.131899429
 10
7.4093954978
 20
8.144890029
 10
7.4077575458
 20
8.1567966233
 10
7.4045165518
 20
8.1673654437
 10
7.3997415922
 20
8.176371234
 10
7.3935344367
 20
8.1836220515
 10
7.3860273802
 20
8.1889633575
 10
7.3773804226
 20
8.1922813115
 10
7.3677778587
 20
8.1935051969
 10
7.3574243505
 20
8.1926089289
 10
7.3465405651
 20
8.1896116097
 10
7.3353584714
 20
8.184577122
 10
7.3241163964
 20
8.1776127672
 10
7.3130539453
 20
8.1688669785
 10
7.3024068952
 20
8.1585261571
 10
7.2924021694
 20
8.1468106997
 10
7.2832530012
 20
8.133970301
 10
7.2751543894
 20
8.1202786316
 10
7.2682789417
 20
8.1060275059
 10
7.2627731963
 20
8.0915206617
 10
7.2587544988
 20
8.0770672874
 10
7.2563085006
 20
8.0629754314
 10
7.255487334
 20
8.0495454372
  0
SPLINE
  5
213
330
1F
100
AcDbEntity
  8
0
  6
Continuous
 62
     7
370
    15
100
AcDbSpline
210
0.0
220
0.0
230
1.0
 70
     8
 71
     3
 72
    11
 73
     7
 74
     0
 42
0.000000001
 43
0.00000001
 40
0.0
 40
0.0
 40
0.0
 40
0.0
 40
0.2646136134961537
 40
0.5349657659035753
 40
0.7653524246751676
 40
1.0
 40
1.0
 40
1.0
 40
1.0
 10
7.325473130454987
 20
7.994986134001923
 30
0.0
 10
7.334181126946896
 20
8.002184943431004
 30
0.0
 10
7.351785965757832
 20
8.016738679155104
 30
0.0
 10
7.373368356006983
 20
8.040899860451434
 30
0.0
 10
7.390422731055921
 20
8.066060344239066
 30
0.0
 10
7.398657715642014
 20
8.08276650040874
 30
0.0
 10
7.402812934815757
 20
8.091196114296906
 30
0.0
  0
SPLINE
  5
214
330
1F
100
AcDbEntity
  8
0
  6
Continuous
 62
     7
370
    15
100
AcDbSpline
210
0.0
220
0.0
230
1.0
 70
     8
 71
     3
 72
    11
 73
     7
 74
     0
 42
0.000000001
 43
0.00000001
 40
0.0
 40
0.0
 40
0.0
 40
0.0
 40
0.2646136134961531
 40
0.5349657659035725
 40
0.7653524246751661
 40
1.0
 40
1.0
 40
1.0
 40
1.0
 10
7.248133326523708
 20
8.001901478296569
 30
0.0
 10
7.256841322905422
 20
8.000149437572116
 30
0.0
 10
7.274446161493581
 20
7.996607360519965
 30
0.0
 10
7.296028551830893
 20
7.993957764227476
 30
0.0
 10
7.313082926859786
 20
7.993489608975816
 30
0.0
 10
7.321317911448443
 20
7.994484254372653
 30
0.0
 10
7.325473130623478
 20
7.994986133833482
 30
0.0
  0
SPLINE
  5
215
330
1F
100
AcDbEntity
  8
0
  6
Continuous
 62
     7
370
    15
100
AcDbSpline
210
0.0
220
0.0
230
1.0
 70
     8
 71
     3
 72
    11
 73
     7
 74
     0
 42
0.000000001
 43
0.00000001
 40
0.0
 40
0.0
 40
0.0
 40
0.0
 40
0.2646136127554464
 40
0.5349657642288485
 40
0.7653524238103031
 40
1.0
 40
1.0
 40
1.0
 40
1.0
 10
7.248133326712275
 20
8.105026803210752
 30
0.0
 10
7.25012854915143
 20
8.094924135730714
 30
0.0
 10
7.254162263388027
 20
8.07449970944013
 30
0.0
 10
7.255637659753408
 20
8.046837203652764
 30
0.0
 10
7.253471596728503
 20
8.022459006157645
 30
0.0
 10
7.24992358652892
 20
8.008795718015435
 30
0.0
 10
7.248133326953197
 20
8.00190147841169
 30
0.0
  0
SPLINE
  5
216
330
1F
100
AcDbEntity
  8
0
  6
Continuous
 62
     7
370
    15
100
AcDbSpline
210
0.0
220
0.0
230
1.0
 70
     8
 71
     3
 72
    11
 73
     7
 74
     0
 42
0.000000001
 43
0.00000001
 40
0.0
 40
0.0
 40
0.0
 40
0.0
 40
0.2646136140617534
 40
0.5349657669360356
 40
0.7653524252585204
 40
1.0
 40
1.0
 40
1.0
 40
1.0
 10
7.325473130623479
 20
8.201236783314064
 30
0.0
 10
7.320755579124731
 20
8.19173433903072
 30
0.0
 10
7.311218169023832
 20
8.172523375861534
 30
0.0
 10
7.292586571430129
 20
8.14665873858931
 30
0.0
 10
7.271200070485853
 20
8.123999138207921
 30
0.0
 10
7.255869065698278
 20
8.111389427560008
 30
0.0
 10
7.248133327475196
 20
8.105026803453326
 30
0.0
  0
SPLINE
  5
217
330
1F
100
AcDbEntity
  8
0
  6
Continuous
 62
     7
370
    15
100
AcDbSpline
210
0.0
220
0.0
230
1.0
 70
     8
 71
     3
 72
    11
 73
     7
 74
     0
 42
0.000000001
 43
0.00000001
 40
0.0
 40
0.0
 40
0.0
 40
0.0
 40
0.2646136110892973
 40
0.534965761037666
 40
0.7653524221553871
 40
0.9999999999999999
 40
0.9999999999999999
 40
0.9999999999999999
 40
0.9999999999999999
 10
7.402812934969937
 20
8.194321439913937
 30
0.0
 10
7.398095383610817
 20
8.193769845761086
 30
0.0
 10
7.38855797379022
 20
8.192654695317577
 30
0.0
 10
7.369926375930479
 20
8.193600835315056
 30
0.0
 10
7.348539874543819
 20
8.196569873764261
 30
0.0
 10
7.33320886923965
 20
8.19967167382388
 30
0.0
 10
7.325473130751719
 20
8.201236784110325
 30
0.0
  0
SPLINE
  5
218
330
1F
100
AcDbEntity
  8
0
  6
Continuous
 62
     7
370
    15
100
AcDbSpline
210
0.0
220
0.0
230
1.0
 70
     8
 71
     3
 72
    11
 73
     7
 74
     0
 42
0.000000001
 43
0.00000001
 40
0.0
 40
0.0
 40
0.0
 40
0.0
 40
0.2646136134961561
 40
0.5349657659035771
 40
0.7653524246751684
 40
0.9999999999999999
 40
0.9999999999999999
 40
0.9999999999999999
 40
0.9999999999999999
 10
7.402812934678102
 20
8.091196114810607
 30
0.0
 10
7.404808157299633
 20
8.09899514752547
 30
0.0
 10
7.408841871906272
 20
8.114762346553855
 30
0.0
 10
7.410317268110376
 20
8.140721395992694
 30
0.0
 10
7.408151205101181
 20
8.167600476602367
 30
0.0
 10
7.404603194909392
 20
8.185360210059798
 30
0.0
 10
7.402812935337755
 20
8.19432143933854
 30
0.0
  0
LINE
  5
219
330
1F
100
AcDbEntity
  8
0
  6
Continuous
 62
     7
370
    15
100
AcDbLine
 10
7.3254731308
 20
8.2012367841
 30
0.0
 11
7.1924486678
 21
8.2780301721
 31
0.0
  0
LINE
  5
21A
330
1F
100
AcDbEntity
  8
0
  6
Continuous
 62
     7
370
    15
100
AcDbLine
 10
7.1151088636
 20
8.1818201909
 30
0.0
 11
7.2481333271
 21
8.1050268032
 31
0.0
  0
LINE
  5
21B
330
1F
100
AcDbEntity
  8
0
  6
Continuous
 62
     7
370
    15
100
AcDbLine
 10
7.1151088636
 20
8.1818201909
 30
0.0
 11
7.1155827182
 21
8.1824096616
 31
0.0
  0
LINE
  5
21C
330
1F
100
AcDbEntity
  8
0
  6
Continuous
 62
     7
370
    15
100
AcDbLine
 10
7.1155827182
 20
8.1824096616
 30
0.0
 11
7.1243733274
 21
8.1997842867
 31
0.0
  0
LINE
  5
21D
330
1F
100
AcDbEntity
  8
0
  6
Continuous
 62
     7
370
    15
100
AcDbLine
 10
7.1243733274
 20
8.1997842867
 30
0.0
 11
7.0946060074
 21
8.2169685947
 31
0.0
  0
SPLINE
  5
21E
330
1F
100
AcDbEntity
  8
0
  6
Continuous
 62
     7
370
    15
100
AcDbSpline
210
0.0
220
0.0
230
1.0
 70
     8
 71
     3
 72
     9
 73
     5
 74
     0
 42
0.000000001
 43
0.00000001
 40
0.0
 40
0.0
 40
0.0
 40
0.0
 40
0.5357852996853202
 40
1.0
 40
1.0
 40
1.0
 40
1.0
 10
7.094606007398108
 20
8.216968594699487
 30
0.0
 10
7.099646034765827
 20
8.225634815712525
 30
0.0
 10
7.109052838891809
 20
8.241809617481305
 30
0.0
 10
7.121957382941743
 20
8.256250064010748
 30
0.0
 10
7.127947861990581
 20
8.262953531568824
 30
0.0
  0
LINE
  5
21F
330
1F
100
AcDbEntity
  8
0
  6
Continuous
 62
     7
370
    15
100
AcDbLine
 10
7.1530651524
 20
8.2774534347
 30
0.0
 11
7.1761131361
 21
8.2641481169
 31
0.0
  0
LINE
  5
220
330
1F
100
AcDbEntity
  8
0
  6
Continuous
 62
     7
370
    15
100
AcDbLine
 10
7.1761131361
 20
8.2641481169
 30
0.0
 11
7.1919748131
 21
8.2774407014
 31
0.0
  0
LINE
  5
221
330
1F
100
AcDbEntity
  8
0
  6
Continuous
 62
     7
370
    15
100
AcDbLine
 10
7.1919748131
 20
8.2774407014
 30
0.0
 11
7.1924486678
 21
8.2780301721
 31
0.0
  0
LWPOLYLINE
  5
222
330
1F
100
AcDbEntity
  8
0
  6
Continuous
 62
     7
370
    15
100
AcDbPolyline
 90
       39
 70
   128
 43
0.0
 10
7.3325441988
 20
8.1628740156
 10
7.3423569893
 20
8.1675998684
 10
7.3519021124
 20
8.1703189111
 10
7.3609192021
 20
8.1709569753
 10
7.3691622957
 20
8.1694966563
 10
7.3764065431
 20
8.1659777878
 10
7.3824543401
 20
8.1604963553
 10
7.3871407185
 20
8.1532018781
 10
7.3903378461
 20
8.1442933304
 10
7.3919585138
 20
8.1340137142
 10
7.3919585138
 20
8.1226434306
 10
7.3903378461
 20
8.1104926314
 10
7.3871407185
 20
8.0978927586
 10
7.3824543401
 20
8.085187504
 10
7.3764065431
 20
8.0727234338
 10
7.3691622957
 20
8.0608405353
 10
7.3609192021
 20
8.049862943
 10
7.3519021124
 20
8.0400900971
 10
7.3423569893
 20
8.0317885752
 10
7.3325441988
 20
8.0251848212
 10
7.3227314083
 20
8.0204589684
 10
7.3131862852
 20
8.0177399257
 10
7.3041691954
 20
8.0171018615
 10
7.2959261018
 20
8.0185621805
 10
7.2886818545
 20
8.022081049
 10
7.2826340575
 20
8.0275624815
 10
7.2779476791
 20
8.0348569588
 10
7.2747505514
 20
8.0437655065
 10
7.2731298838
 20
8.0540451227
 10
7.2731298838
 20
8.0654154062
 10
7.2747505514
 20
8.0775662054
 10
7.2779476791
 20
8.0901660782
 10
7.2826340575
 20
8.1028713328
 10
7.2886818545
 20
8.115335403
 10
7.2959261018
 20
8.1272183015
 10
7.3041691954
 20
8.1381958938
 10
7.3131862852
 20
8.1479687398
 10
7.3227314083
 20
8.1562702617
 10
7.3325441988
 20
8.1628740156
  0
LINE
  5
223
330
1F
100
AcDbEntity
  8
0
  6
Continuous
 62
     7
370
    15
100
AcDbLine
 10
7.1151088636
 20
8.0786948658
 30
0.0
 11
7.2481333269
 21
8.0019014781
 31
0.0
  0
LINE
  5
224
330
1F
100
AcDbEntity
  8
0
  6
Continuous
 62
     7
370
    15
100
AcDbLine
 10
7.1151088636
 20
8.0786948658
 30
0.0
 11
7.1151088636
 21
8.0793267062
 31
0.0
  0
LINE
  5
225
330
1F
100
AcDbEntity
  8
0
  6
Continuous
 62
     7
370
    15
100
AcDbLine
 10
7.1151088636
 20
8.0793267062
 30
0.0
 11
7.1115733297
 21
8.0978034743
 31
0.0
  0
LINE
  5
226
330
1F
100
AcDbEntity
  8
0
  6
Continuous
 62
     7
370
    15
100
AcDbLine
 10
7.1115733297
 20
8.0978034743
 30
0.0
 11
7.0818060097
 21
8.1149877823
 31
0.0
  0
SPLINE
  5
227
330
1F
100
AcDbEntity
  8
0
  6
Continuous
 62
     7
370
    15
100
AcDbSpline
210
0.0
220
0.0
230
1.0
 70
     8
 71
     3
 72
    10
 73
     6
 74
     0
 42
0.000000001
 43
0.00000001
 40
0.0
 40
0.0
 40
0.0
 40
0.0
 40
0.3702926789854306
 40
0.7498059832618689
 40
1.0
 40
1.0
 40
1.0
 40
1.0
 10
7.081806009693755
 20
8.114987782290777
 30
0.0
 10
7.080569614774586
 20
8.124168046324739
 30
0.0
 10
7.078066037575576
 20
8.14275717133647
 30
0.0
 10
7.078669272875509
 20
8.165738705820912
 30
0.0
 10
7.080914099713028
 20
8.178791730290564
 30
0.0
 10
7.081806009691866
 20
8.183977931107448
 30
0.0
  0
LINE
  5
228
330
1F
100
AcDbEntity
  8
0
  6
Continuous
 62
     7
370
    15
100
AcDbLine
 10
7.0818060097
 20
8.1839779311
 30
0.0
 11
7.1115733297
 21
8.1667936231
 31
0.0
  0
LINE
  5
229
330
1F
100
AcDbEntity
  8
0
  6
Continuous
 62
     7
370
    15
100
AcDbLine
 10
7.1115733297
 20
8.1667936231
 30
0.0
 11
7.1151088636
 21
8.1811883505
 31
0.0
  0
LINE
  5
22A
330
1F
100
AcDbEntity
  8
0
  6
Continuous
 62
     7
370
    15
100
AcDbLine
 10
7.1151088636
 20
8.1811883505
 30
0.0
 11
7.1151088636
 21
8.1818201909
 31
0.0
  0
LWPOLYLINE
  5
22B
330
1F
100
AcDbEntity
  8
0
  6
Continuous
 62
     7
370
    15
100
AcDbPolyline
 90
       28
 70
   128
 43
0.0
 10
7.3288879208
 20
8.1606337007
 10
7.3345977997
 20
8.1631363539
 10
7.3434452199
 20
8.1655063113
 10
7.3517465673
 20
8.1658285102
 10
7.3592496097
 20
8.1640931607
 10
7.3657263708
 20
8.1603529906
 10
7.3709800576
 20
8.1547216431
 10
7.3748510395
 20
8.1473702237
 10
7.3772216986
 20
8.1385221018
 10
7.3780200036
 20
8.1284461229
 10
7.3772216986
 20
8.1174484406
 10
7.3748510395
 20
8.1058632139
 10
7.3709800576
 20
8.094042454
 10
7.3657263708
 20
8.0823453288
 10
7.3592496097
 20
8.0711272495
 10
7.3517465673
 20
8.0607290717
 10
7.3434452199
 20
8.0514667389
 10
7.3345977997
 20
8.0436216822
 10
7.325473131
 20
8.0374322699
 10
7.3163484623
 20
8.033086564
 10
7.307501042
 20
8.0307166067
 10
7.2991996946
 20
8.0303944078
 10
7.2916966523
 20
8.0321297573
 10
7.2852198912
 20
8.0358699273
 10
7.2799662043
 20
8.0415012749
 10
7.2760952225
 20
8.0488526942
 10
7.2737245634
 20
8.0577008162
 10
7.2730378875
 20
8.0638881228
  0
LINE
  5
22C
330
1F
100
AcDbEntity
  8
0
  6
Continuous
 62
     7
370
    15
100
AcDbLine
 10
7.269788472
 20
8.2711148282
 30
0.0
 11
7.4028129353
 21
8.1943214397
 31
0.0
  0
LINE
  5
22D
330
1F
100
AcDbEntity
  8
0
  6
Continuous
 62
     7
370
    15
100
AcDbLine
 10
7.1924486678
 20
8.2780301721
 30
0.0
 11
7.1929225224
 21
8.2779878023
 31
0.0
  0
LINE
  5
22E
330
1F
100
AcDbEntity
  8
0
  6
Continuous
 62
     7
370
    15
100
AcDbLine
 10
7.1929225224
 20
8.2779878023
 30
0.0
 11
7.2017131316
 21
8.2789266797
 31
0.0
  0
LINE
  5
22F
330
1F
100
AcDbEntity
  8
0
  6
Continuous
 62
     7
370
    15
100
AcDbLine
 10
7.2017131316
 20
8.2789266797
 30
0.0
 11
7.1786651478
 21
8.2922319975
 31
0.0
  0
SPLINE
  5
230
330
1F
100
AcDbEntity
  8
0
  6
Continuous
 62
     7
370
    15
100
AcDbSpline
210
0.0
220
0.0
230
1.0
 70
     8
 71
     3
 72
    10
 73
     6
 74
     0
 42
0.000000001
 43
0.00000001
 40
0.0
 40
0.0
 40
0.0
 40
0.0
 40
0.0910194077704164
 40
0.6388457019371274
 40
1.0
 40
1.0
 40
1.0
 40
1.0
 10
7.185324293638585
 20
8.29612439174489
 30
0.0
 10
7.186225889233159
 20
8.296132637196822
 30
0.0
 10
7.192553995343573
 20
8.296190510255505
 30
0.0
 10
7.205613072119344
 20
8.294585736225603
 30
0.0
 10
7.218546813046275
 20
8.292366436679668
 30
0.0
 10
7.223685620371451
 20
8.291484669151785
 30
0.0
  0
LINE
  5
231
330
1F
100
AcDbEntity
  8
0
  6
Continuous
 62
     7
370
    15
100
AcDbLine
 10
7.2236856204
 20
8.2914846691
 30
0.0
 11
7.2534529403
 21
8.2743003611
 31
0.0
  0
LINE
  5
232
330
1F
100
AcDbEntity
  8
0
  6
Continuous
 62
     7
370
    15
100
AcDbLine
 10
7.2534529403
 20
8.2743003611
 30
0.0
 11
7.2693146173
 21
8.2711571979
 31
0.0
  0
LINE
  5
233
330
1F
100
AcDbEntity
  8
0
  6
Continuous
 62
     7
370
    15
100
AcDbLine
 10
7.2693146173
 20
8.2711571979
 30
0.0
 11
7.269788472
 21
8.2711148282
 31
0.0
  0
ARC
  5
234
330
1F
100
AcDbEntity
  8
0
  6
Continuous
 62
     7
370
    15
100
AcDbCircle
 10
7.2634101992
 20
8.1324960538
 30
0.0
 40
0.1887603383298633
100
AcDbArc
 50
153.4158235681
 51
164.1728166869
  0
ARC
  5
235
330
1F
100
AcDbEntity
  8
0
  6
Continuous
 62
     7
370
    15
100
AcDbCircle
 10
7.1260680024
 20
8.1324922497
 30
0.0
 40
0.0475975879123804
100
AcDbArc
 50
201.5775090428
 51
228.6238339468
  0
LINE
  5
236
330
1F
100
AcDbEntity
  8
0
  6
Continuous
 62
     7
370
    15
100
AcDbLine
 10
7.0946060074
 20
8.0967756815
 30
0.0
 11
7.1139014528
 21
8.0856366579
 31
0.0
  0
LWPOLYLINE
  5
237
330
1F
100
AcDbEntity
  8
0
  6
Continuous
 62
     7
370
    15
100
AcDbPolyline
 90
       44
 70
   128
 43
0.0
 10
7.255487334
 20
9.478491858
 10
7.2563085006
 20
9.4660099627
 10
7.2587544988
 20
9.4547421961
 10
7.2627731963
 20
9.4449287112
 10
7.2682789417
 20
9.4367786652
 10
7.2751543894
 20
9.4304657624
 10
7.2832530012
 20
9.4261245513
 10
7.2924021694
 20
9.4238475573
 10
7.3024068952
 20
9.4236833104
 10
7.3130539453
 20
9.4256353114
 10
7.3241163964
 20
9.4296619568
 10
7.3353584714
 20
9.4356774256
 10
7.3465405651
 20
9.4435535085
 10
7.3574243505
 20
9.4531223405
 10
7.3677778587
 20
9.4641799785
 10
7.3773804226
 20
9.4764907482
 10
7.3860273802
 20
9.489792267
 10
7.3935344367
 20
9.5038010359
 10
7.3997415922
 20
9.5182184825
 10
7.4045165518
 20
9.532737324
 10
7.4077575458
 20
9.5470481163
 10
7.4093954978
 20
9.5608458498
 10
7.4093954978
 20
9.5738364498
 10
7.4077575458
 20
9.5857430441
 10
7.4045165518
 20
9.5963118645
 10
7.3997415922
 20
9.6053176548
 10
7.3935344367
 20
9.6125684723
 10
7.3860273802
 20
9.6179097783
 10
7.3773804226
 20
9.6212277323
 10
7.3677778587
 20
9.6224516177
 10
7.3574243505
 20
9.6215553497
 10
7.3465405651
 20
9.6185580305
 10
7.3353584714
 20
9.6135235428
 10
7.3241163964
 20
9.606559188
 10
7.3130539453
 20
9.5978133993
 10
7.3024068952
 20
9.5874725779
 10
7.2924021694
 20
9.5757571205
 10
7.2832530012
 20
9.5629167218
 10
7.2751543894
 20
9.5492250524
 10
7.2682789417
 20
9.5349739267
 10
7.2627731963
 20
9.5204670825
 10
7.2587544988
 20
9.5060137082
 10
7.2563085006
 20
9.4919218522
 10
7.255487334
 20
9.478491858
  0
SPLINE
  5
238
330
1F
100
AcDbEntity
  8
0
  6
Continuous
 62
     7
370
    15
100
AcDbSpline
210
0.0
220
0.0
230
1.0
 70
     8
 71
     3
 72
    11
 73
     7
 74
     0
 42
0.000000001
 43
0.00000001
 40
0.0
 40
0.0
 40
0.0
 40
0.0
 40
0.2646136134961537
 40
0.5349657659035753
 40
0.7653524246751676
 40
1.0
 40
1.0
 40
1.0
 40
1.0
 10
7.325473130454987
 20
9.423932554801985
 30
0.0
 10
7.334181126946896
 20
9.431131364231067
 30
0.0
 10
7.351785965757832
 20
9.445685099955167
 30
0.0
 10
7.373368356006983
 20
9.469846281251497
 30
0.0
 10
7.390422731055921
 20
9.495006765039127
 30
0.0
 10
7.398657715642014
 20
9.511712921208803
 30
0.0
 10
7.402812934815757
 20
9.520142535096968
 30
0.0
  0
SPLINE
  5
239
330
1F
100
AcDbEntity
  8
0
  6
Continuous
 62
     7
370
    15
100
AcDbSpline
210
0.0
220
0.0
230
1.0
 70
     8
 71
     3
 72
    11
 73
     7
 74
     0
 42
0.000000001
 43
0.00000001
 40
0.0
 40
0.0
 40
0.0
 40
0.0
 40
0.2646136134961531
 40
0.5349657659035725
 40
0.7653524246751661
 40
1.0
 40
1.0
 40
1.0
 40
1.0
 10
7.248133326523708
 20
9.430847899096632
 30
0.0
 10
7.256841322905422
 20
9.429095858372179
 30
0.0
 10
7.274446161493581
 20
9.425553781320028
 30
0.0
 10
7.296028551830893
 20
9.422904185027537
 30
0.0
 10
7.313082926859786
 20
9.422436029775879
 30
0.0
 10
7.321317911448443
 20
9.423430675172714
 30
0.0
 10
7.325473130623478
 20
9.423932554633543
 30
0.0
  0
SPLINE
  5
23A
330
1F
100
AcDbEntity
  8
0
  6
Continuous
 62
     7
370
    15
100
AcDbSpline
210
0.0
220
0.0
230
1.0
 70
     8
 71
     3
 72
    11
 73
     7
 74
     0
 42
0.000000001
 43
0.00000001
 40
0.0
 40
0.0
 40
0.0
 40
0.0
 40
0.2646136127554464
 40
0.5349657642288485
 40
0.7653524238103031
 40
1.0
 40
1.0
 40
1.0
 40
1.0
 10
7.248133326712275
 20
9.533973224010815
 30
0.0
 10
7.25012854915143
 20
9.523870556530776
 30
0.0
 10
7.254162263388027
 20
9.50344613024019
 30
0.0
 10
7.255637659753408
 20
9.475783624452825
 30
0.0
 10
7.253471596728503
 20
9.451405426957704
 30
0.0
 10
7.24992358652892
 20
9.4377421388155
 30
0.0
 10
7.248133326953197
 20
9.430847899211754
 30
0.0
  0
SPLINE
  5
23B
330
1F
100
AcDbEntity
  8
0
  6
Continuous
 62
     7
370
    15
100
AcDbSpline
210
0.0
220
0.0
230
1.0
 70
     8
 71
     3
 72
    11
 73
     7
 74
     0
 42
0.000000001
 43
0.00000001
 40
0.0
 40
0.0
 40
0.0
 40
0.0
 40
0.2646136140617534
 40
0.5349657669360356
 40
0.7653524252585204
 40
1.0
 40
1.0
 40
1.0
 40
1.0
 10
7.325473130623479
 20
9.630183204114127
 30
0.0
 10
7.320755579124731
 20
9.620680759830783
 30
0.0
 10
7.311218169023832
 20
9.601469796661595
 30
0.0
 10
7.292586571430129
 20
9.575605159389372
 30
0.0
 10
7.271200070485852
 20
9.552945559007984
 30
0.0
 10
7.255869065698278
 20
9.540335848360069
 30
0.0
 10
7.248133327475194
 20
9.533973224253389
 30
0.0
  0
SPLINE
  5
23C
330
1F
100
AcDbEntity
  8
0
  6
Continuous
 62
     7
370
    15
100
AcDbSpline
210
0.0
220
0.0
230
1.0
 70
     8
 71
     3
 72
    11
 73
     7
 74
     0
 42
0.000000001
 43
0.00000001
 40
0.0
 40
0.0
 40
0.0
 40
0.0
 40
0.2646136110892973
 40
0.534965761037666
 40
0.7653524221553871
 40
0.9999999999999999
 40
0.9999999999999999
 40
0.9999999999999999
 40
0.9999999999999999
 10
7.402812934969937
 20
9.623267860714
 30
0.0
 10
7.398095383610817
 20
9.622716266561147
 30
0.0
 10
7.38855797379022
 20
9.62160111611764
 30
0.0
 10
7.369926375930479
 20
9.622547256115118
 30
0.0
 10
7.348539874543819
 20
9.625516294564324
 30
0.0
 10
7.33320886923965
 20
9.628618094623944
 30
0.0
 10
7.325473130751719
 20
9.630183204910386
 30
0.0
  0
SPLINE
  5
23D
330
1F
100
AcDbEntity
  8
0
  6
Continuous
 62
     7
370
    15
100
AcDbSpline
210
0.0
220
0.0
230
1.0
 70
     8
 71
     3
 72
    11
 73
     7
 74
     0
 42
0.000000001
 43
0.00000001
 40
0.0
 40
0.0
 40
0.0
 40
0.0
 40
0.2646136134961561
 40
0.5349657659035771
 40
0.7653524246751684
 40
0.9999999999999999
 40
0.9999999999999999
 40
0.9999999999999999
 40
0.9999999999999999
 10
7.402812934678102
 20
9.520142535610669
 30
0.0
 10
7.404808157299633
 20
9.527941568325533
 30
0.0
 10
7.408841871906272
 20
9.543708767353918
 30
0.0
 10
7.410317268110376
 20
9.569667816792757
 30
0.0
 10
7.408151205101181
 20
9.59654689740243
 30
0.0
 10
7.404603194909392
 20
9.614306630859861
 30
0.0
 10
7.402812935337755
 20
9.623267860138602
 30
0.0
  0
LINE
  5
23E
330
1F
100
AcDbEntity
  8
0
  6
Continuous
 62
     7
370
    15
100
AcDbLine
 10
7.3254731308
 20
9.6301832049
 30
0.0
 11
7.1924486678
 21
9.7069765929
 31
0.0
  0
LINE
  5
23F
330
1F
100
AcDbEntity
  8
0
  6
Continuous
 62
     7
370
    15
100
AcDbLine
 10
7.1151088636
 20
9.6107666117
 30
0.0
 11
7.2481333271
 21
9.533973224
 31
0.0
  0
LINE
  5
240
330
1F
100
AcDbEntity
  8
0
  6
Continuous
 62
     7
370
    15
100
AcDbLine
 10
7.1151088636
 20
9.6107666117
 30
0.0
 11
7.1155827182
 21
9.6113560824
 31
0.0
  0
LINE
  5
241
330
1F
100
AcDbEntity
  8
0
  6
Continuous
 62
     7
370
    15
100
AcDbLine
 10
7.1155827182
 20
9.6113560824
 30
0.0
 11
7.1243733274
 21
9.6287307075
 31
0.0
  0
LINE
  5
242
330
1F
100
AcDbEntity
  8
0
  6
Continuous
 62
     7
370
    15
100
AcDbLine
 10
7.1243733274
 20
9.6287307075
 30
0.0
 11
7.0946060074
 21
9.6459150155
 31
0.0
  0
SPLINE
  5
243
330
1F
100
AcDbEntity
  8
0
  6
Continuous
 62
     7
370
    15
100
AcDbSpline
210
0.0
220
0.0
230
1.0
 70
     8
 71
     3
 72
    10
 73
     6
 74
     0
 42
0.000000001
 43
0.00000001
 40
0.0
 40
0.0
 40
0.0
 40
0.0
 40
0.3702926789854314
 40
0.7498059832618703
 40
1.0
 40
1.0
 40
1.0
 40
1.0
 10
7.094606007398108
 20
9.64591501549955
 30
0.0
 10
7.099719149844653
 20
9.654527535212457
 30
0.0
 10
7.110072756646154
 20
9.67196703423089
 30
0.0
 10
7.128172375245752
 20
9.693384128394712
 30
0.0
 10
7.141178320699922
 20
9.705474946700711
 30
0.0
 10
7.14634581617927
 20
9.71027884574504
 30
0.0
  0
LINE
  5
244
330
1F
100
AcDbEntity
  8
0
  6
Continuous
 62
     7
370
    15
100
AcDbLine
 10
7.1463458162
 20
9.7102788457
 30
0.0
 11
7.1761131361
 21
9.6930945377
 31
0.0
  0
LINE
  5
245
330
1F
100
AcDbEntity
  8
0
  6
Continuous
 62
     7
370
    15
100
AcDbLine
 10
7.1761131361
 20
9.6930945377
 30
0.0
 11
7.1919748131
 21
9.7063871222
 31
0.0
  0
LINE
  5
246
330
1F
100
AcDbEntity
  8
0
  6
Continuous
 62
     7
370
    15
100
AcDbLine
 10
7.1919748131
 20
9.7063871222
 30
0.0
 11
7.1924486678
 21
9.7069765929
 31
0.0
  0
LWPOLYLINE
  5
247
330
1F
100
AcDbEntity
  8
0
  6
Continuous
 62
     7
370
    15
100
AcDbPolyline
 90
       39
 70
   128
 43
0.0
 10
7.3325441988
 20
9.5918204364
 10
7.3423569893
 20
9.5965462892
 10
7.3519021124
 20
9.5992653319
 10
7.3609192021
 20
9.5999033961
 10
7.3691622957
 20
9.5984430771
 10
7.3764065431
 20
9.5949242086
 10
7.3824543401
 20
9.5894427761
 10
7.3871407185
 20
9.5821482989
 10
7.3903378461
 20
9.5732397512
 10
7.3919585138
 20
9.562960135
 10
7.3919585138
 20
9.5515898514
 10
7.3903378461
 20
9.5394390522
 10
7.3871407185
 20
9.5268391794
 10
7.3824543401
 20
9.5141339248
 10
7.3764065431
 20
9.5016698546
 10
7.3691622957
 20
9.4897869561
 10
7.3609192021
 20
9.4788093638
 10
7.3519021124
 20
9.4690365179
 10
7.3423569893
 20
9.460734996
 10
7.3325441988
 20
9.454131242
 10
7.3227314083
 20
9.4494053892
 10
7.3131862852
 20
9.4466863465
 10
7.3041691954
 20
9.4460482823
 10
7.2959261018
 20
9.4475086013
 10
7.2886818545
 20
9.4510274698
 10
7.2826340575
 20
9.4565089023
 10
7.2779476791
 20
9.4638033796
 10
7.2747505514
 20
9.4727119273
 10
7.2731298838
 20
9.4829915435
 10
7.2731298838
 20
9.494361827
 10
7.2747505514
 20
9.5065126262
 10
7.2779476791
 20
9.519112499
 10
7.2826340575
 20
9.5318177536
 10
7.2886818545
 20
9.5442818238
 10
7.2959261018
 20
9.5561647223
 10
7.3041691954
 20
9.5671423146
 10
7.3131862852
 20
9.5769151606
 10
7.3227314083
 20
9.5852166825
 10
7.3325441988
 20
9.5918204364
  0
LINE
  5
248
330
1F
100
AcDbEntity
  8
0
  6
Continuous
 62
     7
370
    15
100
AcDbLine
 10
7.1151088636
 20
9.5076412866
 30
0.0
 11
7.2481333269
 21
9.4308478989
 31
0.0
  0
LINE
  5
249
330
1F
100
AcDbEntity
  8
0
  6
Continuous
 62
     7
370
    15
100
AcDbLine
 10
7.1151088636
 20
9.5076412866
 30
0.0
 11
7.1151088636
 21
9.508273127
 31
0.0
  0
LINE
  5
24A
330
1F
100
AcDbEntity
  8
0
  6
Continuous
 62
     7
370
    15
100
AcDbLine
 10
7.1151088636
 20
9.508273127
 30
0.0
 11
7.1115733297
 21
9.5267498951
 31
0.0
  0
LINE
  5
24B
330
1F
100
AcDbEntity
  8
0
  6
Continuous
 62
     7
370
    15
100
AcDbLine
 10
7.1115733297
 20
9.5267498951
 30
0.0
 11
7.0818060097
 21
9.5439342031
 31
0.0
  0
SPLINE
  5
24C
330
1F
100
AcDbEntity
  8
0
  6
Continuous
 62
     7
370
    15
100
AcDbSpline
210
0.0
220
0.0
230
1.0
 70
     8
 71
     3
 72
    10
 73
     6
 74
     0
 42
0.000000001
 43
0.00000001
 40
0.0
 40
0.0
 40
0.0
 40
0.0
 40
0.3702926789854306
 40
0.7498059832618689
 40
1.0
 40
1.0
 40
1.0
 40
1.0
 10
7.081806009693755
 20
9.54393420309084
 30
0.0
 10
7.080569614774586
 20
9.553114467124802
 30
0.0
 10
7.078066037575576
 20
9.571703592136533
 30
0.0
 10
7.078669272875509
 20
9.594685126620973
 30
0.0
 10
7.080914099713028
 20
9.607738151090626
 30
0.0
 10
7.081806009691866
 20
9.61292435190751
 30
0.0
  0
LINE
  5
24D
330
1F
100
AcDbEntity
  8
0
  6
Continuous
 62
     7
370
    15
100
AcDbLine
 10
7.0818060097
 20
9.6129243519
 30
0.0
 11
7.1115733297
 21
9.5957400439
 31
0.0
  0
LINE
  5
24E
330
1F
100
AcDbEntity
  8
0
  6
Continuous
 62
     7
370
    15
100
AcDbLine
 10
7.1115733297
 20
9.5957400439
 30
0.0
 11
7.1151088636
 21
9.6101347713
 31
0.0
  0
LINE
  5
24F
330
1F
100
AcDbEntity
  8
0
  6
Continuous
 62
     7
370
    15
100
AcDbLine
 10
7.1151088636
 20
9.6101347713
 30
0.0
 11
7.1151088636
 21
9.6107666117
 31
0.0
  0
LWPOLYLINE
  5
250
330
1F
100
AcDbEntity
  8
0
  6
Continuous
 62
     7
370
    15
100
AcDbPolyline
 90
       28
 70
   128
 43
0.0
 10
7.3288879207
 20
9.5895801215
 10
7.3345977997
 20
9.5920827747
 10
7.3434452199
 20
9.5944527321
 10
7.3517465673
 20
9.594774931
 10
7.3592496097
 20
9.5930395815
 10
7.3657263708
 20
9.5892994114
 10
7.3709800576
 20
9.5836680639
 10
7.3748510395
 20
9.5763166445
 10
7.3772216986
 20
9.5674685226
 10
7.3780200036
 20
9.5573925437
 10
7.3772216986
 20
9.5463948614
 10
7.3748510395
 20
9.5348096347
 10
7.3709800576
 20
9.5229888748
 10
7.3657263708
 20
9.5112917496
 10
7.3592496097
 20
9.5000736703
 10
7.3517465673
 20
9.4896754925
 10
7.3434452199
 20
9.4804131597
 10
7.3345977997
 20
9.472568103
 10
7.325473131
 20
9.4663786907
 10
7.3163484623
 20
9.4620329848
 10
7.307501042
 20
9.4596630275
 10
7.2991996946
 20
9.4593408286
 10
7.2916966523
 20
9.4610761781
 10
7.2852198912
 20
9.4648163481
 10
7.2799662043
 20
9.4704476957
 10
7.2760952225
 20
9.477799115
 10
7.2737245634
 20
9.486647237
 10
7.2730378875
 20
9.4928345436
  0
LINE
  5
251
330
1F
100
AcDbEntity
  8
0
  6
Continuous
 62
     7
370
    15
100
AcDbLine
 10
7.269788472
 20
9.700061249
 30
0.0
 11
7.4028129353
 21
9.6232678605
 31
0.0
  0
LINE
  5
252
330
1F
100
AcDbEntity
  8
0
  6
Continuous
 62
     7
370
    15
100
AcDbLine
 10
7.1924486678
 20
9.7069765929
 30
0.0
 11
7.1929225224
 21
9.7069342231
 31
0.0
  0
LINE
  5
253
330
1F
100
AcDbEntity
  8
0
  6
Continuous
 62
     7
370
    15
100
AcDbLine
 10
7.1929225224
 20
9.7069342231
 30
0.0
 11
7.2017131316
 21
9.7078731005
 31
0.0
  0
LINE
  5
254
330
1F
100
AcDbEntity
  8
0
  6
Continuous
 62
     7
370
    15
100
AcDbLine
 10
7.2017131316
 20
9.7078731005
 30
0.0
 11
7.1719458116
 21
9.7250574085
 31
0.0
  0
SPLINE
  5
255
330
1F
100
AcDbEntity
  8
0
  6
Continuous
 62
     7
370
    15
100
AcDbSpline
210
0.0
220
0.0
230
1.0
 70
     8
 71
     3
 72
    10
 73
     6
 74
     0
 42
0.000000001
 43
0.00000001
 40
0.0
 40
0.0
 40
0.0
 40
0.0
 40
0.3702926789860085
 40
0.7498059832630402
 40
1.0
 40
1.0
 40
1.0
 40
1.0
 10
7.171945811589207
 20
9.7250574085226
 30
0.0
 10
7.177058954036251
 20
9.72520341979538
 30
0.0
 10
7.187412560838761
 20
9.725499078154744
 30
0.0
 10
7.205512179437952
 20
9.723586397508198
 30
0.0
 10
7.218518124892121
 20
9.721328280395474
 30
0.0
 10
7.223685620371451
 20
9.720431089951846
 30
0.0
  0
LINE
  5
256
330
1F
100
AcDbEntity
  8
0
  6
Continuous
 62
     7
370
    15
100
AcDbLine
 10
7.2236856204
 20
9.7204310899
 30
0.0
 11
7.2534529403
 21
9.7032467819
 31
0.0
  0
LINE
  5
257
330
1F
100
AcDbEntity
  8
0
  6
Continuous
 62
     7
370
    15
100
AcDbLine
 10
7.2534529403
 20
9.7032467819
 30
0.0
 11
7.2693146173
 21
9.7001036187
 31
0.0
  0
LINE
  5
258
330
1F
100
AcDbEntity
  8
0
  6
Continuous
 62
     7
370
    15
100
AcDbLine
 10
7.2693146173
 20
9.7001036187
 30
0.0
 11
7.269788472
 21
9.700061249
 31
0.0
  0
ARC
  5
259
330
1F
100
AcDbEntity
  8
0
  6
Continuous
 62
     7
370
    15
100
AcDbCircle
 10
7.2634101992
 20
9.5614424746
 30
0.0
 40
0.1887603383299634
100
AcDbArc
 50
153.4158235681
 51
164.1728166869
  0
ARC
  5
25A
330
1F
100
AcDbEntity
  8
0
  6
Continuous
 62
     7
370
    15
100
AcDbCircle
 10
7.2137434239
 20
9.6230920452
 30
0.0
 40
0.1101997083340827
100
AcDbArc
 50
112.2896908369
 51
127.7049326255
  0
ARC
  5
25B
330
1F
100
AcDbEntity
  8
0
  6
Continuous
 62
     7
370
    15
100
AcDbCircle
 10
7.1260680024
 20
9.5614386705
 30
0.0
 40
0.0475975879124249
100
AcDbArc
 50
201.5775090428
 51
228.6238339468
  0
LINE
  5
25C
330
1F
100
AcDbEntity
  8
0
  6
Continuous
 62
     7
370
    15
100
AcDbLine
 10
7.0946060074
 20
9.5257221023
 30
0.0
 11
7.1139014528
 21
9.5145830787
 31
0.0
  0
LWPOLYLINE
  5
25D
330
1F
100
AcDbEntity
  8
0
  6
Continuous
 62
     7
370
    15
100
AcDbPolyline
 90
       27
 70
   128
 43
0.0
 10
6.6763491058
 20
8.5853212791
 10
6.663893364
 20
8.5772072855
 10
6.6516421451
 20
8.5673796297
 10
6.6397966138
 20
8.5559996814
 10
6.6285512735
 20
8.5432542991
 10
6.6180907722
 20
8.5293527617
 10
6.6085868711
 20
8.514523332
 10
6.6001956241
 20
8.4990095088
 10
6.5930548151
 20
8.4830660286
 10
6.5872816961
 20
8.4669546831
 10
6.5829710615
 20
8.45094002
 10
6.5801936918
 20
8.4352849996
 10
6.5789951913
 20
8.420246677
 10
6.5793952394
 20
8.406071981
 10
6.5813872674
 20
8.3929936597
 10
6.584938566
 20
8.3812264587
 10
6.5899908233
 20
8.3709635953
 10
6.5964610811
 20
8.3623735853
 10
6.6042430981
 20
8.3555974765
 10
6.6132090937
 20
8.3507465324
 10
6.6232118466
 20
8.3479004053
 10
6.6340871119
 20
8.3471058285
 10
6.6456563179
 20
8.3483758491
 10
6.6577294986
 20
8.3516896133
 10
6.6701084128
 20
8.3569927092
 10
6.6825897989
 20
8.36419806
 10
6.6871307677
 20
8.3672795911
  0
ARC
  5
25E
330
1F
100
AcDbEntity
  8
0
  6
Continuous
 62
     7
370
    15
100
AcDbCircle
 10
6.7229343067
 20
8.5106679355
 30
0.0
 40
0.0879960377320414
100
AcDbArc
 50
92.3344273239
 51
121.964999758
  0
LWPOLYLINE
  5
25F
330
1F
100
AcDbEntity
  8
0
  6
Continuous
 62
     7
370
    15
100
AcDbPolyline
 90
       30
 70
   128
 43
0.0
 10
6.686241233
 20
8.3767226425
 10
6.6763491058
 20
8.3703733399
 10
6.6645217101
 20
8.3644598145
 10
6.6529053746
 20
8.3604803857
 10
6.641707393
 20
8.3585060666
 10
6.6311275936
 20
8.3585720889
 10
6.6213547732
 20
8.3606772744
 10
6.6125633279
 20
8.364784056
 10
6.6049101413
 20
8.3708191482
 10
6.5985317848
 20
8.3786748546
 10
6.5935420801
 20
8.3882109898
 10
6.5900300689
 20
8.3992573814
 10
6.5880584228
 20
8.4116169062
 10
6.5876623262
 20
8.4250690082
 10
6.5888488472
 20
8.4393736344
 10
6.5915968123
 20
8.4542755183
 10
6.5958571842
 20
8.4695087354
 10
6.6015539363
 20
8.4848014487
 10
6.60858541
 20
8.4998807594
 10
6.6168261285
 20
8.5144775766
 10
6.6261290359
 20
8.52833142
 10
6.6363281216
 20
8.5411950673
 10
6.6472413827
 20
8.5528389665
 10
6.6586740719
 20
8.5630553319
 10
6.6704221724
 20
8.5716618522
 10
6.6822760393
 20
8.5785049439
 10
6.6940241398
 20
8.5834624917
 10
6.7054568289
 20
8.5864460283
 10
6.7163700901
 20
8.5874023122
 10
6.719350037
 20
8.5873008334
  0
LWPOLYLINE
  5
260
330
1F
100
AcDbEntity
  8
0
  6
Continuous
 62
     7
370
    15
100
AcDbPolyline
 90
       19
 70
   128
 43
0.0
 10
6.5476556717
 20
8.653286226
 10
6.5354034174
 20
8.6452660228
 10
6.5233698048
 20
8.6354946856
 10
6.5117695742
 20
8.6241465841
 10
6.5008097318
 20
8.6114242255
 10
6.4906858563
 20
8.5975546406
 10
6.4815786085
 20
8.5827853325
 10
6.4736505075
 20
8.5673798597
 10
6.4670430303
 20
8.5516131334
 10
6.4618740877
 20
8.535766511
 10
6.4582359195
 20
8.5201227761
 10
6.4561934488
 20
8.5049610914
 10
6.4557831237
 20
8.4905520175
 10
6.4570122664
 20
8.4771526846
 10
6.4598589428
 20
8.4650022043
 10
6.464272354
 20
8.4543174021
 10
6.4701737423
 20
8.4452889486
 10
6.4774577976
 20
8.4380779567
 10
6.48073294
 20
8.4357306595
  0
ARC
  5
261
330
1F
100
AcDbEntity
  8
0
  6
Continuous
 62
     7
370
    15
100
AcDbCircle
 10
6.5860635028
 20
8.5991593383
 30
0.0
 40
0.0663692810308076
100
AcDbArc
 50
68.2441512362
 51
125.3590834094
  0
ARC
  5
262
330
1F
100
AcDbEntity
  8
0
  6
Continuous
 62
     7
370
    15
100
AcDbCircle
 10
6.6320447552
 20
8.427382406
 30
0.0
 40
0.0648282416031844
100
AcDbArc
 50
250.3313227118
 51
305.1735539503
  0
LWPOLYLINE
  5
263
330
1F
100
AcDbEntity
  8
0
  6
Continuous
 62
     7
370
    15
100
AcDbPolyline
 90
        3
 70
   128
 43
0.0
 10
6.685710827
 20
8.3855614897
 10
6.6812167891
 20
8.3821331913
 10
6.6693893934
 20
8.3743910963
  0
LWPOLYLINE
  5
264
330
1F
100
AcDbEntity
  8
0
  6
Continuous
 62
     7
370
    15
100
AcDbPolyline
 90
       28
 70
   128
 43
0.0
 10
6.6693893934
 20
8.3875513875
 10
6.6581286276
 20
8.3820024205
 10
6.6471078655
 20
8.3784751896
 10
6.6365619954
 20
8.3770448716
 10
6.6267157844
 20
8.3777419513
 10
6.6177790872
 20
8.3805515716
 10
6.6099423741
 20
8.3854138503
 10
6.6033726711
 20
8.3922251565
 10
6.5982099998
 20
8.4008403188
 10
6.5945643937
 20
8.4110757202
 10
6.5925135526
 20
8.4227132107
 10
6.5921011866
 20
8.4355047576
 10
6.5933360845
 20
8.4491777311
 10
6.5961919267
 20
8.4634407156
 10
6.6006078458
 20
8.4779897203
 10
6.6064897241
 20
8.4925146585
 10
6.6137121997
 20
8.5067059563
 10
6.6221213381
 20
8.5202611509
 10
6.6315379129
 20
8.5328913367
 10
6.6417612264
 20
8.5443273234
 10
6.6525733862
 20
8.5543253727
 10
6.6637439501
 20
8.5626723935
 10
6.6750348368
 20
8.5691904836
 10
6.6862054006
 20
8.5737407213
 10
6.6970175605
 20
8.5762261261
 10
6.7072408739
 20
8.5765937259
 10
6.7166574488
 20
8.5748356859
 10
6.719350037
 20
8.5738760707
  0
LWPOLYLINE
  5
265
330
1F
100
AcDbEntity
  8
0
  6
Continuous
 62
     7
370
    15
100
AcDbPolyline
 90
        3
 70
   128
 43
0.0
 10
6.6851529514
 20
8.3985262778
 10
6.6806501592
 20
8.3950038239
 10
6.6693893934
 20
8.3875513875
  0
LWPOLYLINE
  5
266
330
1F
100
AcDbEntity
  8
0
  6
Continuous
 62
     7
370
    15
100
AcDbPolyline
 90
        3
 70
   128
 43
0.0
 10
6.6067519817
 20
8.4237111956
 10
6.5954912159
 20
8.4181622286
 10
6.5932410765
 20
8.4172848647
  0
LWPOLYLINE
  5
267
330
1F
100
AcDbEntity
  8
0
  6
Continuous
 62
     7
370
    15
100
AcDbPolyline
 90
        3
 70
   128
 43
0.0
 10
6.6829002986
 20
8.572596021
 10
6.6840401885
 20
8.5608996298
 10
6.6838228584
 20
8.5500711109
  0
LINE
  5
268
330
1F
100
AcDbEntity
  8
0
  6
Continuous
 62
     7
370
    15
100
AcDbLine
 10
6.6132085188
 20
8.4277502332
 30
0.0
 11
6.6067519817
 21
8.4237111956
 31
0.0
  0
LWPOLYLINE
  5
269
330
1F
100
AcDbEntity
  8
0
  6
Continuous
 62
     7
370
    15
100
AcDbPolyline
 90
       29
 70
   128
 43
0.0
 10
6.6554699686
 20
8.4272318752
 10
6.6465535628
 20
8.4230112308
 10
6.6379237377
 20
8.4207796154
 10
6.6298578628
 20
8.420608755
 10
6.6226151821
 20
8.4225041413
 10
6.6164284813
 20
8.4264048548
 10
6.611496606
 20
8.4321855236
 10
6.6079780707
 20
8.4396603521
 10
6.6059859642
 20
8.4485890932
 10
6.6055843142
 20
8.4586847699
 10
6.6067860302
 20
8.4696228987
 10
6.6095524881
 20
8.4810519192
 10
6.6137947715
 20
8.4926044932
 10
6.6193765301
 20
8.5039093117
 10
6.6261183615
 20
8.5146030283
 10
6.6338035777
 20
8.5243419382
 10
6.6421851696
 20
8.5328130249
 10
6.6509937458
 20
8.5397440206
 10
6.6599461914
 20
8.5449121575
 10
6.6687547676
 20
8.5481513274
 10
6.6771363595
 20
8.5493574206
 10
6.6848215757
 20
8.5484916725
 10
6.6915634071
 20
8.5455819087
 10
6.6971451657
 20
8.5407216516
 10
6.7013874491
 20
8.5340671137
 10
6.704153907
 20
8.5258321775
 10
6.705355623
 20
8.5162815205
 10
6.704953973
 20
8.5057221087
 10
6.7041646116
 20
8.5002296636
  0
LWPOLYLINE
  5
26A
330
1F
100
AcDbEntity
  8
0
  6
Continuous
 62
     7
370
    15
100
AcDbPolyline
 90
        3
 70
   128
 43
0.0
 10
6.6665426693
 20
8.4350594867
 10
6.6643863744
 20
8.4333058938
 10
6.6554699686
 20
8.4272318752
  0
LINE
  5
26B
330
1F
100
AcDbEntity
  8
0
  6
Continuous
 62
     7
370
    15
100
AcDbLine
 10
6.698636391
 20
8.4222446317
 30
0.0
 11
6.719350037
 21
8.4102868984
 31
0.0
  0
SPLINE
  5
26C
330
1F
100
AcDbEntity
  8
0
  6
Continuous
 62
     7
370
    15
100
AcDbSpline
210
0.0
220
0.0
230
1.0
 70
     8
 71
     3
 72
     9
 73
     5
 74
     0
 42
0.000000001
 43
0.00000001
 40
0.0
 40
0.0
 40
0.0
 40
0.0
 40
0.7208461284832969
 40
1.0
 40
1.0
 40
1.0
 40
1.0
 10
6.698636391042665
 20
8.422244631742316
 30
0.0
 10
6.702851614789148
 20
8.43122016152384
 30
0.0
 10
6.708699220234923
 20
8.443671542514688
 30
0.0
 10
6.717025674913502
 20
8.455227317875126
 30
0.0
 10
6.719350036973035
 20
8.45845315730537
 30
0.0
  0
LINE
  5
26D
330
1F
100
AcDbEntity
  8
0
  6
Continuous
 62
     7
370
    15
100
AcDbLine
 10
6.7580199391
 20
8.2848379141
 30
0.0
 11
6.698636391
 21
8.3191193066
 31
0.0
  0
SPLINE
  5
26E
330
1F
100
AcDbEntity
  8
0
  6
Continuous
 62
     7
370
    15
100
AcDbSpline
210
0.0
220
0.0
230
1.0
 70
     8
 71
     3
 72
     9
 73
     5
 74
     0
 42
0.000000001
 43
0.00000001
 40
0.0
 40
0.0
 40
0.0
 40
0.0
 40
0.4954579634559958
 40
1.0
 40
1.0
 40
1.0
 40
1.0
 10
6.698636391037029
 20
8.319119306649808
 30
0.0
 10
6.696705699048361
 20
8.328607874489721
 30
0.0
 10
6.692808916412755
 20
8.347758980213657
 30
0.0
 10
6.692090931767937
 20
8.365645304416113
 30
0.0
 10
6.691728678333035
 20
8.374669706855506
 30
0.0
  0
SPLINE
  5
26F
330
1F
100
AcDbEntity
  8
0
  6
Continuous
 62
     7
370
    15
100
AcDbSpline
210
0.0
220
0.0
230
1.0
 70
     8
 71
     3
 72
     9
 73
     5
 74
     0
 42
0.000000001
 43
0.00000001
 40
0.0
 40
0.0
 40
0.0
 40
0.0
 40
0.4945107285003937
 40
0.9999999999999999
 40
0.9999999999999999
 40
0.9999999999999999
 40
0.9999999999999999
 10
6.691728678333035
 20
8.374669706855506
 30
0.0
 10
6.69207676113818
 20
8.383108689048559
 30
0.0
 10
6.692780654471702
 20
8.400174005747843
 30
0.0
 10
6.696670244840773
 20
8.414834107548945
 30
0.0
 10
6.698636391042865
 20
8.422244631728493
 30
0.0
  0
ARC
  5
270
330
1F
100
AcDbEntity
  8
0
  6
Continuous
 62
     7
370
    15
100
AcDbCircle
 10
7.1947334622
 20
8.1513810043
 30
0.0
 40
0.116935204820071
100
AcDbArc
 50
166.8198529658
 51
184.3976685822
  0
ARC
  5
271
330
1F
100
AcDbEntity
  8
0
  6
Continuous
 62
     7
370
    15
100
AcDbCircle
 10
7.2589924973
 20
8.1369249817
 30
0.0
 40
0.1826758653593166
100
AcDbArc
 50
137.0293836734
 51
151.3442302554
  0
ARC
  5
272
330
1F
100
AcDbEntity
  8
0
  6
Continuous
 62
     7
370
    15
100
AcDbCircle
 10
7.1905505634
 20
8.2504454396
 30
0.0
 40
0.046344398958766
100
AcDbArc
 50
79.7076098324
 51
95.3777912297
  0
LINE
  5
273
330
1F
100
AcDbEntity
  8
0
  6
Continuous
 62
     7
370
    15
100
AcDbLine
 10
7.288350025
 20
8.2603994716
 30
0.0
 11
7.288350025
 21
8.3555517292
 31
0.0
  0
LINE
  5
274
330
1F
100
AcDbEntity
  8
0
  6
Continuous
 62
     7
370
    15
100
AcDbLine
 10
7.023184982
 20
8.0174745704
 30
0.0
 11
7.1221709991
 21
8.0746179818
 31
0.0
  0
LINE
  5
275
330
1F
100
AcDbEntity
  8
0
  6
Continuous
 62
     7
370
    15
100
AcDbLine
 10
7.023184982
 20
8.2024752083
 30
0.0
 11
7.023184982
 21
8.0174745704
 31
0.0
  0
LINE
  5
276
330
1F
100
AcDbEntity
  8
0
  6
Continuous
 62
     7
370
    15
100
AcDbLine
 10
7.023184982
 20
8.0174745704
 30
0.0
 11
6.7580199391
 21
8.1705510914
 31
0.0
  0
LINE
  5
277
330
1F
100
AcDbEntity
  8
0
  6
Continuous
 62
     7
370
    15
100
AcDbLine
 10
6.7580199391
 20
8.1705510914
 30
0.0
 11
6.7580199391
 21
8.3491735409
 31
0.0
  0
LINE
  5
278
330
1F
100
AcDbEntity
  8
0
  6
Continuous
 62
     7
370
    15
100
AcDbLine
 10
6.9845150799
 20
8.2845450946
 30
0.0
 11
6.9885520051
 21
8.2828743343
 31
0.0
  0
ARC
  5
279
330
1F
100
AcDbEntity
  8
0
  6
Continuous
 62
     7
370
    15
100
AcDbCircle
 10
6.9986308824
 20
8.3092993958
 30
0.0
 40
0.0284961629991476
100
AcDbArc
 50
170.3455656426
 51
240.3066394878
  0
ARC
  5
27A
330
1F
100
AcDbEntity
  8
0
  6
Continuous
 62
     7
370
    15
100
AcDbCircle
 10
7.0491515482
 20
8.3086789016
 30
0.0
 40
0.0270555502934536
100
AcDbArc
 50
285.6623642165
 51
14.3430123162
  0
LINE
  5
27B
330
1F
100
AcDbEntity
  8
0
  6
Continuous
 62
     7
370
    15
100
AcDbLine
 10
6.8077383846
 20
8.3865961086
 30
0.0
 11
6.8117753098
 21
8.3849253483
 31
0.0
  0
ARC
  5
27C
330
1F
100
AcDbEntity
  8
0
  6
Continuous
 62
     7
370
    15
100
AcDbCircle
 10
6.8218541871
 20
8.4113504097
 30
0.0
 40
0.0284961629993062
100
AcDbArc
 50
170.3455656436
 51
240.3066394877
  0
ARC
  5
27D
330
1F
100
AcDbEntity
  8
0
  6
Continuous
 62
     7
370
    15
100
AcDbCircle
 10
7.2259282435
 20
8.4107299155
 30
0.0
 40
0.0270555502935038
100
AcDbArc
 50
285.6623642167
 51
14.343012316
  0
LINE
  5
27E
330
1F
100
AcDbEntity
  8
0
  6
Continuous
 62
     7
370
    15
100
AcDbLine
 10
4.1827089777
 20
8.362518617
 30
0.0
 11
4.0923339777
 21
8.362518617
 31
0.0
  0
LINE
  5
27F
330
1F
100
AcDbEntity
  8
0
  6
Continuous
 62
     7
370
    15
100
AcDbLine
 10
4.0923339777
 20
8.287268617
 30
0.0
 11
4.1827089777
 21
8.287268617
 31
0.0
  0
LINE
  5
280
330
1F
100
AcDbEntity
  8
0
  6
Continuous
 62
     7
370
    15
100
AcDbLine
 10
5.0201029587
 20
8.215518617
 30
0.0
 11
5.0203339778
 21
8.2159187537
 31
0.0
  0
LINE
  5
281
330
1F
100
AcDbEntity
  8
0
  6
Continuous
 62
     7
370
    15
100
AcDbLine
 10
5.0203339778
 20
8.4338684803
 30
0.0
 11
5.0201029587
 21
8.434268617
 31
0.0
  0
LINE
  5
282
330
1F
100
AcDbEntity
  8
0
  6
Continuous
 62
     7
370
    15
100
AcDbLine
 10
4.7705649967
 20
8.434268617
 30
0.0
 11
4.7703339777
 21
8.4338684803
 31
0.0
  0
LINE
  5
283
330
1F
100
AcDbEntity
  8
0
  6
Continuous
 62
     7
370
    15
100
AcDbLine
 10
4.7703339777
 20
8.2159187537
 30
0.0
 11
4.7705649967
 21
8.215518617
 31
0.0
  0
LINE
  5
284
330
1F
100
AcDbEntity
  8
0
  6
Continuous
 62
     7
370
    15
100
AcDbLine
 10
4.0923339777
 20
8.462643617
 30
0.0
 11
3.9103339777
 21
8.454893617
 31
0.0
  0
LINE
  5
285
330
1F
100
AcDbEntity
  8
0
  6
Continuous
 62
     7
370
    15
100
AcDbLine
 10
3.9103339777
 20
8.194893617
 30
0.0
 11
4.0923339777
 21
8.187143617
 31
0.0
  0
CIRCLE
  5
286
330
1F
100
AcDbEntity
  8
0
  6
Continuous
 62
     7
370
    15
100
AcDbCircle
 10
4.5828339777
 20
8.324893617
 30
0.0
 40
0.0390625000006839
  0
CIRCLE
  5
287
330
1F
100
AcDbEntity
  8
0
  6
Continuous
 62
     7
370
    15
100
AcDbCircle
 10
4.5828339777
 20
8.324893617
 30
0.0
 40
0.0933552903813624
  0
CIRCLE
  5
288
330
1F
100
AcDbEntity
  8
0
  6
Continuous
 62
     7
370
    15
100
AcDbCircle
 10
4.5828339777
 20
8.324893617
 30
0.0
 40
0.034837500000001
  0
SPLINE
  5
289
330
1F
100
AcDbEntity
  8
0
  6
Continuous
 62
     7
370
    15
100
AcDbSpline
210
0.0
220
0.0
230
1.0
 70
     8
 71
     3
 72
    11
 73
     7
 74
     0
 42
0.000000001
 43
0.00000001
 40
0.0
 40
0.0
 40
0.0
 40
0.0
 40
0.2471026483657308
 40
0.4952089994577463
 40
0.7469801478925734
 40
1.0
 40
1.0
 40
1.0
 40
1.0
 10
4.474580802392286
 20
8.324893617542152
 30
0.0
 10
4.479022764245602
 20
8.317199913615267
 30
0.0
 10
4.487924730693791
 20
8.301781254815152
 30
0.0
 10
4.501449832241481
 20
8.278355092009319
 30
0.0
 10
4.515084062307823
 20
8.254739912744833
 30
0.0
 10
4.524158797712812
 20
8.239022009967226
 30
0.0
 10
4.528707389521339
 20
8.231143617856516
 30
0.0
  0
SPLINE
  5
28A
330
1F
100
AcDbEntity
  8
0
  6
Continuous
 62
     7
370
    15
100
AcDbSpline
210
0.0
220
0.0
230
1.0
 70
     8
 71
     3
 72
    11
 73
     7
 74
     0
 42
0.000000001
 43
0.00000001
 40
0.0
 40
0.0
 40
0.0
 40
0.0
 40
0.2471026483657308
 40
0.4952089994577449
 40
0.7469801478925729
 40
1.0
 40
1.0
 40
1.0
 40
1.0
 10
4.528707390517195
 20
8.418643617173247
 30
0.0
 10
4.524265428393977
 20
8.41094991340219
 30
0.0
 10
4.515363461404887
 20
8.395531254914365
 30
0.0
 10
4.501838360075688
 20
8.372105091982384
 30
0.0
 10
4.488204129950891
 20
8.348489912751647
 30
0.0
 10
4.479129394553764
 20
8.332772009969501
 30
0.0
 10
4.474580802749178
 20
8.324893617856516
 30
0.0
  0
SPLINE
  5
28B
330
1F
100
AcDbEntity
  8
0
  6
Continuous
 62
     7
370
    15
100
AcDbSpline
210
0.0
220
0.0
230
1.0
 70
     8
 71
     3
 72
    11
 73
     7
 74
     0
 42
0.000000001
 43
0.00000001
 40
0.0
 40
0.0
 40
0.0
 40
0.0
 40
0.2471026483657328
 40
0.4952089994577465
 40
0.7469801478925759
 40
1.0
 40
1.0
 40
1.0
 40
1.0
 10
4.63696056586496
 20
8.418643616652444
 30
0.0
 10
4.628076641888424
 20
8.418643616808271
 30
0.0
 10
4.610272708451145
 20
8.418643617120562
 30
0.0
 10
4.583222505574256
 20
8.418643616994414
 30
0.0
 10
4.555954045383118
 20
8.418643617028163
 30
0.0
 10
4.537804574581001
 20
8.418643617023625
 30
0.0
 10
4.528707390967889
 20
8.41864361702135
 30
0.0
  0
SPLINE
  5
28C
330
1F
100
AcDbEntity
  8
0
  6
Continuous
 62
     7
370
    15
100
AcDbSpline
210
0.0
220
0.0
230
1.0
 70
    24
 71
     3
 72
    11
 73
     7
 74
     0
 42
0.000000001
 43
0.00000001
 40
0.0
 40
0.0
 40
0.0
 40
0.0
 40
0.2471026484822586
 40
0.4952089995988384
 40
0.7469801479828467
 40
1.0
 40
1.0
 40
1.0
 40
1.0
 10
4.691087152765621
 20
8.324893617881962
 30
0.0
 10
4.686645190808299
 20
8.332587321641196
 30
0.0
 10
4.677743224153339
 20
8.348005980102451
 30
0.0
 10
4.664218122905509
 20
8.371432142670459
 30
0.0
 10
4.650583892984647
 20
8.395047321607642
 30
0.0
 10
4.641509157704407
 20
8.41076522417931
 30
0.0
 10
4.636960565958761
 20
8.418643616186184
 30
0.0
  0
SPLINE
  5
28D
330
1F
100
AcDbEntity
  8
0
  6
Continuous
 62
     7
370
    15
100
AcDbSpline
210
0.0
220
0.0
230
1.0
 70
     8
 71
     3
 72
    11
 73
     7
 74
     0
 42
0.000000001
 43
0.00000001
 40
0.0
 40
0.0
 40
0.0
 40
0.0
 40
0.2471026482985709
 40
0.4952089993517333
 40
0.7469801478326115
 40
1.0
 40
1.0
 40
1.0
 40
1.0
 10
4.636960564962903
 20
8.231143616869455
 30
0.0
 10
4.641402527139177
 20
8.238837320732403
 30
0.0
 10
4.650304494235106
 20
8.25425597940528
 30
0.0
 10
4.663829595729241
 20
8.277682142622938
 30
0.0
 10
4.677463826020452
 20
8.301297322141915
 30
0.0
 10
4.686538561527352
 20
8.317015225114192
 30
0.0
 10
4.691087153387082
 20
8.32489361732269
 30
0.0
  0
SPLINE
  5
28E
330
1F
100
AcDbEntity
  8
0
  6
Continuous
 62
     7
370
    15
100
AcDbSpline
210
0.0
220
0.0
230
1.0
 70
     8
 71
     3
 72
    11
 73
     7
 74
     0
 42
0.000000001
 43
0.00000001
 40
0.0
 40
0.0
 40
0.0
 40
0.0
 40
0.2471026483657293
 40
0.4952089994577428
 40
0.7469801478925736
 40
1.0
 40
1.0
 40
1.0
 40
1.0
 10
4.52870738961514
 20
8.231143617390256
 30
0.0
 10
4.537591313591675
 20
8.231143617234428
 30
0.0
 10
4.555395247028954
 20
8.231143616922138
 30
0.0
 10
4.582445449905842
 20
8.231143617048284
 30
0.0
 10
4.609713910096981
 20
8.231143617014537
 30
0.0
 10
4.627863380899098
 20
8.231143617019073
 30
0.0
 10
4.63696056451221
 20
8.231143617021349
 30
0.0
  0
LINE
  5
28F
330
1F
100
AcDbEntity
  8
0
  6
Continuous
 62
     7
370
    15
100
AcDbLine
 10
4.7937714777
 20
8.106143617
 30
0.0
 11
4.7937714777
 21
8.215518617
 31
0.0
  0
LINE
  5
290
330
1F
100
AcDbEntity
  8
0
  6
Continuous
 62
     7
370
    15
100
AcDbLine
 10
4.7937714777
 20
8.434268617
 30
0.0
 11
4.7937714777
 21
8.543643617
 31
0.0
  0
LINE
  5
291
330
1F
100
AcDbEntity
  8
0
  6
Continuous
 62
     7
370
    15
100
AcDbLine
 10
4.7703339777
 20
8.106143617
 30
0.0
 11
4.7937714777
 21
8.106143617
 31
0.0
  0
LINE
  5
292
330
1F
100
AcDbEntity
  8
0
  6
Continuous
 62
     7
370
    15
100
AcDbLine
 10
4.7703339777
 20
8.106143617
 30
0.0
 11
4.7703339777
 21
8.137393617
 31
0.0
  0
LINE
  5
293
330
1F
100
AcDbEntity
  8
0
  6
Continuous
 62
     7
370
    15
100
AcDbLine
 10
4.7703339777
 20
8.512393617
 30
0.0
 11
4.7703339777
 21
8.543643617
 31
0.0
  0
LINE
  5
294
330
1F
100
AcDbEntity
  8
0
  6
Continuous
 62
     7
370
    15
100
AcDbLine
 10
4.7937714777
 20
8.543643617
 30
0.0
 11
4.7703339777
 21
8.543643617
 31
0.0
  0
LINE
  5
295
330
1F
100
AcDbEntity
  8
0
  6
Continuous
 62
     7
370
    15
100
AcDbLine
 10
4.8015839777
 20
8.113956117
 30
0.0
 11
4.7937714777
 21
8.106143617
 31
0.0
  0
LINE
  5
296
330
1F
100
AcDbEntity
  8
0
  6
Continuous
 62
     7
370
    15
100
AcDbLine
 10
4.7937714777
 20
8.543643617
 30
0.0
 11
4.8015839777
 21
8.535831117
 31
0.0
  0
LINE
  5
297
330
1F
100
AcDbEntity
  8
0
  6
Continuous
 62
     7
370
    15
100
AcDbLine
 10
4.8015839777
 20
8.535831117
 30
0.0
 11
4.8015839777
 21
8.434268617
 31
0.0
  0
LINE
  5
298
330
1F
100
AcDbEntity
  8
0
  6
Continuous
 62
     7
370
    15
100
AcDbLine
 10
4.8015839777
 20
8.215518617
 30
0.0
 11
4.8015839777
 21
8.113956117
 31
0.0
  0
LINE
  5
299
330
1F
100
AcDbEntity
  8
0
  6
Continuous
 62
     7
370
    15
100
AcDbLine
 10
4.3718964777
 20
8.543643617
 30
0.0
 11
4.3718964777
 21
8.106143617
 31
0.0
  0
LINE
  5
29A
330
1F
100
AcDbEntity
  8
0
  6
Continuous
 62
     7
370
    15
100
AcDbLine
 10
4.3953339777
 20
8.543643617
 30
0.0
 11
4.3718964777
 21
8.543643617
 31
0.0
  0
LINE
  5
29B
330
1F
100
AcDbEntity
  8
0
  6
Continuous
 62
     7
370
    15
100
AcDbLine
 10
4.3953339777
 20
8.543643617
 30
0.0
 11
4.3953339777
 21
8.512393617
 31
0.0
  0
LINE
  5
29C
330
1F
100
AcDbEntity
  8
0
  6
Continuous
 62
     7
370
    15
100
AcDbLine
 10
4.3953339777
 20
8.137393617
 30
0.0
 11
4.3953339777
 21
8.106143617
 31
0.0
  0
LINE
  5
29D
330
1F
100
AcDbEntity
  8
0
  6
Continuous
 62
     7
370
    15
100
AcDbLine
 10
4.3953339777
 20
8.106143617
 30
0.0
 11
4.3718964777
 21
8.106143617
 31
0.0
  0
LINE
  5
29E
330
1F
100
AcDbEntity
  8
0
  6
Continuous
 62
     7
370
    15
100
AcDbLine
 10
4.3640839777
 20
8.113956117
 30
0.0
 11
4.3718964777
 21
8.106143617
 31
0.0
  0
LINE
  5
29F
330
1F
100
AcDbEntity
  8
0
  6
Continuous
 62
     7
370
    15
100
AcDbLine
 10
4.3640839777
 20
8.113956117
 30
0.0
 11
4.3640839777
 21
8.535831117
 31
0.0
  0
LINE
  5
2A0
330
1F
100
AcDbEntity
  8
0
  6
Continuous
 62
     7
370
    15
100
AcDbLine
 10
4.3640839777
 20
8.535831117
 30
0.0
 11
4.3718964777
 21
8.543643617
 31
0.0
  0
LINE
  5
2A1
330
1F
100
AcDbEntity
  8
0
  6
Continuous
 62
     7
370
    15
100
AcDbLine
 10
4.3953339777
 20
8.137393617
 30
0.0
 11
4.7703339777
 21
8.137393617
 31
0.0
  0
LINE
  5
2A2
330
1F
100
AcDbEntity
  8
0
  6
Continuous
 62
     7
370
    15
100
AcDbLine
 10
4.3953339777
 20
8.137393617
 30
0.0
 11
4.3953339777
 21
8.512393617
 31
0.0
  0
LINE
  5
2A3
330
1F
100
AcDbEntity
  8
0
  6
Continuous
 62
     7
370
    15
100
AcDbLine
 10
4.3953339777
 20
8.512393617
 30
0.0
 11
4.7703339777
 21
8.512393617
 31
0.0
  0
LINE
  5
2A4
330
1F
100
AcDbEntity
  8
0
  6
Continuous
 62
     7
370
    15
100
AcDbLine
 10
4.7703339777
 20
8.137393617
 30
0.0
 11
4.7703339777
 21
8.512393617
 31
0.0
  0
LINE
  5
2A5
330
1F
100
AcDbEntity
  8
0
  6
Continuous
 62
     7
370
    15
100
AcDbLine
 10
4.7703339777
 20
8.543643617
 30
0.0
 11
4.3953339777
 21
8.543643617
 31
0.0
  0
LINE
  5
2A6
330
1F
100
AcDbEntity
  8
0
  6
Continuous
 62
     7
370
    15
100
AcDbLine
 10
4.3953339777
 20
8.106143617
 30
0.0
 11
4.7703339777
 21
8.106143617
 31
0.0
  0
SPLINE
  5
2A7
330
1F
100
AcDbEntity
  8
0
  6
Continuous
 62
     7
370
    15
100
AcDbSpline
210
0.0
220
0.0
230
1.0
 70
     8
 71
     3
 72
    10
 73
     6
 74
     0
 42
0.000000001
 43
0.00000001
 40
0.0
 40
0.0
 40
0.0
 40
0.0
 40
0.3268376783954967
 40
0.663106702462011
 40
1.0
 40
1.0
 40
1.0
 40
1.0
 10
4.220243336271119
 20
8.32489361702135
 30
0.0
 10
4.220804496552904
 20
8.320998787499237
 30
0.0
 10
4.221943010159515
 20
8.313096737852637
 30
0.0
 10
4.223083627025821
 20
8.30112197339883
 30
0.0
 10
4.223333783505739
 20
8.293039892903582
 30
0.0
 10
4.223458977740049
 20
8.28899510509888
 30
0.0
  0
SPLINE
  5
2A8
330
1F
100
AcDbEntity
  8
0
  6
Continuous
 62
     7
370
    15
100
AcDbSpline
210
0.0
220
0.0
230
1.0
 70
     8
 71
     3
 72
    10
 73
     6
 74
     0
 42
0.000000001
 43
0.00000001
 40
0.0
 40
0.0
 40
0.0
 40
0.0
 40
0.4989887185931058
 40
0.7494000253149543
 40
1.0
 40
1.0
 40
1.0
 40
1.0
 10
4.223458977740049
 20
8.360792128943821
 30
0.0
 10
4.22323244442782
 20
8.354801266869721
 30
0.0
 10
4.222892228179248
 20
8.345803964881316
 30
0.0
 10
4.221554084854876
 20
8.333847476319002
 30
0.0
 10
4.220680362139539
 20
8.327878985980554
 30
0.0
 10
4.220243336271119
 20
8.32489361702135
 30
0.0
  0
SPLINE
  5
2A9
330
1F
100
AcDbEntity
  8
0
  6
Continuous
 62
     7
370
    15
100
AcDbSpline
210
0.0
220
0.0
230
1.0
 70
     8
 71
     3
 72
    10
 73
     6
 74
     0
 42
0.000000001
 43
0.00000001
 40
0.0
 40
0.0
 40
0.0
 40
0.0
 40
0.3268376859029207
 40
0.6631067062368682
 40
1.0
 40
1.0
 40
1.0
 40
1.0
 10
4.185924619082089
 20
8.324893617841562
 30
0.0
 10
4.185363458810133
 20
8.32878844736478
 30
0.0
 10
4.18422494524313
 20
8.33669049687709
 30
0.0
 10
4.183084328434704
 20
8.348665261057809
 30
0.0
 10
4.182834171967827
 20
8.356747341277325
 30
0.0
 10
4.18270897774005
 20
8.360792128943821
 30
0.0
  0
SPLINE
  5
2AA
330
1F
100
AcDbEntity
  8
0
  6
Continuous
 62
     7
370
    15
100
AcDbSpline
210
0.0
220
0.0
230
1.0
 70
     8
 71
     3
 72
    10
 73
     6
 74
     0
 42
0.000000001
 43
0.00000001
 40
0.0
 40
0.0
 40
0.0
 40
0.0
 40
0.4989887185754732
 40
0.7494000253049453
 40
1.0
 40
1.0
 40
1.0
 40
1.0
 10
4.18270897774005
 20
8.288995105098879
 30
0.0
 10
4.18293551105628
 20
8.294985967237915
 30
0.0
 10
4.183275727310868
 20
8.30398326932404
 30
0.0
 10
4.184613870661126
 20
8.315939758015496
 30
0.0
 10
4.185487593392583
 20
8.321908248418335
 30
0.0
 10
4.185924619269068
 20
8.324893617409762
 30
0.0
  0
LINE
  5
2AB
330
1F
100
AcDbEntity
  8
0
  6
Continuous
 62
     7
370
    15
100
AcDbLine
 10
4.1827089777
 20
8.2889951051
 30
0.0
 11
4.1827089777
 21
8.3607921289
 31
0.0
  0
LINE
  5
2AC
330
1F
100
AcDbEntity
  8
0
  6
Continuous
 62
     7
370
    15
100
AcDbLine
 10
4.1827089777
 20
8.3607921289
 30
0.0
 11
4.1827089777
 21
8.3671201051
 31
0.0
  0
SPLINE
  5
2AD
330
1F
100
AcDbEntity
  8
0
  6
Continuous
 62
     7
370
    15
100
AcDbSpline
210
0.0
220
0.0
230
1.0
 70
     8
 71
     3
 72
    10
 73
     6
 74
     0
 42
0.000000001
 43
0.00000001
 40
0.0
 40
0.0
 40
0.0
 40
0.0
 40
0.4989887185754754
 40
0.7494000253049427
 40
1.0
 40
1.0
 40
1.0
 40
1.0
 10
4.18270897774005
 20
8.367120105098879
 30
0.0
 10
4.18293551105628
 20
8.373110967237915
 30
0.0
 10
4.183275727310868
 20
8.382108269324041
 30
0.0
 10
4.184613870661126
 20
8.394064758015496
 30
0.0
 10
4.185487593392582
 20
8.400033248418335
 30
0.0
 10
4.185924619269068
 20
8.403018617409762
 30
0.0
  0
LINE
  5
2AE
330
1F
100
AcDbEntity
  8
0
  6
Continuous
 62
     7
370
    15
100
AcDbLine
 10
4.2202433363
 20
8.403018617
 30
0.0
 11
4.1859246192
 21
8.4030186172
 31
0.0
  0
SPLINE
  5
2AF
330
1F
100
AcDbEntity
  8
0
  6
Continuous
 62
     7
370
    15
100
AcDbSpline
210
0.0
220
0.0
230
1.0
 70
     8
 71
     3
 72
    10
 73
     6
 74
     0
 42
0.000000001
 43
0.00000001
 40
0.0
 40
0.0
 40
0.0
 40
0.0
 40
0.3268376783954851
 40
0.6631067024620043
 40
1.0
 40
1.0
 40
1.0
 40
1.0
 10
4.220243336271119
 20
8.40301861702135
 30
0.0
 10
4.220804496552904
 20
8.399123787499237
 30
0.0
 10
4.221943010159515
 20
8.391221737852637
 30
0.0
 10
4.22308362702582
 20
8.379246973398827
 30
0.0
 10
4.223333783505739
 20
8.371164892903582
 30
0.0
 10
4.22345897774005
 20
8.36712010509888
 30
0.0
  0
LINE
  5
2B0
330
1F
100
AcDbEntity
  8
0
  6
Continuous
 62
     7
370
    15
100
AcDbLine
 10
4.2202433363
 20
8.324893617
 30
0.0
 11
4.1859246192
 21
8.3248936172
 31
0.0
  0
SPLINE
  5
2B1
330
1F
100
AcDbEntity
  8
0
  6
Continuous
 62
     7
370
    15
100
AcDbSpline
210
0.0
220
0.0
230
1.0
 70
     8
 71
     3
 72
    10
 73
     6
 74
     0
 42
0.000000001
 43
0.00000001
 40
0.0
 40
0.0
 40
0.0
 40
0.0
 40
0.4989887185931081
 40
0.7494000253149548
 40
1.0
 40
1.0
 40
1.0
 40
1.0
 10
4.223458977740049
 20
8.282667128943821
 30
0.0
 10
4.223232444427819
 20
8.27667626686972
 30
0.0
 10
4.222892228179248
 20
8.267678964881316
 30
0.0
 10
4.221554084854876
 20
8.255722476319004
 30
0.0
 10
4.220680362139539
 20
8.249753985980554
 30
0.0
 10
4.220243336271119
 20
8.24676861702135
 30
0.0
  0
LINE
  5
2B2
330
1F
100
AcDbEntity
  8
0
  6
Continuous
 62
     7
370
    15
100
AcDbLine
 10
4.2202433363
 20
8.246768617
 30
0.0
 11
4.1859246192
 21
8.246768617
 31
0.0
  0
SPLINE
  5
2B3
330
1F
100
AcDbEntity
  8
0
  6
Continuous
 62
     7
370
    15
100
AcDbSpline
210
0.0
220
0.0
230
1.0
 70
     8
 71
     3
 72
    10
 73
     6
 74
     0
 42
0.000000001
 43
0.00000001
 40
0.0
 40
0.0
 40
0.0
 40
0.0
 40
0.32683768590292
 40
0.6631067062368882
 40
1.0
 40
1.0
 40
1.0
 40
1.0
 10
4.185924619082089
 20
8.246768617841562
 30
0.0
 10
4.185363458810133
 20
8.25066344736478
 30
0.0
 10
4.18422494524313
 20
8.258565496877091
 30
0.0
 10
4.183084328434704
 20
8.27054026105782
 30
0.0
 10
4.182834171967827
 20
8.278622341277327
 30
0.0
 10
4.18270897774005
 20
8.282667128943821
 30
0.0
  0
LINE
  5
2B4
330
1F
100
AcDbEntity
  8
0
  6
Continuous
 62
     7
370
    15
100
AcDbLine
 10
4.1827089777
 20
8.2826671289
 30
0.0
 11
4.1827089777
 21
8.2889951051
 31
0.0
  0
SPLINE
  5
2B5
330
1F
100
AcDbEntity
  8
0
  6
Continuous
 62
     7
370
    15
100
AcDbSpline
210
0.0
220
0.0
230
1.0
 70
    24
 71
     3
 72
    10
 73
     6
 74
     0
 42
0.000000001
 43
0.00000001
 40
0.0
 40
0.0
 40
0.0
 40
0.0
 40
0.3268376859029391
 40
0.6631067062368868
 40
1.0
 40
1.0
 40
1.0
 40
1.0
 10
4.185924619082089
 20
8.40301861702135
 30
0.0
 10
4.185363458810133
 20
8.403018617021349
 30
0.0
 10
4.18422494524313
 20
8.403018617021347
 30
0.0
 10
4.183084328434705
 20
8.403018617021353
 30
0.0
 10
4.182834171967827
 20
8.40301861702135
 30
0.0
 10
4.18270897774005
 20
8.40301861702135
 30
0.0
  0
LINE
  5
2B6
330
1F
100
AcDbEntity
  8
0
  6
Continuous
 62
     7
370
    15
100
AcDbLine
 10
4.1827089777
 20
8.3671201051
 30
0.0
 11
4.1827089777
 21
8.403018617
 31
0.0
  0
SPLINE
  5
2B7
330
1F
100
AcDbEntity
  8
0
  6
Continuous
 62
     7
370
    15
100
AcDbSpline
210
0.0
220
0.0
230
1.0
 70
    24
 71
     3
 72
    10
 73
     6
 74
     0
 42
0.000000001
 43
0.00000001
 40
0.0
 40
0.0
 40
0.0
 40
0.0
 40
0.4989887185931096
 40
0.7494000253149545
 40
1.0
 40
1.0
 40
1.0
 40
1.0
 10
4.223458977740049
 20
8.40301861702135
 30
0.0
 10
4.22323244442782
 20
8.40301861702135
 30
0.0
 10
4.222892228179248
 20
8.403018617021349
 30
0.0
 10
4.221554084854876
 20
8.40301861702135
 30
0.0
 10
4.220680362139539
 20
8.40301861702135
 30
0.0
 10
4.220243336271119
 20
8.40301861702135
 30
0.0
  0
SPLINE
  5
2B8
330
1F
100
AcDbEntity
  8
0
  6
Continuous
 62
     7
370
    15
100
AcDbSpline
210
0.0
220
0.0
230
1.0
 70
    24
 71
     3
 72
    10
 73
     6
 74
     0
 42
0.000000001
 43
0.00000001
 40
0.0
 40
0.0
 40
0.0
 40
0.0
 40
0.4989887185754723
 40
0.7494000253049437
 40
1.0
 40
1.0
 40
1.0
 40
1.0
 10
4.18270897774005
 20
8.24676861702135
 30
0.0
 10
4.18293551105628
 20
8.24676861702135
 30
0.0
 10
4.183275727310868
 20
8.24676861702135
 30
0.0
 10
4.184613870661126
 20
8.24676861702135
 30
0.0
 10
4.185487593392582
 20
8.24676861702135
 30
0.0
 10
4.185924619269068
 20
8.24676861702135
 30
0.0
  0
LINE
  5
2B9
330
1F
100
AcDbEntity
  8
0
  6
Continuous
 62
     7
370
    15
100
AcDbLine
 10
4.1827089777
 20
8.246768617
 30
0.0
 11
4.1827089777
 21
8.2826671289
 31
0.0
  0
SPLINE
  5
2BA
330
1F
100
AcDbEntity
  8
0
  6
Continuous
 62
     7
370
    15
100
AcDbSpline
210
0.0
220
0.0
230
1.0
 70
    24
 71
     3
 72
    10
 73
     6
 74
     0
 42
0.000000001
 43
0.00000001
 40
0.0
 40
0.0
 40
0.0
 40
0.0
 40
0.3268376783955423
 40
0.6631067024620161
 40
1.0
 40
1.0
 40
1.0
 40
1.0
 10
4.220243336271119
 20
8.24676861702135
 30
0.0
 10
4.220804496552904
 20
8.24676861702135
 30
0.0
 10
4.221943010159515
 20
8.24676861702135
 30
0.0
 10
4.223083627025821
 20
8.246768617021354
 30
0.0
 10
4.223333783505739
 20
8.246768617021353
 30
0.0
 10
4.223458977740049
 20
8.24676861702135
 30
0.0
  0
LINE
  5
2BB
330
1F
100
AcDbEntity
  8
0
  6
Continuous
 62
     7
370
    15
100
AcDbLine
 10
4.5628064187
 20
8.2963883844
 30
0.0
 11
4.5628064187
 21
8.3533988496
 31
0.0
  0
LINE
  5
2BC
330
1F
100
AcDbEntity
  8
0
  6
Continuous
 62
     7
370
    15
100
AcDbLine
 10
4.8222089777
 20
8.434268617
 30
0.0
 11
5.0103339779
 21
8.434268617
 31
0.0
  0
SPLINE
  5
2BD
330
1F
100
AcDbEntity
  8
0
  6
Continuous
 62
     7
370
    15
100
AcDbSpline
210
0.0
220
0.0
230
1.0
 70
     8
 71
     3
 72
    11
 73
     7
 74
     0
 42
0.000000001
 43
0.00000001
 40
0.0
 40
0.0
 40
0.0
 40
0.0
 40
0.2646136110892973
 40
0.534965761037666
 40
0.7653524221553871
 40
0.9999999999999999
 40
0.9999999999999999
 40
0.9999999999999999
 40
0.9999999999999999
 10
5.01033397742234
 20
8.434268617064959
 30
0.0
 10
5.013155648157738
 20
8.4247753212163
 30
0.0
 10
5.018860181745961
 20
8.40558285330988
 30
0.0
 10
5.020946707205729
 20
8.377147269468185
 30
0.0
 10
5.017883431405809
 20
8.34996546495538
 30
0.0
 10
5.012865787111163
 20
8.333301793624056
 30
0.0
 10
5.010333977662354
 20
8.324893616788263
 30
0.0
  0
LINE
  5
2BE
330
1F
100
AcDbEntity
  8
0
  6
Continuous
 62
     7
370
    15
100
AcDbLine
 10
5.0103339777
 20
8.3248936169
 30
0.0
 11
4.8222089777
 21
8.324893617
 31
0.0
  0
LINE
  5
2BF
330
1F
100
AcDbEntity
  8
0
  6
Continuous
 62
     7
370
    15
100
AcDbLine
 10
4.8222089777
 20
8.324893617
 30
0.0
 11
4.8222089777
 21
8.3255637487
 31
0.0
  0
LINE
  5
2C0
330
1F
100
AcDbEntity
  8
0
  6
Continuous
 62
     7
370
    15
100
AcDbLine
 10
4.8222089777
 20
8.3255637487
 30
0.0
 11
4.8172089777
 21
8.3429955474
 31
0.0
  0
LINE
  5
2C1
330
1F
100
AcDbEntity
  8
0
  6
Continuous
 62
     7
370
    15
100
AcDbLine
 10
4.8172089777
 20
8.3429955474
 30
0.0
 11
4.7751116301
 21
8.3429955474
 31
0.0
  0
SPLINE
  5
2C2
330
1F
100
AcDbEntity
  8
0
  6
Continuous
 62
     7
370
    15
100
AcDbSpline
210
0.0
220
0.0
230
1.0
 70
     8
 71
     3
 72
    10
 73
     6
 74
     0
 42
0.000000001
 43
0.00000001
 40
0.0
 40
0.0
 40
0.0
 40
0.0
 40
0.3702926789860085
 40
0.7498059832630402
 40
1.0
 40
1.0
 40
1.0
 40
1.0
 10
4.775111630123018
 20
8.34299554737319
 30
0.0
 10
4.773363103660583
 20
8.35197514923058
 30
0.0
 10
4.769822510832722
 20
8.370157953218028
 30
0.0
 10
4.770675614374653
 20
8.394901575772852
 30
0.0
 10
4.773850278933488
 20
8.41012009566679
 30
0.0
 10
4.775111630121987
 20
8.41616668666866
 30
0.0
  0
LINE
  5
2C3
330
1F
100
AcDbEntity
  8
0
  6
Continuous
 62
     7
370
    15
100
AcDbLine
 10
4.7751116301
 20
8.4161666867
 30
0.0
 11
4.8172089777
 21
8.4161666867
 31
0.0
  0
LINE
  5
2C4
330
1F
100
AcDbEntity
  8
0
  6
Continuous
 62
     7
370
    15
100
AcDbLine
 10
4.8172089777
 20
8.4161666867
 30
0.0
 11
4.8222089777
 21
8.4335984854
 31
0.0
  0
LINE
  5
2C5
330
1F
100
AcDbEntity
  8
0
  6
Continuous
 62
     7
370
    15
100
AcDbLine
 10
4.8222089777
 20
8.4335984854
 30
0.0
 11
4.8222089777
 21
8.434268617
 31
0.0
  0
SPLINE
  5
2C6
330
1F
100
AcDbEntity
  8
0
  6
Continuous
 62
     7
370
    15
100
AcDbSpline
210
0.0
220
0.0
230
1.0
 70
     8
 71
     3
 72
    11
 73
     7
 74
     0
 42
0.000000001
 43
0.00000001
 40
0.0
 40
0.0
 40
0.0
 40
0.0
 40
0.2646136140617534
 40
0.5349657669360356
 40
0.7653524252585204
 40
1.0
 40
1.0
 40
1.0
 40
1.0
 10
5.010333977986122
 20
8.324893616283134
 30
0.0
 10
5.013155648561084
 20
8.31540032039745
 30
0.0
 10
5.018860181823773
 20
8.296207852420155
 30
0.0
 10
5.020946707178314
 20
8.267772269059922
 30
0.0
 10
5.017883431396102
 20
8.240590465155034
 30
0.0
 10
5.012865787322185
 20
8.223926794333554
 30
0.0
 10
5.010333977986122
 20
8.215518617759566
 30
0.0
  0
LINE
  5
2C7
330
1F
100
AcDbEntity
  8
0
  6
Continuous
 62
     7
370
    15
100
AcDbLine
 10
4.8222089777
 20
8.215518617
 30
0.0
 11
5.0103339779
 21
8.2155186174
 31
0.0
  0
LINE
  5
2C8
330
1F
100
AcDbEntity
  8
0
  6
Continuous
 62
     7
370
    15
100
AcDbLine
 10
4.8222089777
 20
8.215518617
 30
0.0
 11
4.8222089777
 21
8.2161887487
 31
0.0
  0
LINE
  5
2C9
330
1F
100
AcDbEntity
  8
0
  6
Continuous
 62
     7
370
    15
100
AcDbLine
 10
4.8222089777
 20
8.2161887487
 30
0.0
 11
4.8172089777
 21
8.2336205474
 31
0.0
  0
LINE
  5
2CA
330
1F
100
AcDbEntity
  8
0
  6
Continuous
 62
     7
370
    15
100
AcDbLine
 10
4.8172089777
 20
8.2336205474
 30
0.0
 11
4.7751116301
 21
8.2336205474
 31
0.0
  0
SPLINE
  5
2CB
330
1F
100
AcDbEntity
  8
0
  6
Continuous
 62
     7
370
    15
100
AcDbSpline
210
0.0
220
0.0
230
1.0
 70
     8
 71
     3
 72
    10
 73
     6
 74
     0
 42
0.000000001
 43
0.00000001
 40
0.0
 40
0.0
 40
0.0
 40
0.0
 40
0.3702926789854314
 40
0.7498059832618703
 40
1.0
 40
1.0
 40
1.0
 40
1.0
 10
4.775111630123018
 20
8.233620547374857
 30
0.0
 10
4.773363103660583
 20
8.242600149231542
 30
0.0
 10
4.769822510832722
 20
8.260782953217564
 30
0.0
 10
4.770675614374655
 20
8.285526575772963
 30
0.0
 10
4.773850278933504
 20
8.300745095666885
 30
0.0
 10
4.775111630122014
 20
8.306791686668774
 30
0.0
  0
LINE
  5
2CC
330
1F
100
AcDbEntity
  8
0
  6
Continuous
 62
     7
370
    15
100
AcDbLine
 10
4.7751116301
 20
8.3067916867
 30
0.0
 11
4.8172089777
 21
8.3067916867
 31
0.0
  0
LINE
  5
2CD
330
1F
100
AcDbEntity
  8
0
  6
Continuous
 62
     7
370
    15
100
AcDbLine
 10
4.8172089777
 20
8.3067916867
 30
0.0
 11
4.8222089777
 21
8.3242234854
 31
0.0
  0
LINE
  5
2CE
330
1F
100
AcDbEntity
  8
0
  6
Continuous
 62
     7
370
    15
100
AcDbLine
 10
4.8222089777
 20
8.3242234854
 30
0.0
 11
4.8222089777
 21
8.324893617
 31
0.0
  0
SPLINE
  5
2CF
330
1F
100
AcDbEntity
  8
0
  6
Continuous
 62
     7
370
    15
100
AcDbSpline
210
0.0
220
0.0
230
1.0
 70
    24
 71
     3
 72
     9
 73
     5
 74
     0
 42
0.000000001
 43
0.00000001
 40
0.0
 40
0.0
 40
0.0
 40
0.0
 40
0.5292239822978494
 40
1.0
 40
1.0
 40
1.0
 40
1.0
 10
5.010333977645407
 20
8.21551861702135
 30
0.0
 10
5.013266708522386
 20
8.21551861702135
 30
0.0
 10
5.01880827688489
 20
8.21551861702135
 30
0.0
 10
5.019451022015413
 20
8.21551861702135
 30
0.0
 10
5.019753611008356
 20
8.21551861702135
 30
0.0
  0
SPLINE
  5
2D0
330
1F
100
AcDbEntity
  8
0
  6
Continuous
 62
     7
370
    15
100
AcDbSpline
210
0.0
220
0.0
230
1.0
 70
    24
 71
     3
 72
    10
 73
     6
 74
     0
 42
0.000000001
 43
0.00000001
 40
0.0
 40
0.0
 40
0.0
 40
0.0
 40
0.0697040640396319
 40
0.5305900733699892
 40
1.0
 40
1.0
 40
1.0
 40
1.0
 10
5.01975462041524
 20
8.43426861702135
 30
0.0
 10
5.019867523398644
 20
8.43426861702135
 30
0.0
 10
5.020726945343015
 20
8.43426861702135
 30
0.0
 10
5.017582926504199
 20
8.43426861702135
 30
0.0
 10
5.012765009021254
 20
8.43426861702135
 30
0.0
 10
5.010333977986122
 20
8.43426861702135
 30
0.0
  0
LINE
  5
2D1
330
1F
100
AcDbEntity
  8
0
  6
Continuous
 62
     7
370
    15
100
AcDbLine
 10
4.8172089777
 20
8.3067916867
 30
0.0
 11
4.8172089777
 21
8.3429955474
 31
0.0
  0
LINE
  5
2D2
330
1F
100
AcDbEntity
  8
0
  6
Continuous
 62
     7
370
    15
100
AcDbLine
 10
4.7751116301
 20
8.215518617
 30
0.0
 11
4.7751116301
 21
8.2336205474
 31
0.0
  0
SPLINE
  5
2D3
330
1F
100
AcDbEntity
  8
0
  6
Continuous
 62
     7
370
    15
100
AcDbSpline
210
0.0
220
0.0
230
1.0
 70
    24
 71
     3
 72
     9
 73
     5
 74
     0
 42
0.000000001
 43
0.00000001
 40
0.0
 40
0.0
 40
0.0
 40
0.0
 40
0.4997525754958434
 40
1.0
 40
1.0
 40
1.0
 40
1.0
 10
4.771178615865518
 20
8.21551861702135
 30
0.0
 10
4.77113391474172
 20
8.21551861702135
 30
0.0
 10
4.771044468231607
 20
8.21551861702135
 30
0.0
 10
4.7737554623143
 20
8.21551861702135
 30
0.0
 10
4.775111630122014
 20
8.21551861702135
 30
0.0
  0
SPLINE
  5
2D4
330
1F
100
AcDbEntity
  8
0
  6
Continuous
 62
     7
370
    15
100
AcDbSpline
210
0.0
220
0.0
230
1.0
 70
    24
 71
     3
 72
     9
 73
     5
 74
     0
 42
0.000000001
 43
0.00000001
 40
0.0
 40
0.0
 40
0.0
 40
0.0
 40
0.7407935793946777
 40
1.0
 40
1.0
 40
1.0
 40
1.0
 10
4.77511163012437
 20
8.434268617017391
 30
0.0
 10
4.773077767000443
 20
8.434268617019201
 30
0.0
 10
4.77033224762703
 20
8.43426861702164
 30
0.0
 10
4.771004391784366
 20
8.43426861702141
 30
0.0
 10
4.77117861586552
 20
8.43426861702135
 30
0.0
  0
LINE
  5
2D5
330
1F
100
AcDbEntity
  8
0
  6
Continuous
 62
     7
370
    15
100
AcDbLine
 10
4.7751116301
 20
8.434268617
 30
0.0
 11
4.7751116301
 21
8.4161666867
 31
0.0
  0
LINE
  5
2D6
330
1F
100
AcDbEntity
  8
0
  6
Continuous
 62
     7
370
    15
100
AcDbLine
 10
4.7751116301
 20
8.3067916867
 30
0.0
 11
4.7751116301
 21
8.3429955474
 31
0.0
  0
LINE
  5
2D7
330
1F
100
AcDbEntity
  8
0
  6
Continuous
 62
     7
370
    15
100
AcDbLine
 10
4.8172089777
 20
8.434268617
 30
0.0
 11
4.8172089777
 21
8.4161666867
 31
0.0
  0
LINE
  5
2D8
330
1F
100
AcDbEntity
  8
0
  6
Continuous
 62
     7
370
    15
100
AcDbLine
 10
4.8172089777
 20
8.434268617
 30
0.0
 11
4.7751116301
 21
8.434268617
 31
0.0
  0
LINE
  5
2D9
330
1F
100
AcDbEntity
  8
0
  6
Continuous
 62
     7
370
    15
100
AcDbLine
 10
4.8172089777
 20
8.2336205474
 30
0.0
 11
4.8172089777
 21
8.215518617
 31
0.0
  0
LINE
  5
2DA
330
1F
100
AcDbEntity
  8
0
  6
Continuous
 62
     7
370
    15
100
AcDbLine
 10
4.8172089777
 20
8.215518617
 30
0.0
 11
4.8222089777
 21
8.215518617
 31
0.0
  0
LINE
  5
2DB
330
1F
100
AcDbEntity
  8
0
  6
Continuous
 62
     7
370
    15
100
AcDbLine
 10
4.7751116301
 20
8.215518617
 30
0.0
 11
4.8172089777
 21
8.215518617
 31
0.0
  0
LINE
  5
2DC
330
1F
100
AcDbEntity
  8
0
  6
Continuous
 62
     7
370
    15
100
AcDbLine
 10
4.8222089777
 20
8.434268617
 30
0.0
 11
4.8172089777
 21
8.434268617
 31
0.0
  0
LINE
  5
2DD
330
1F
100
AcDbEntity
  8
0
  6
Continuous
 62
     7
370
    15
100
AcDbLine
 10
4.0923339777
 20
8.324893617
 30
0.0
 11
4.0923339777
 21
8.187143617
 31
0.0
  0
LINE
  5
2DE
330
1F
100
AcDbEntity
  8
0
  6
Continuous
 62
     7
370
    15
100
AcDbLine
 10
4.0923339777
 20
8.462643617
 30
0.0
 11
4.0923339777
 21
8.324893617
 31
0.0
  0
LINE
  5
2DF
330
1F
100
AcDbEntity
  8
0
  6
Continuous
 62
     7
370
    15
100
AcDbLine
 10
3.9103339777
 20
8.324893617
 30
0.0
 11
3.9103339777
 21
8.194893617
 31
0.0
  0
LINE
  5
2E0
330
1F
100
AcDbEntity
  8
0
  6
Continuous
 62
     7
370
    15
100
AcDbLine
 10
3.9103339777
 20
8.454893617
 30
0.0
 11
3.9103339777
 21
8.324893617
 31
0.0
  0
LINE
  5
2E1
330
1F
100
AcDbEntity
  8
0
  6
Continuous
 62
     7
370
    15
100
AcDbLine
 10
4.3640839777
 20
8.3248936167
 30
0.0
 11
4.2332279587
 21
8.324893617
 31
0.0
  0
SPLINE
  5
2E2
330
1F
100
AcDbEntity
  8
0
  6
Continuous
 62
     7
370
    15
100
AcDbSpline
210
0.0
220
0.0
230
1.0
 70
     8
 71
     3
 72
     9
 73
     5
 74
     0
 42
0.000000001
 43
0.00000001
 40
0.0
 40
0.0
 40
0.0
 40
0.0
 40
0.4954579634559955
 40
1.0
 40
1.0
 40
1.0
 40
1.0
 10
4.233227958736005
 20
8.32489361702932
 30
0.0
 10
4.23049754793879
 20
8.333775107445884
 30
0.0
 10
4.224986665081708
 20
8.351700927740733
 30
0.0
 10
4.223971281460279
 20
8.370231609239442
 30
0.0
 10
4.223458977740049
 20
8.379581117021349
 30
0.0
  0
SPLINE
  5
2E3
330
1F
100
AcDbEntity
  8
0
  6
Continuous
 62
     7
370
    15
100
AcDbSpline
210
0.0
220
0.0
230
1.0
 70
     8
 71
     3
 72
     9
 73
     5
 74
     0
 42
0.000000001
 43
0.00000001
 40
0.0
 40
0.0
 40
0.0
 40
0.0
 40
0.494510728500394
 40
1.0
 40
1.0
 40
1.0
 40
1.0
 10
4.223458977740049
 20
8.379581117021349
 30
0.0
 10
4.223951241163916
 20
8.38874464613977
 30
0.0
 10
4.224946696662647
 20
8.407275142224675
 30
0.0
 10
4.230447408114663
 20
8.42520517686671
 30
0.0
 10
4.23322795873927
 20
8.434268617015872
 30
0.0
  0
LINE
  5
2E4
330
1F
100
AcDbEntity
  8
0
  6
Continuous
 62
     7
370
    15
100
AcDbLine
 10
4.3640839777
 20
8.4342686172
 30
0.0
 11
4.2332279587
 21
8.434268617
 31
0.0
  0
SPLINE
  5
2E5
330
1F
100
AcDbEntity
  8
0
  6
Continuous
 62
     7
370
    15
100
AcDbSpline
210
0.0
220
0.0
230
1.0
 70
     8
 71
     3
 72
     9
 73
     5
 74
     0
 42
0.000000001
 43
0.00000001
 40
0.0
 40
0.0
 40
0.0
 40
0.0
 40
0.4945107285003942
 40
1.0
 40
1.0
 40
1.0
 40
1.0
 10
4.223458977740049
 20
8.27020611702135
 30
0.0
 10
4.223951241163916
 20
8.27936964613977
 30
0.0
 10
4.224946696662647
 20
8.297900142224675
 30
0.0
 10
4.230447408114663
 20
8.315830176866708
 30
0.0
 10
4.233227958739271
 20
8.324893617015874
 30
0.0
  0
LINE
  5
2E6
330
1F
100
AcDbEntity
  8
0
  6
Continuous
 62
     7
370
    15
100
AcDbLine
 10
4.2234589777
 20
8.379581117
 30
0.0
 11
4.2234589777
 21
8.270206117
 31
0.0
  0
LINE
  5
2E7
330
1F
100
AcDbEntity
  8
0
  6
Continuous
 62
     7
370
    15
100
AcDbLine
 10
4.2332279587
 20
8.215518617
 30
0.0
 11
4.3640839777
 21
8.215518617
 31
0.0
  0
SPLINE
  5
2E8
330
1F
100
AcDbEntity
  8
0
  6
Continuous
 62
     7
370
    15
100
AcDbSpline
210
0.0
220
0.0
230
1.0
 70
     8
 71
     3
 72
     9
 73
     5
 74
     0
 42
0.000000001
 43
0.00000001
 40
0.0
 40
0.0
 40
0.0
 40
0.0
 40
0.495457963455996
 40
1.0
 40
1.0
 40
1.0
 40
1.0
 10
4.233227958736005
 20
8.21551861702433
 30
0.0
 10
4.23049754793879
 20
8.22440010744297
 30
0.0
 10
4.224986665081708
 20
8.242325927742007
 30
0.0
 10
4.223971281460279
 20
8.26085660923987
 30
0.0
 10
4.223458977740049
 20
8.27020611702135
 30
0.0
  0
SPLINE
  5
2E9
330
1F
100
AcDbEntity
  8
0
  6
Continuous
 62
     7
370
    15
100
AcDbSpline
210
0.0
220
0.0
230
1.0
 70
    24
 71
     3
 72
     9
 73
     5
 74
     0
 42
0.000000001
 43
0.00000001
 40
0.0
 40
0.0
 40
0.0
 40
0.0
 40
0.4954579634559955
 40
1.0
 40
1.0
 40
1.0
 40
1.0
 10
4.233227958736005
 20
8.434268617026339
 30
0.0
 10
4.23049754793879
 20
8.434268617024264
 30
0.0
 10
4.224986665081708
 20
8.434268617020075
 30
0.0
 10
4.223971281460279
 20
8.434268617020923
 30
0.0
 10
4.223458977740049
 20
8.43426861702135
 30
0.0
  0
LINE
  5
2EA
330
1F
100
AcDbEntity
  8
0
  6
Continuous
 62
     7
370
    15
100
AcDbLine
 10
4.2234589777
 20
8.434268617
 30
0.0
 11
4.2234589777
 21
8.379581117
 31
0.0
  0
SPLINE
  5
2EB
330
1F
100
AcDbEntity
  8
0
  6
Continuous
 62
     7
370
    15
100
AcDbSpline
210
0.0
220
0.0
230
1.0
 70
    24
 71
     3
 72
     9
 73
     5
 74
     0
 42
0.000000001
 43
0.00000001
 40
0.0
 40
0.0
 40
0.0
 40
0.0
 40
0.4945107285003937
 40
0.9999999999999999
 40
0.9999999999999999
 40
0.9999999999999999
 40
0.9999999999999999
 10
4.223458977740049
 20
8.215518617021349
 30
0.0
 10
4.223951241163916
 20
8.215518617021349
 30
0.0
 10
4.224946696662648
 20
8.215518617021349
 30
0.0
 10
4.230447408114663
 20
8.215518617021349
 30
0.0
 10
4.233227958739271
 20
8.215518617021349
 30
0.0
  0
LINE
  5
2EC
330
1F
100
AcDbEntity
  8
0
  6
Continuous
 62
     7
370
    15
100
AcDbLine
 10
4.2234589777
 20
8.270206117
 30
0.0
 11
4.2234589777
 21
8.215518617
 31
0.0
  0
LINE
  5
2ED
330
1F
100
AcDbEntity
  8
0
  6
Continuous
 62
     7
370
    15
100
AcDbLine
 10
4.1827089777
 20
4.622518617
 30
0.0
 11
4.0923339777
 21
4.622518617
 31
0.0
  0
LINE
  5
2EE
330
1F
100
AcDbEntity
  8
0
  6
Continuous
 62
     7
370
    15
100
AcDbLine
 10
4.0923339777
 20
4.547268617
 30
0.0
 11
4.1827089777
 21
4.547268617
 31
0.0
  0
LINE
  5
2EF
330
1F
100
AcDbEntity
  8
0
  6
Continuous
 62
     7
370
    15
100
AcDbLine
 10
5.0201029587
 20
4.475518617
 30
0.0
 11
5.0203339778
 21
4.4759187537
 31
0.0
  0
LINE
  5
2F0
330
1F
100
AcDbEntity
  8
0
  6
Continuous
 62
     7
370
    15
100
AcDbLine
 10
5.0203339778
 20
4.6938684803
 30
0.0
 11
5.0201029587
 21
4.694268617
 31
0.0
  0
LINE
  5
2F1
330
1F
100
AcDbEntity
  8
0
  6
Continuous
 62
     7
370
    15
100
AcDbLine
 10
4.7705649967
 20
4.694268617
 30
0.0
 11
4.7703339777
 21
4.6938684803
 31
0.0
  0
LINE
  5
2F2
330
1F
100
AcDbEntity
  8
0
  6
Continuous
 62
     7
370
    15
100
AcDbLine
 10
4.7703339777
 20
4.4759187537
 30
0.0
 11
4.7705649967
 21
4.475518617
 31
0.0
  0
LINE
  5
2F3
330
1F
100
AcDbEntity
  8
0
  6
Continuous
 62
     7
370
    15
100
AcDbLine
 10
4.0923339777
 20
4.722643617
 30
0.0
 11
3.9103339777
 21
4.714893617
 31
0.0
  0
LINE
  5
2F4
330
1F
100
AcDbEntity
  8
0
  6
Continuous
 62
     7
370
    15
100
AcDbLine
 10
3.9103339777
 20
4.454893617
 30
0.0
 11
4.0923339777
 21
4.447143617
 31
0.0
  0
LINE
  5
2F5
330
1F
100
AcDbEntity
  8
0
  6
Continuous
 62
     7
370
    15
100
AcDbLine
 10
4.7937714777
 20
4.366143617
 30
0.0
 11
4.7937714777
 21
4.475518617
 31
0.0
  0
LINE
  5
2F6
330
1F
100
AcDbEntity
  8
0
  6
Continuous
 62
     7
370
    15
100
AcDbLine
 10
4.7937714777
 20
4.694268617
 30
0.0
 11
4.7937714777
 21
4.803643617
 31
0.0
  0
LINE
  5
2F7
330
1F
100
AcDbEntity
  8
0
  6
Continuous
 62
     7
370
    15
100
AcDbLine
 10
4.7703339777
 20
4.366143617
 30
0.0
 11
4.7937714777
 21
4.366143617
 31
0.0
  0
LINE
  5
2F8
330
1F
100
AcDbEntity
  8
0
  6
Continuous
 62
     7
370
    15
100
AcDbLine
 10
4.7703339777
 20
4.366143617
 30
0.0
 11
4.7703339777
 21
4.397393617
 31
0.0
  0
LINE
  5
2F9
330
1F
100
AcDbEntity
  8
0
  6
Continuous
 62
     7
370
    15
100
AcDbLine
 10
4.7703339777
 20
4.772393617
 30
0.0
 11
4.7703339777
 21
4.803643617
 31
0.0
  0
LINE
  5
2FA
330
1F
100
AcDbEntity
  8
0
  6
Continuous
 62
     7
370
    15
100
AcDbLine
 10
4.7703339777
 20
4.803643617
 30
0.0
 11
4.7937714777
 21
4.803643617
 31
0.0
  0
LINE
  5
2FB
330
1F
100
AcDbEntity
  8
0
  6
Continuous
 62
     7
370
    15
100
AcDbLine
 10
4.8015839777
 20
4.373956117
 30
0.0
 11
4.7937714777
 21
4.366143617
 31
0.0
  0
LINE
  5
2FC
330
1F
100
AcDbEntity
  8
0
  6
Continuous
 62
     7
370
    15
100
AcDbLine
 10
4.8015839777
 20
4.795831117
 30
0.0
 11
4.7937714777
 21
4.803643617
 31
0.0
  0
LINE
  5
2FD
330
1F
100
AcDbEntity
  8
0
  6
Continuous
 62
     7
370
    15
100
AcDbLine
 10
4.8015839777
 20
4.795831117
 30
0.0
 11
4.8015839777
 21
4.694268617
 31
0.0
  0
LINE
  5
2FE
330
1F
100
AcDbEntity
  8
0
  6
Continuous
 62
     7
370
    15
100
AcDbLine
 10
4.8015839777
 20
4.475518617
 30
0.0
 11
4.8015839777
 21
4.373956117
 31
0.0
  0
LINE
  5
2FF
330
1F
100
AcDbEntity
  8
0
  6
Continuous
 62
     7
370
    15
100
AcDbLine
 10
4.3640839777
 20
4.373956117
 30
0.0
 11
4.3718964777
 21
4.366143617
 31
0.0
  0
LINE
  5
300
330
1F
100
AcDbEntity
  8
0
  6
Continuous
 62
     7
370
    15
100
AcDbLine
 10
4.3640839777
 20
4.373956117
 30
0.0
 11
4.3640839777
 21
4.475518617
 31
0.0
  0
LINE
  5
301
330
1F
100
AcDbEntity
  8
0
  6
Continuous
 62
     7
370
    15
100
AcDbLine
 10
4.3640839777
 20
4.6942686167
 30
0.0
 11
4.3640839777
 21
4.795831117
 31
0.0
  0
LINE
  5
302
330
1F
100
AcDbEntity
  8
0
  6
Continuous
 62
     7
370
    15
100
AcDbLine
 10
4.3718964777
 20
4.803643617
 30
0.0
 11
4.3640839777
 21
4.795831117
 31
0.0
  0
LINE
  5
303
330
1F
100
AcDbEntity
  8
0
  6
Continuous
 62
     7
370
    15
100
AcDbLine
 10
4.3718964777
 20
4.803643617
 30
0.0
 11
4.3718964777
 21
4.6942686167
 31
0.0
  0
LINE
  5
304
330
1F
100
AcDbEntity
  8
0
  6
Continuous
 62
     7
370
    15
100
AcDbLine
 10
4.3718964777
 20
4.475518617
 30
0.0
 11
4.3718964777
 21
4.366143617
 31
0.0
  0
LINE
  5
305
330
1F
100
AcDbEntity
  8
0
  6
Continuous
 62
     7
370
    15
100
AcDbLine
 10
4.3718964777
 20
4.803643617
 30
0.0
 11
4.3953339777
 21
4.803643617
 31
0.0
  0
LINE
  5
306
330
1F
100
AcDbEntity
  8
0
  6
Continuous
 62
     7
370
    15
100
AcDbLine
 10
4.3953339777
 20
4.366143617
 30
0.0
 11
4.3718964777
 21
4.366143617
 31
0.0
  0
LINE
  5
307
330
1F
100
AcDbEntity
  8
0
  6
Continuous
 62
     7
370
    15
100
AcDbLine
 10
4.3953339777
 20
4.803643617
 30
0.0
 11
4.3953339777
 21
4.772393617
 31
0.0
  0
LINE
  5
308
330
1F
100
AcDbEntity
  8
0
  6
Continuous
 62
     7
370
    15
100
AcDbLine
 10
4.3953339777
 20
4.397393617
 30
0.0
 11
4.3953339777
 21
4.366143617
 31
0.0
  0
LINE
  5
309
330
1F
100
AcDbEntity
  8
0
  6
Continuous
 62
     7
370
    15
100
AcDbLine
 10
4.3953339777
 20
4.366143617
 30
0.0
 11
4.7703339777
 21
4.366143617
 31
0.0
  0
LINE
  5
30A
330
1F
100
AcDbEntity
  8
0
  6
Continuous
 62
     7
370
    15
100
AcDbLine
 10
4.7703339777
 20
4.803643617
 30
0.0
 11
4.3953339777
 21
4.803643617
 31
0.0
  0
SPLINE
  5
30B
330
1F
100
AcDbEntity
  8
0
  6
Continuous
 62
     7
370
    15
100
AcDbSpline
210
0.0
220
0.0
230
1.0
 70
     8
 71
     3
 72
    10
 73
     6
 74
     0
 42
0.000000001
 43
0.00000001
 40
0.0
 40
0.0
 40
0.0
 40
0.0
 40
0.4989887185931069
 40
0.7494000253149552
 40
1.0
 40
1.0
 40
1.0
 40
1.0
 10
4.223458977740049
 20
4.620792128943682
 30
0.0
 10
4.22323244442782
 20
4.614801266869581
 30
0.0
 10
4.222892228179248
 20
4.605803964881177
 30
0.0
 10
4.221554084854876
 20
4.593847476318865
 30
0.0
 10
4.220680362139539
 20
4.587878985980415
 30
0.0
 10
4.220243336271119
 20
4.584893617021211
 30
0.0
  0
SPLINE
  5
30C
330
1F
100
AcDbEntity
  8
0
  6
Continuous
 62
     7
370
    15
100
AcDbSpline
210
0.0
220
0.0
230
1.0
 70
     8
 71
     3
 72
    10
 73
     6
 74
     0
 42
0.000000001
 43
0.00000001
 40
0.0
 40
0.0
 40
0.0
 40
0.0
 40
0.3268376783955513
 40
0.6631067024620362
 40
1.0
 40
1.0
 40
1.0
 40
1.0
 10
4.220243336271119
 20
4.584893617021211
 30
0.0
 10
4.220804496552904
 20
4.580998787499098
 30
0.0
 10
4.221943010159515
 20
4.5730967378525
 30
0.0
 10
4.223083627025821
 20
4.561121973398693
 30
0.0
 10
4.223333783505739
 20
4.553039892903449
 30
0.0
 10
4.223458977740049
 20
4.548995105098748
 30
0.0
  0
LINE
  5
30D
330
1F
100
AcDbEntity
  8
0
  6
Continuous
 62
     7
370
    15
100
AcDbLine
 10
4.1827089777
 20
4.5489951051
 30
0.0
 11
4.1827089777
 21
4.6207921289
 31
0.0
  0
SPLINE
  5
30E
330
1F
100
AcDbEntity
  8
0
  6
Continuous
 62
     7
370
    15
100
AcDbSpline
210
0.0
220
0.0
230
1.0
 70
     8
 71
     3
 72
    10
 73
     6
 74
     0
 42
0.000000001
 43
0.00000001
 40
0.0
 40
0.0
 40
0.0
 40
0.0
 40
0.3268376748115729
 40
0.6631067006599234
 40
1.0
 40
1.0
 40
1.0
 40
1.0
 10
4.185924619269554
 20
4.584893616629658
 30
0.0
 10
4.185363458983078
 20
4.588788446151245
 30
0.0
 10
4.184224945357557
 20
4.596690495861949
 30
0.0
 10
4.183084328463623
 20
4.608665260446124
 30
0.0
 10
4.182834171977478
 20
4.616747341073001
 30
0.0
 10
4.18270897774005
 20
4.620792128943681
 30
0.0
  0
SPLINE
  5
30F
330
1F
100
AcDbEntity
  8
0
  6
Continuous
 62
     7
370
    15
100
AcDbSpline
210
0.0
220
0.0
230
1.0
 70
     8
 71
     3
 72
    10
 73
     6
 74
     0
 42
0.000000001
 43
0.00000001
 40
0.0
 40
0.0
 40
0.0
 40
0.0
 40
0.4989887186306442
 40
0.7494000253362623
 40
1.0
 40
1.0
 40
1.0
 40
1.0
 10
4.18270897774005
 20
4.548995105098747
 30
0.0
 10
4.182935511043762
 20
4.554985967034612
 30
0.0
 10
4.183275727279527
 20
4.563983268814989
 30
0.0
 10
4.18461387054879
 20
4.57593975710238
 30
0.0
 10
4.185487593229811
 20
4.581908247303753
 30
0.0
 10
4.185924619081063
 20
4.584893616194364
 30
0.0
  0
LINE
  5
310
330
1F
100
AcDbEntity
  8
0
  6
Continuous
 62
     7
370
    15
100
AcDbLine
 10
4.1827089777
 20
4.6207921289
 30
0.0
 11
4.1827089777
 21
4.6271201051
 31
0.0
  0
SPLINE
  5
311
330
1F
100
AcDbEntity
  8
0
  6
Continuous
 62
     7
370
    15
100
AcDbSpline
210
0.0
220
0.0
230
1.0
 70
     8
 71
     3
 72
    10
 73
     6
 74
     0
 42
0.000000001
 43
0.00000001
 40
0.0
 40
0.0
 40
0.0
 40
0.0
 40
0.4989887185754803
 40
0.7494000253049453
 40
1.0
 40
1.0
 40
1.0
 40
1.0
 10
4.18270897774005
 20
4.627120105098739
 30
0.0
 10
4.182935511056279
 20
4.63311096723776
 30
0.0
 10
4.183275727310865
 20
4.642108269323862
 30
0.0
 10
4.184613870661117
 20
4.654064758015289
 30
0.0
 10
4.185487593392571
 20
4.660033248418113
 30
0.0
 10
4.185924619269054
 20
4.663018617409531
 30
0.0
  0
LINE
  5
312
330
1F
100
AcDbEntity
  8
0
  6
Continuous
 62
     7
370
    15
100
AcDbLine
 10
4.2202433363
 20
4.663018617
 30
0.0
 11
4.1859246192
 21
4.6630186172
 31
0.0
  0
SPLINE
  5
313
330
1F
100
AcDbEntity
  8
0
  6
Continuous
 62
     7
370
    15
100
AcDbSpline
210
0.0
220
0.0
230
1.0
 70
     8
 71
     3
 72
    10
 73
     6
 74
     0
 42
0.000000001
 43
0.00000001
 40
0.0
 40
0.0
 40
0.0
 40
0.0
 40
0.3268376783954857
 40
0.6631067024620029
 40
1.0
 40
1.0
 40
1.0
 40
1.0
 10
4.220243336271119
 20
4.663018617021211
 30
0.0
 10
4.220804496552904
 20
4.659123787499097
 30
0.0
 10
4.221943010159515
 20
4.651221737852499
 30
0.0
 10
4.22308362702582
 20
4.639246973398687
 30
0.0
 10
4.223333783505739
 20
4.631164892903442
 30
0.0
 10
4.223458977740049
 20
4.627120105098741
 30
0.0
  0
LINE
  5
314
330
1F
100
AcDbEntity
  8
0
  6
Continuous
 62
     7
370
    15
100
AcDbLine
 10
4.1859246191
 20
4.5848936166
 30
0.0
 11
4.2202433363
 21
4.584893617
 31
0.0
  0
SPLINE
  5
315
330
1F
100
AcDbEntity
  8
0
  6
Continuous
 62
     7
370
    15
100
AcDbSpline
210
0.0
220
0.0
230
1.0
 70
     8
 71
     3
 72
    10
 73
     6
 74
     0
 42
0.000000001
 43
0.00000001
 40
0.0
 40
0.0
 40
0.0
 40
0.0
 40
0.4989887185931058
 40
0.7494000253149554
 40
1.0
 40
1.0
 40
1.0
 40
1.0
 10
4.223458977740049
 20
4.542667128943674
 30
0.0
 10
4.223232444427819
 20
4.536676266869574
 30
0.0
 10
4.222892228179247
 20
4.527678964881171
 30
0.0
 10
4.221554084854876
 20
4.515722476318862
 30
0.0
 10
4.220680362139539
 20
4.509753985980414
 30
0.0
 10
4.220243336271119
 20
4.50676861702121
 30
0.0
  0
LINE
  5
316
330
1F
100
AcDbEntity
  8
0
  6
Continuous
 62
     7
370
    15
100
AcDbLine
 10
4.1859246192
 20
4.506768617
 30
0.0
 11
4.2202433363
 21
4.506768617
 31
0.0
  0
SPLINE
  5
317
330
1F
100
AcDbEntity
  8
0
  6
Continuous
 62
     7
370
    15
100
AcDbSpline
210
0.0
220
0.0
230
1.0
 70
     8
 71
     3
 72
    10
 73
     6
 74
     0
 42
0.000000001
 43
0.00000001
 40
0.0
 40
0.0
 40
0.0
 40
0.0
 40
0.3268376859029817
 40
0.6631067062369205
 40
1.0
 40
1.0
 40
1.0
 40
1.0
 10
4.185924619082089
 20
4.506768617841423
 30
0.0
 10
4.185363458810133
 20
4.51066344736464
 30
0.0
 10
4.18422494524313
 20
4.518565496876952
 30
0.0
 10
4.183084328434704
 20
4.530540261057675
 30
0.0
 10
4.182834171967827
 20
4.538622341277182
 30
0.0
 10
4.18270897774005
 20
4.542667128943674
 30
0.0
  0
LINE
  5
318
330
1F
100
AcDbEntity
  8
0
  6
Continuous
 62
     7
370
    15
100
AcDbLine
 10
4.1827089777
 20
4.5426671289
 30
0.0
 11
4.1827089777
 21
4.5489951051
 31
0.0
  0
SPLINE
  5
319
330
1F
100
AcDbEntity
  8
0
  6
Continuous
 62
     7
370
    15
100
AcDbSpline
210
0.0
220
0.0
230
1.0
 70
    24
 71
     3
 72
    10
 73
     6
 74
     0
 42
0.000000001
 43
0.00000001
 40
0.0
 40
0.0
 40
0.0
 40
0.0
 40
0.3268376859012319
 40
0.6631067062360255
 40
1.0
 40
1.0
 40
1.0
 40
1.0
 10
4.185924619082119
 20
4.663018617021211
 30
0.0
 10
4.185363458810159
 20
4.66301861702121
 30
0.0
 10
4.184224945243149
 20
4.663018617021207
 30
0.0
 10
4.18308432843471
 20
4.663018617021213
 30
0.0
 10
4.182834171967829
 20
4.663018617021211
 30
0.0
 10
4.18270897774005
 20
4.663018617021211
 30
0.0
  0
LINE
  5
31A
330
1F
100
AcDbEntity
  8
0
  6
Continuous
 62
     7
370
    15
100
AcDbLine
 10
4.1827089777
 20
4.6271201051
 30
0.0
 11
4.1827089777
 21
4.663018617
 31
0.0
  0
SPLINE
  5
31B
330
1F
100
AcDbEntity
  8
0
  6
Continuous
 62
     7
370
    15
100
AcDbSpline
210
0.0
220
0.0
230
1.0
 70
    24
 71
     3
 72
    10
 73
     6
 74
     0
 42
0.000000001
 43
0.00000001
 40
0.0
 40
0.0
 40
0.0
 40
0.0
 40
0.49898871859311
 40
0.7494000253149549
 40
1.0
 40
1.0
 40
1.0
 40
1.0
 10
4.223458977740049
 20
4.663018617021211
 30
0.0
 10
4.223232444427819
 20
4.663018617021211
 30
0.0
 10
4.222892228179248
 20
4.663018617021211
 30
0.0
 10
4.221554084854876
 20
4.663018617021211
 30
0.0
 10
4.220680362139539
 20
4.663018617021211
 30
0.0
 10
4.220243336271119
 20
4.663018617021211
 30
0.0
  0
SPLINE
  5
31C
330
1F
100
AcDbEntity
  8
0
  6
Continuous
 62
     7
370
    15
100
AcDbSpline
210
0.0
220
0.0
230
1.0
 70
    24
 71
     3
 72
    10
 73
     6
 74
     0
 42
0.000000001
 43
0.00000001
 40
0.0
 40
0.0
 40
0.0
 40
0.0
 40
0.498988718575473
 40
0.7494000253049463
 40
1.0
 40
1.0
 40
1.0
 40
1.0
 10
4.18270897774005
 20
4.50676861702121
 30
0.0
 10
4.18293551105628
 20
4.50676861702121
 30
0.0
 10
4.183275727310868
 20
4.50676861702121
 30
0.0
 10
4.184613870661126
 20
4.50676861702121
 30
0.0
 10
4.185487593392582
 20
4.50676861702121
 30
0.0
 10
4.185924619269068
 20
4.50676861702121
 30
0.0
  0
LINE
  5
31D
330
1F
100
AcDbEntity
  8
0
  6
Continuous
 62
     7
370
    15
100
AcDbLine
 10
4.1827089777
 20
4.506768617
 30
0.0
 11
4.1827089777
 21
4.5426671289
 31
0.0
  0
SPLINE
  5
31E
330
1F
100
AcDbEntity
  8
0
  6
Continuous
 62
     7
370
    15
100
AcDbSpline
210
0.0
220
0.0
230
1.0
 70
    24
 71
     3
 72
    10
 73
     6
 74
     0
 42
0.000000001
 43
0.00000001
 40
0.0
 40
0.0
 40
0.0
 40
0.0
 40
0.3268376783954853
 40
0.6631067024619867
 40
1.0
 40
1.0
 40
1.0
 40
1.0
 10
4.220243336271119
 20
4.50676861702121
 30
0.0
 10
4.220804496552904
 20
4.50676861702121
 30
0.0
 10
4.221943010159515
 20
4.506768617021211
 30
0.0
 10
4.223083627025821
 20
4.506768617021215
 30
0.0
 10
4.223333783505739
 20
4.506768617021212
 30
0.0
 10
4.223458977740049
 20
4.50676861702121
 30
0.0
  0
LINE
  5
31F
330
1F
100
AcDbEntity
  8
0
  6
Continuous
 62
     7
370
    15
100
AcDbLine
 10
4.8222089777
 20
4.584893617
 30
0.0
 11
5.0103339779
 21
4.5848936174
 31
0.0
  0
SPLINE
  5
320
330
1F
100
AcDbEntity
  8
0
  6
Continuous
 62
     7
370
    15
100
AcDbSpline
210
0.0
220
0.0
230
1.0
 70
     8
 71
     3
 72
    11
 73
     7
 74
     0
 42
0.000000001
 43
0.00000001
 40
0.0
 40
0.0
 40
0.0
 40
0.0
 40
0.2646136134961537
 40
0.5349657659035753
 40
0.7653524246751676
 40
1.0
 40
1.0
 40
1.0
 40
1.0
 10
5.01033397742234
 20
4.584893617433928
 30
0.0
 10
5.013155648157824
 20
4.575400321429458
 30
0.0
 10
5.018860181746221
 20
4.556207853208035
 30
0.0
 10
5.020946707192618
 20
4.527772269655655
 30
0.0
 10
5.017883431479709
 20
4.500590465450742
 30
0.0
 10
5.012865787350671
 20
4.483926794434117
 30
0.0
 10
5.010333977986122
 20
4.475518617759427
 30
0.0
  0
LINE
  5
321
330
1F
100
AcDbEntity
  8
0
  6
Continuous
 62
     7
370
    15
100
AcDbLine
 10
4.8222089777
 20
4.475518617
 30
0.0
 11
5.0103339779
 21
4.4755186174
 31
0.0
  0
LINE
  5
322
330
1F
100
AcDbEntity
  8
0
  6
Continuous
 62
     7
370
    15
100
AcDbLine
 10
4.8222089777
 20
4.475518617
 30
0.0
 11
4.8222089777
 21
4.4761887487
 31
0.0
  0
LINE
  5
323
330
1F
100
AcDbEntity
  8
0
  6
Continuous
 62
     7
370
    15
100
AcDbLine
 10
4.8222089777
 20
4.4761887487
 30
0.0
 11
4.8172089777
 21
4.4936205474
 31
0.0
  0
LINE
  5
324
330
1F
100
AcDbEntity
  8
0
  6
Continuous
 62
     7
370
    15
100
AcDbLine
 10
4.8172089777
 20
4.4936205474
 30
0.0
 11
4.7751116301
 21
4.4936205474
 31
0.0
  0
SPLINE
  5
325
330
1F
100
AcDbEntity
  8
0
  6
Continuous
 62
     7
370
    15
100
AcDbSpline
210
0.0
220
0.0
230
1.0
 70
     8
 71
     3
 72
    10
 73
     6
 74
     0
 42
0.000000001
 43
0.00000001
 40
0.0
 40
0.0
 40
0.0
 40
0.0
 40
0.3702926789854463
 40
0.7498059832619007
 40
1.0
 40
1.0
 40
1.0
 40
1.0
 10
4.775111630123018
 20
4.493620547374719
 30
0.0
 10
4.773363103660583
 20
4.502600149231404
 30
0.0
 10
4.769822510832722
 20
4.520782953217427
 30
0.0
 10
4.770675614374655
 20
4.545526575772825
 30
0.0
 10
4.773850278933505
 20
4.560745095666745
 30
0.0
 10
4.775111630122014
 20
4.566791686668632
 30
0.0
  0
LINE
  5
326
330
1F
100
AcDbEntity
  8
0
  6
Continuous
 62
     7
370
    15
100
AcDbLine
 10
4.7751116301
 20
4.5667916867
 30
0.0
 11
4.8172089777
 21
4.5667916867
 31
0.0
  0
LINE
  5
327
330
1F
100
AcDbEntity
  8
0
  6
Continuous
 62
     7
370
    15
100
AcDbLine
 10
4.8172089777
 20
4.5667916867
 30
0.0
 11
4.8222089777
 21
4.5842234854
 31
0.0
  0
LINE
  5
328
330
1F
100
AcDbEntity
  8
0
  6
Continuous
 62
     7
370
    15
100
AcDbLine
 10
4.8222089777
 20
4.5842234854
 30
0.0
 11
4.8222089777
 21
4.584893617
 31
0.0
  0
LINE
  5
329
330
1F
100
AcDbEntity
  8
0
  6
Continuous
 62
     7
370
    15
100
AcDbLine
 10
4.8222089777
 20
4.694268617
 30
0.0
 11
5.0103339779
 21
4.694268617
 31
0.0
  0
SPLINE
  5
32A
330
1F
100
AcDbEntity
  8
0
  6
Continuous
 62
     7
370
    15
100
AcDbSpline
210
0.0
220
0.0
230
1.0
 70
     8
 71
     3
 72
    11
 73
     7
 74
     0
 42
0.000000001
 43
0.00000001
 40
0.0
 40
0.0
 40
0.0
 40
0.0
 40
0.2646136134961531
 40
0.5349657659035725
 40
0.7653524246751661
 40
1.0
 40
1.0
 40
1.0
 40
1.0
 10
5.01033397742234
 20
4.694268617064819
 30
0.0
 10
5.013155648157824
 20
4.684775321216187
 30
0.0
 10
5.018860181746222
 20
4.665582853309821
 30
0.0
 10
5.020946707192618
 20
4.63714726963276
 30
0.0
 10
5.017883431479711
 20
4.609965465456196
 30
0.0
 10
5.012865787350671
 20
4.593301794435946
 30
0.0
 10
5.010333977986122
 20
4.584893617759428
 30
0.0
  0
LINE
  5
32B
330
1F
100
AcDbEntity
  8
0
  6
Continuous
 62
     7
370
    15
100
AcDbLine
 10
4.8222089777
 20
4.5855637487
 30
0.0
 11
4.8172089777
 21
4.6029955474
 31
0.0
  0
LINE
  5
32C
330
1F
100
AcDbEntity
  8
0
  6
Continuous
 62
     7
370
    15
100
AcDbLine
 10
4.8172089777
 20
4.6029955474
 30
0.0
 11
4.7751116301
 21
4.6029955474
 31
0.0
  0
SPLINE
  5
32D
330
1F
100
AcDbEntity
  8
0
  6
Continuous
 62
     7
370
    15
100
AcDbSpline
210
0.0
220
0.0
230
1.0
 70
     8
 71
     3
 72
    10
 73
     6
 74
     0
 42
0.000000001
 43
0.00000001
 40
0.0
 40
0.0
 40
0.0
 40
0.0
 40
0.3702926789854395
 40
0.7498059832618845
 40
1.0
 40
1.0
 40
1.0
 40
1.0
 10
4.775111630123018
 20
4.602995547373052
 30
0.0
 10
4.773363103660583
 20
4.611975149230441
 30
0.0
 10
4.769822510832722
 20
4.630157953217889
 30
0.0
 10
4.770675614374655
 20
4.654901575772753
 30
0.0
 10
4.773850278933504
 20
4.670120095666726
 30
0.0
 10
4.775111630122014
 20
4.676166686668633
 30
0.0
  0
LINE
  5
32E
330
1F
100
AcDbEntity
  8
0
  6
Continuous
 62
     7
370
    15
100
AcDbLine
 10
4.7751116301
 20
4.6761666867
 30
0.0
 11
4.8172089777
 21
4.6761666867
 31
0.0
  0
LINE
  5
32F
330
1F
100
AcDbEntity
  8
0
  6
Continuous
 62
     7
370
    15
100
AcDbLine
 10
4.8172089777
 20
4.6761666867
 30
0.0
 11
4.8222089777
 21
4.6935984854
 31
0.0
  0
LINE
  5
330
330
1F
100
AcDbEntity
  8
0
  6
Continuous
 62
     7
370
    15
100
AcDbLine
 10
4.8222089777
 20
4.6935984854
 30
0.0
 11
4.8222089777
 21
4.694268617
 31
0.0
  0
LINE
  5
331
330
1F
100
AcDbEntity
  8
0
  6
Continuous
 62
     7
370
    15
100
AcDbLine
 10
4.8222089777
 20
4.584893617
 30
0.0
 11
4.8222089777
 21
4.5855637487
 31
0.0
  0
SPLINE
  5
332
330
1F
100
AcDbEntity
  8
0
  6
Continuous
 62
     7
370
    15
100
AcDbSpline
210
0.0
220
0.0
230
1.0
 70
    24
 71
     3
 72
    10
 73
     6
 74
     0
 42
0.000000001
 43
0.00000001
 40
0.0
 40
0.0
 40
0.0
 40
0.0
 40
0.0697040605844654
 40
0.53059007158691
 40
1.0
 40
1.0
 40
1.0
 40
1.0
 10
5.019754620431403
 20
4.694268617021211
 30
0.0
 10
5.019867523409772
 20
4.694268617021211
 30
0.0
 10
5.020726945355544
 20
4.694268617021211
 30
0.0
 10
5.017582926526116
 20
4.694268617021211
 30
0.0
 10
5.012765009028742
 20
4.694268617021211
 30
0.0
 10
5.010333977986122
 20
4.694268617021211
 30
0.0
  0
SPLINE
  5
333
330
1F
100
AcDbEntity
  8
0
  6
Continuous
 62
     7
370
    15
100
AcDbSpline
210
0.0
220
0.0
230
1.0
 70
     8
 71
     3
 72
     9
 73
     5
 74
     0
 42
0.000000001
 43
0.00000001
 40
0.0
 40
0.0
 40
0.0
 40
0.0
 40
0.5292239838373266
 40
1.0
 40
1.0
 40
1.0
 40
1.0
 10
5.01033397742234
 20
4.475518617390319
 30
0.0
 10
5.01326670840336
 20
4.475518617234726
 30
0.0
 10
5.018808276946332
 20
4.475518616940724
 30
0.0
 10
5.01945102202478
 20
4.475518616995449
 30
0.0
 10
5.019753610992222
 20
4.475518617021211
 30
0.0
  0
LINE
  5
334
330
1F
100
AcDbEntity
  8
0
  6
Continuous
 62
     7
370
    15
100
AcDbLine
 10
4.8172089777
 20
4.6029955474
 30
0.0
 11
4.8172089777
 21
4.5667916867
 31
0.0
  0
SPLINE
  5
335
330
1F
100
AcDbEntity
  8
0
  6
Continuous
 62
     7
370
    15
100
AcDbSpline
210
0.0
220
0.0
230
1.0
 70
    24
 71
     3
 72
     9
 73
     5
 74
     0
 42
0.000000001
 43
0.00000001
 40
0.0
 40
0.0
 40
0.0
 40
0.0
 40
0.740793579380193
 40
1.0
 40
1.0
 40
1.0
 40
1.0
 10
4.775111630123018
 20
4.694268617019544
 30
0.0
 10
4.773077766999759
 20
4.694268617020305
 30
0.0
 10
4.770332247627195
 20
4.694268617021333
 30
0.0
 10
4.77100439178439
 20
4.694268617021236
 30
0.0
 10
4.771178615865518
 20
4.694268617021211
 30
0.0
  0
LINE
  5
336
330
1F
100
AcDbEntity
  8
0
  6
Continuous
 62
     7
370
    15
100
AcDbLine
 10
4.7751116301
 20
4.6761666867
 30
0.0
 11
4.7751116301
 21
4.694268617
 31
0.0
  0
LINE
  5
337
330
1F
100
AcDbEntity
  8
0
  6
Continuous
 62
     7
370
    15
100
AcDbLine
 10
4.7751116301
 20
4.5667916867
 30
0.0
 11
4.7751116301
 21
4.6029955474
 31
0.0
  0
LINE
  5
338
330
1F
100
AcDbEntity
  8
0
  6
Continuous
 62
     7
370
    15
100
AcDbLine
 10
4.7751116301
 20
4.475518617
 30
0.0
 11
4.7751116301
 21
4.4936205474
 31
0.0
  0
SPLINE
  5
339
330
1F
100
AcDbEntity
  8
0
  6
Continuous
 62
     7
370
    15
100
AcDbSpline
210
0.0
220
0.0
230
1.0
 70
    24
 71
     3
 72
     9
 73
     5
 74
     0
 42
0.000000001
 43
0.00000001
 40
0.0
 40
0.0
 40
0.0
 40
0.0
 40
0.4997525755274955
 40
1.0
 40
1.0
 40
1.0
 40
1.0
 10
4.77117861586552
 20
4.475518617021211
 30
0.0
 10
4.771133914741744
 20
4.475518617021211
 30
0.0
 10
4.771044468231683
 20
4.475518617021211
 30
0.0
 10
4.773755462314383
 20
4.475518617021211
 30
0.0
 10
4.775111630122014
 20
4.475518617021211
 30
0.0
  0
LINE
  5
33A
330
1F
100
AcDbEntity
  8
0
  6
Continuous
 62
     7
370
    15
100
AcDbLine
 10
4.8172089777
 20
4.4936205474
 30
0.0
 11
4.8172089777
 21
4.475518617
 31
0.0
  0
LINE
  5
33B
330
1F
100
AcDbEntity
  8
0
  6
Continuous
 62
     7
370
    15
100
AcDbLine
 10
4.8172089777
 20
4.475518617
 30
0.0
 11
4.8222089777
 21
4.475518617
 31
0.0
  0
LINE
  5
33C
330
1F
100
AcDbEntity
  8
0
  6
Continuous
 62
     7
370
    15
100
AcDbLine
 10
4.7751116301
 20
4.475518617
 30
0.0
 11
4.8172089777
 21
4.475518617
 31
0.0
  0
LINE
  5
33D
330
1F
100
AcDbEntity
  8
0
  6
Continuous
 62
     7
370
    15
100
AcDbLine
 10
4.8172089777
 20
4.694268617
 30
0.0
 11
4.8172089777
 21
4.6761666867
 31
0.0
  0
LINE
  5
33E
330
1F
100
AcDbEntity
  8
0
  6
Continuous
 62
     7
370
    15
100
AcDbLine
 10
4.8222089777
 20
4.694268617
 30
0.0
 11
4.8172089777
 21
4.694268617
 31
0.0
  0
LINE
  5
33F
330
1F
100
AcDbEntity
  8
0
  6
Continuous
 62
     7
370
    15
100
AcDbLine
 10
4.8172089777
 20
4.694268617
 30
0.0
 11
4.7751116301
 21
4.694268617
 31
0.0
  0
LINE
  5
340
330
1F
100
AcDbEntity
  8
0
  6
Continuous
 62
     7
370
    15
100
AcDbLine
 10
3.9103339777
 20
4.714893617
 30
0.0
 11
3.9103339777
 21
4.454893617
 31
0.0
  0
LINE
  5
341
330
1F
100
AcDbEntity
  8
0
  6
Continuous
 62
     7
370
    15
100
AcDbLine
 10
4.0923339777
 20
4.722643617
 30
0.0
 11
4.0923339777
 21
4.447143617
 31
0.0
  0
SPLINE
  5
342
330
1F
100
AcDbEntity
  8
0
  6
Continuous
 62
     7
370
    15
100
AcDbSpline
210
0.0
220
0.0
230
1.0
 70
     8
 71
     3
 72
     9
 73
     5
 74
     0
 42
0.000000001
 43
0.00000001
 40
0.0
 40
0.0
 40
0.0
 40
0.0
 40
0.4989631659632766
 40
1.0
 40
1.0
 40
1.0
 40
1.0
 10
4.390800177741431
 20
4.584893616882686
 30
0.0
 10
4.392085679131881
 20
4.575831009979649
 30
0.0
 10
4.394662024397706
 20
4.557668132394202
 30
0.0
 10
4.395109683860223
 20
4.539372768316335
 30
0.0
 10
4.395333977740049
 20
4.530206117021211
 30
0.0
  0
SPLINE
  5
343
330
1F
100
AcDbEntity
  8
0
  6
Continuous
 62
     7
370
    15
100
AcDbSpline
210
0.0
220
0.0
230
1.0
 70
     8
 71
     3
 72
     9
 73
     5
 74
     0
 42
0.000000001
 43
0.00000001
 40
0.0
 40
0.0
 40
0.0
 40
0.0
 40
0.4987908233402366
 40
1.0
 40
1.0
 40
1.0
 40
1.0
 10
4.395333977740049
 20
4.530206117021211
 30
0.0
 10
4.395111679284449
 20
4.52108056586173
 30
0.0
 10
4.394666004574334
 20
4.502785218929782
 30
0.0
 10
4.392090862720675
 20
4.48462212646648
 30
0.0
 10
4.39080017799242
 20
4.475518617847353
 30
0.0
  0
LINE
  5
344
330
1F
100
AcDbEntity
  8
0
  6
Continuous
 62
     7
370
    15
100
AcDbLine
 10
4.3908001778
 20
4.475518617
 30
0.0
 11
4.2332279587
 21
4.475518617
 31
0.0
  0
SPLINE
  5
345
330
1F
100
AcDbEntity
  8
0
  6
Continuous
 62
     7
370
    15
100
AcDbSpline
210
0.0
220
0.0
230
1.0
 70
     8
 71
     3
 72
     9
 73
     5
 74
     0
 42
0.000000001
 43
0.00000001
 40
0.0
 40
0.0
 40
0.0
 40
0.0
 40
0.4954579634559957
 40
1.0
 40
1.0
 40
1.0
 40
1.0
 10
4.233227958736005
 20
4.475518617024193
 30
0.0
 10
4.23049754793879
 20
4.484400107442831
 30
0.0
 10
4.224986665081708
 20
4.502325927741869
 30
0.0
 10
4.223971281460279
 20
4.520856609239732
 30
0.0
 10
4.223458977740049
 20
4.530206117021211
 30
0.0
  0
SPLINE
  5
346
330
1F
100
AcDbEntity
  8
0
  6
Continuous
 62
     7
370
    15
100
AcDbSpline
210
0.0
220
0.0
230
1.0
 70
     8
 71
     3
 72
     9
 73
     5
 74
     0
 42
0.000000001
 43
0.00000001
 40
0.0
 40
0.0
 40
0.0
 40
0.0
 40
0.494510728500394
 40
1.0
 40
1.0
 40
1.0
 40
1.0
 10
4.223458977740049
 20
4.530206117021211
 30
0.0
 10
4.223951241163916
 20
4.539369646139631
 30
0.0
 10
4.224946696662647
 20
4.557900142224536
 30
0.0
 10
4.230447408114663
 20
4.57583017686657
 30
0.0
 10
4.233227958739271
 20
4.584893617015736
 30
0.0
  0
LINE
  5
347
330
1F
100
AcDbEntity
  8
0
  6
Continuous
 62
     7
370
    15
100
AcDbLine
 10
4.3908001779
 20
4.5848936169
 30
0.0
 11
4.2332279587
 21
4.584893617
 31
0.0
  0
LINE
  5
348
330
1F
100
AcDbEntity
  8
0
  6
Continuous
 62
     7
370
    15
100
AcDbLine
 10
4.2234589777
 20
4.639581117
 30
0.0
 11
4.2234589777
 21
4.530206117
 31
0.0
  0
SPLINE
  5
349
330
1F
100
AcDbEntity
  8
0
  6
Continuous
 62
     7
370
    15
100
AcDbSpline
210
0.0
220
0.0
230
1.0
 70
     8
 71
     3
 72
     9
 73
     5
 74
     0
 42
0.000000001
 43
0.00000001
 40
0.0
 40
0.0
 40
0.0
 40
0.0
 40
0.4954579634559958
 40
1.0
 40
1.0
 40
1.0
 40
1.0
 10
4.233227958736005
 20
4.584893617029182
 30
0.0
 10
4.23049754793879
 20
4.593775107445746
 30
0.0
 10
4.224986665081708
 20
4.611700927740594
 30
0.0
 10
4.223971281460279
 20
4.630231609239305
 30
0.0
 10
4.223458977740049
 20
4.639581117021211
 30
0.0
  0
SPLINE
  5
34A
330
1F
100
AcDbEntity
  8
0
  6
Continuous
 62
     7
370
    15
100
AcDbSpline
210
0.0
220
0.0
230
1.0
 70
     8
 71
     3
 72
     9
 73
     5
 74
     0
 42
0.000000001
 43
0.00000001
 40
0.0
 40
0.0
 40
0.0
 40
0.0
 40
0.498963166017327
 40
1.0
 40
1.0
 40
1.0
 40
1.0
 10
4.390800177997791
 20
4.694268616198413
 30
0.0
 10
4.392085679294674
 20
4.685206009427591
 30
0.0
 10
4.394662024372695
 20
4.667043132109094
 30
0.0
 10
4.395109683851891
 20
4.648747768220509
 30
0.0
 10
4.39533397774005
 20
4.639581117021211
 30
0.0
  0
SPLINE
  5
34B
330
1F
100
AcDbEntity
  8
0
  6
Continuous
 62
     7
370
    15
100
AcDbSpline
210
0.0
220
0.0
230
1.0
 70
     8
 71
     3
 72
     9
 73
     5
 74
     0
 42
0.000000001
 43
0.00000001
 40
0.0
 40
0.0
 40
0.0
 40
0.0
 40
0.498790823319233
 40
1.0
 40
1.0
 40
1.0
 40
1.0
 10
4.39533397774005
 20
4.639581117021211
 30
0.0
 10
4.395111679279349
 20
4.630455565763422
 30
0.0
 10
4.394666004558992
 20
4.612160218633612
 30
0.0
 10
4.392090862654995
 20
4.593997125976165
 30
0.0
 10
4.390800177901457
 20
4.58489361725935
 30
0.0
  0
SPLINE
  5
34C
330
1F
100
AcDbEntity
  8
0
  6
Continuous
 62
     7
370
    15
100
AcDbSpline
210
0.0
220
0.0
230
1.0
 70
     8
 71
     3
 72
     9
 73
     5
 74
     0
 42
0.000000001
 43
0.00000001
 40
0.0
 40
0.0
 40
0.0
 40
0.0
 40
0.494510728500394
 40
1.0
 40
1.0
 40
1.0
 40
1.0
 10
4.223458977740049
 20
4.639581117021211
 30
0.0
 10
4.223951241163916
 20
4.648744646139631
 30
0.0
 10
4.224946696662647
 20
4.667275142224536
 30
0.0
 10
4.230447408114663
 20
4.68520517686657
 30
0.0
 10
4.233227958739271
 20
4.694268617015736
 30
0.0
  0
LINE
  5
34D
330
1F
100
AcDbEntity
  8
0
  6
Continuous
 62
     7
370
    15
100
AcDbLine
 10
4.3908001779
 20
4.6942686166
 30
0.0
 11
4.2332279587
 21
4.694268617
 31
0.0
  0
SPLINE
  5
34E
330
1F
100
AcDbEntity
  8
0
  6
Continuous
 62
     7
370
    15
100
AcDbSpline
210
0.0
220
0.0
230
1.0
 70
     8
 71
     3
 72
     9
 73
     5
 74
     0
 42
0.000000001
 43
0.00000001
 40
0.0
 40
0.0
 40
0.0
 40
0.0
 40
0.4989631659092262
 40
1.0
 40
1.0
 40
1.0
 40
1.0
 10
4.39080017748507
 20
4.475518617426356
 30
0.0
 10
4.392085678969089
 20
4.475518617257616
 30
0.0
 10
4.394662024422717
 20
4.475518616919434
 30
0.0
 10
4.395109683868555
 20
4.475518616987239
 30
0.0
 10
4.39533397774005
 20
4.475518617021212
 30
0.0
  0
SPLINE
  5
34F
330
1F
100
AcDbEntity
  8
0
  6
Continuous
 62
     7
370
    15
100
AcDbSpline
210
0.0
220
0.0
230
1.0
 70
    24
 71
     3
 72
     9
 73
     5
 74
     0
 42
0.000000001
 43
0.00000001
 40
0.0
 40
0.0
 40
0.0
 40
0.0
 40
0.4945107285003942
 40
1.0
 40
1.0
 40
1.0
 40
1.0
 10
4.223458977740049
 20
4.475518617021212
 30
0.0
 10
4.223951241163916
 20
4.475518617021212
 30
0.0
 10
4.224946696662647
 20
4.475518617021212
 30
0.0
 10
4.230447408114663
 20
4.475518617021212
 30
0.0
 10
4.233227958739271
 20
4.475518617021212
 30
0.0
  0
LINE
  5
350
330
1F
100
AcDbEntity
  8
0
  6
Continuous
 62
     7
370
    15
100
AcDbLine
 10
4.2234589777
 20
4.530206117
 30
0.0
 11
4.2234589777
 21
4.475518617
 31
0.0
  0
SPLINE
  5
351
330
1F
100
AcDbEntity
  8
0
  6
Continuous
 62
     7
370
    15
100
AcDbSpline
210
0.0
220
0.0
230
1.0
 70
    24
 71
     3
 72
     9
 73
     5
 74
     0
 42
0.000000001
 43
0.00000001
 40
0.0
 40
0.0
 40
0.0
 40
0.0
 40
0.4954579634559958
 40
1.0
 40
1.0
 40
1.0
 40
1.0
 10
4.233227958736005
 20
4.694268617026201
 30
0.0
 10
4.23049754793879
 20
4.694268617024125
 30
0.0
 10
4.224986665081708
 20
4.694268617019937
 30
0.0
 10
4.223971281460279
 20
4.694268617020785
 30
0.0
 10
4.223458977740049
 20
4.694268617021212
 30
0.0
  0
LINE
  5
352
330
1F
100
AcDbEntity
  8
0
  6
Continuous
 62
     7
370
    15
100
AcDbLine
 10
4.2234589777
 20
4.694268617
 30
0.0
 11
4.2234589777
 21
4.639581117
 31
0.0
  0
SPLINE
  5
353
330
1F
100
AcDbEntity
  8
0
  6
Continuous
 62
     7
370
    15
100
AcDbSpline
210
0.0
220
0.0
230
1.0
 70
    24
 71
     3
 72
     9
 73
     5
 74
     0
 42
0.000000001
 43
0.00000001
 40
0.0
 40
0.0
 40
0.0
 40
0.0
 40
0.4987908232982293
 40
1.0
 40
1.0
 40
1.0
 40
1.0
 10
4.395333977740049
 20
4.694268617021212
 30
0.0
 10
4.39511167927425
 20
4.694268617021212
 30
0.0
 10
4.394666004543651
 20
4.694268617021212
 30
0.0
 10
4.392090862589315
 20
4.694268617021211
 30
0.0
 10
4.390800177810492
 20
4.694268617021211
 30
0.0
  0
LINE
  5
354
330
1F
100
AcDbEntity
  8
0
  6
Continuous
 62
     7
370
    15
100
AcDbLine
 10
4.3953339777
 20
4.397393617
 30
0.0
 11
4.3953339777
 21
4.772393617
 31
0.0
  0
LINE
  5
355
330
1F
100
AcDbEntity
  8
0
  6
Continuous
 62
     7
370
    15
100
AcDbLine
 10
4.7703339777
 20
4.772393617
 30
0.0
 11
4.3953339777
 21
4.772393617
 31
0.0
  0
LINE
  5
356
330
1F
100
AcDbEntity
  8
0
  6
Continuous
 62
     7
370
    15
100
AcDbLine
 10
4.7703339777
 20
4.772393617
 30
0.0
 11
4.7703339777
 21
4.397393617
 31
0.0
  0
LINE
  5
357
330
1F
100
AcDbEntity
  8
0
  6
Continuous
 62
     7
370
    15
100
AcDbLine
 10
4.3953339777
 20
4.397393617
 30
0.0
 11
4.7703339777
 21
4.397393617
 31
0.0
  0
ENDSEC
  0
SECTION
  2
OBJECTS
  0
DICTIONARY
  5
C
330
0
100
AcDbDictionary
281
     1
  3
ACAD_GROUP
350
D
  3
ACAD_LAYOUT
350
1A
  3
ACAD_MLINESTYLE
350
17
  3
ACAD_PLOTSETTINGS
350
19
  3
ACAD_PLOTSTYLENAME
350
E
  3
ACAD_SCALELIST
350
47
  0
DICTIONARY
  5
D
102
{ACAD_REACTORS
330
C
102
}
330
C
100
AcDbDictionary
281
     1
  0
DICTIONARY
  5
1A
102
{ACAD_REACTORS
330
C
102
}
330
C
100
AcDbDictionary
281
     1
  3
Layout1
350
1E
  3
Layout2
350
26
  3
Model
350
22
  0
DICTIONARY
  5
17
102
{ACAD_REACTORS
330
C
102
}
330
C
100
AcDbDictionary
281
     1
  3
Standard
350
18
  0
DICTIONARY
  5
19
102
{ACAD_REACTORS
330
C
102
}
330
C
100
AcDbDictionary
281
     1
  0
ACDBDICTIONARYWDFLT
  5
E
102
{ACAD_REACTORS
330
C
102
}
330
C
100
AcDbDictionary
281
     1
  3
Normal
350
F
100
AcDbDictionaryWithDefault
340
F
  0
DICTIONARY
  5
47
102
{ACAD_REACTORS
330
C
102
}
330
C
100
AcDbDictionary
281
     1
  3
A0
350
48
  3
A1
350
49
  3
A2
350
4A
  3
A3
350
4B
  3
A4
350
4C
  3
A5
350
4D
  3
A6
350
4E
  3
A7
350
4F
  3
A8
350
50
  3
A9
350
51
  3
B0
350
52
  3
B1
350
53
  3
B2
350
54
  3
B3
350
55
  3
B4
350
56
  3
B5
350
57
  3
B6
350
58
  3
B7
350
59
  3
B8
350
5A
  3
B9
350
5B
  3
C0
350
5C
  3
C1
350
5D
  3
C2
350
5E
  3
C3
350
5F
  3
C4
350
60
  3
C5
350
61
  3
C6
350
62
  3
C7
350
63
  3
C8
350
64
  3
C9
350
65
  3
D0
350
66
  3
D1
350
67
  3
D2
350
68
  0
LAYOUT
  5
1E
102
{ACAD_REACTORS
330
1A
102
}
330
1A
100
AcDbPlotSettings
  1

  2
none_device
  4

  6

 40
0.0
 41
0.0
 42
0.0
 43
0.0
 44
0.0
 45
0.0
 46
0.0
 47
0.0
 48
0.0
 49
0.0
140
0.0
141
0.0
142
1.0
143
1.0
 70
   688
 72
     0
 73
     0
 74
     5
  7

 75
    16
147
1.0
148
0.0
149
0.0
100
AcDbLayout
  1
Layout1
 70
     1
 71
     1
 10
0.0
 20
0.0
 11
12.0
 21
9.0
 12
0.0
 22
0.0
 32
0.0
 14
1.0000000000E+20
 24
1.0000000000E+20
 34
1.0000000000E+20
 15
-1.0000000000E+20
 25
-1.0000000000E+20
 35
-1.0000000000E+20
146
0.0
 13
0.0
 23
0.0
 33
0.0
 16
1.0
 26
0.0
 36
0.0
 17
0.0
 27
1.0
 37
0.0
 76
     0
330
1B
  0
LAYOUT
  5
26
102
{ACAD_REACTORS
330
1A
102
}
330
1A
100
AcDbPlotSettings
  1

  2
none_device
  4

  6

 40
0.0
 41
0.0
 42
0.0
 43
0.0
 44
0.0
 45
0.0
 46
0.0
 47
0.0
 48
0.0
 49
0.0
140
0.0
141
0.0
142
1.0
143
1.0
 70
   688
 72
     0
 73
     0
 74
     5
  7

 75
    16
147
1.0
148
0.0
149
0.0
100
AcDbLayout
  1
Layout2
 70
     1
 71
     2
 10
0.0
 20
0.0
 11
0.0
 21
0.0
 12
0.0
 22
0.0
 32
0.0
 14
0.0
 24
0.0
 34
0.0
 15
0.0
 25
0.0
 35
0.0
146
0.0
 13
0.0
 23
0.0
 33
0.0
 16
1.0
 26
0.0
 36
0.0
 17
0.0
 27
1.0
 37
0.0
 76
     0
330
23
  0
LAYOUT
  5
22
102
{ACAD_REACTORS
330
1A
102
}
330
1A
100
AcDbPlotSettings
  1

  2
none_device
  4
Letter_(8.50_x_11.00_Inches)
  6

 40
6.35
 41
6.35
 42
6.35000508
 43
6.35000508
 44
215.9
 45
279.4
 46
0.0
 47
0.0
 48
0.0
 49
0.0
140
0.0
141
0.0
142
1.0
143
1.0
 70
  1712
 72
     0
 73
     0
 74
     0
  7

 75
     0
147
1.0
148
0.0
149
0.0
100
AcDbLayout
  1
Model
 70
     1
 71
     0
 10
0.0
 20
0.0
 11
8.5
 21
11.0
 12
0.0
 22
0.0
 32
0.0
 14
0.0
 24
0.0
 34
0.0
 15
8.5
 25
11.0
 35
0.0
146
0.0
 13
0.0
 23
0.0
 33
0.0
 16
1.0
 26
0.0
 36
0.0
 17
0.0
 27
1.0
 37
0.0
 76
     0
330
1F
331
29
  0
MLINESTYLE
  5
18
102
{ACAD_REACTORS
330
17
102
}
330
17
100
AcDbMlineStyle
  2
Standard
 70
     0
  3

 62
   256
 51
90.0
 52
90.0
 71
     2
 49
0.5
 62
   256
  6
BYLAYER
 49
-0.5
 62
   256
  6
BYLAYER
  0
ACDBPLACEHOLDER
  5
F
102
{ACAD_REACTORS
330
E
102
}
330
E
  0
SCALE
  5
48
102
{ACAD_REACTORS
330
47
102
}
330
47
100
AcDbScale
 70
     0
300
1:1
140
1.0
141
1.0
290
     1
  0
SCALE
  5
49
102
{ACAD_REACTORS
330
47
102
}
330
47
100
AcDbScale
 70
     0
300
1:2
140
1.0
141
2.0
290
     0
  0
SCALE
  5
4A
102
{ACAD_REACTORS
330
47
102
}
330
47
100
AcDbScale
 70
     0
300
1:4
140
1.0
141
4.0
290
     0
  0
SCALE
  5
4B
102
{ACAD_REACTORS
330
47
102
}
330
47
100
AcDbScale
 70
     0
300
1:5
140
1.0
141
5.0
290
     0
  0
SCALE
  5
4C
102
{ACAD_REACTORS
330
47
102
}
330
47
100
AcDbScale
 70
     0
300
1:8
140
1.0
141
8.0
290
     0
  0
SCALE
  5
4D
102
{ACAD_REACTORS
330
47
102
}
330
47
100
AcDbScale
 70
     0
300
1:10
140
1.0
141
10.0
290
     0
  0
SCALE
  5
4E
102
{ACAD_REACTORS
330
47
102
}
330
47
100
AcDbScale
 70
     0
300
1:16
140
1.0
141
16.0
290
     0
  0
SCALE
  5
4F
102
{ACAD_REACTORS
330
47
102
}
330
47
100
AcDbScale
 70
     0
300
1:20
140
1.0
141
20.0
290
     0
  0
SCALE
  5
50
102
{ACAD_REACTORS
330
47
102
}
330
47
100
AcDbScale
 70
     0
300
1:30
140
1.0
141
30.0
290
     0
  0
SCALE
  5
51
102
{ACAD_REACTORS
330
47
102
}
330
47
100
AcDbScale
 70
     0
300
1:40
140
1.0
141
40.0
290
     0
  0
SCALE
  5
52
102
{ACAD_REACTORS
330
47
102
}
330
47
100
AcDbScale
 70
     0
300
1:50
140
1.0
141
50.0
290
     0
  0
SCALE
  5
53
102
{ACAD_REACTORS
330
47
102
}
330
47
100
AcDbScale
 70
     0
300
1:100
140
1.0
141
100.0
290
     0
  0
SCALE
  5
54
102
{ACAD_REACTORS
330
47
102
}
330
47
100
AcDbScale
 70
     0
300
2:1
140
2.0
141
1.0
290
     0
  0
SCALE
  5
55
102
{ACAD_REACTORS
330
47
102
}
330
47
100
AcDbScale
 70
     0
300
4:1
140
4.0
141
1.0
290
     0
  0
SCALE
  5
56
102
{ACAD_REACTORS
330
47
102
}
330
47
100
AcDbScale
 70
     0
300
8:1
140
8.0
141
1.0
290
     0
  0
SCALE
  5
57
102
{ACAD_REACTORS
330
47
102
}
330
47
100
AcDbScale
 70
     0
300
10:1
140
10.0
141
1.0
290
     0
  0
SCALE
  5
58
102
{ACAD_REACTORS
330
47
102
}
330
47
100
AcDbScale
 70
     0
300
100:1
140
100.0
141
1.0
290
     0
  0
SCALE
  5
59
102
{ACAD_REACTORS
330
47
102
}
330
47
100
AcDbScale
 70
     0
300
1/128" = 1'-0"
140
0.0078125
141
12.0
290
     0
  0
SCALE
  5
5A
102
{ACAD_REACTORS
330
47
102
}
330
47
100
AcDbScale
 70
     0
300
1/64" = 1'-0"
140
0.015625
141
12.0
290
     0
  0
SCALE
  5
5B
102
{ACAD_REACTORS
330
47
102
}
330
47
100
AcDbScale
 70
     0
300
1/32" = 1'-0"
140
0.03125
141
12.0
290
     0
  0
SCALE
  5
5C
102
{ACAD_REACTORS
330
47
102
}
330
47
100
AcDbScale
 70
     0
300
1/16" = 1'-0"
140
0.0625
141
12.0
290
     0
  0
SCALE
  5
5D
102
{ACAD_REACTORS
330
47
102
}
330
47
100
AcDbScale
 70
     0
300
3/32" = 1'-0"
140
0.09375
141
12.0
290
     0
  0
SCALE
  5
5E
102
{ACAD_REACTORS
330
47
102
}
330
47
100
AcDbScale
 70
     0
300
1/8" = 1'-0"
140
0.125
141
12.0
290
     0
  0
SCALE
  5
5F
102
{ACAD_REACTORS
330
47
102
}
330
47
100
AcDbScale
 70
     0
300
3/16" = 1'-0"
140
0.1875
141
12.0
290
     0
  0
SCALE
  5
60
102
{ACAD_REACTORS
330
47
102
}
330
47
100
AcDbScale
 70
     0
300
1/4" = 1'-0"
140
0.25
141
12.0
290
     0
  0
SCALE
  5
61
102
{ACAD_REACTORS
330
47
102
}
330
47
100
AcDbScale
 70
     0
300
3/8" = 1'-0"
140
0.375
141
12.0
290
     0
  0
SCALE
  5
62
102
{ACAD_REACTORS
330
47
102
}
330
47
100
AcDbScale
 70
     0
300
1/2" = 1'-0"
140
0.5
141
12.0
290
     0
  0
SCALE
  5
63
102
{ACAD_REACTORS
330
47
102
}
330
47
100
AcDbScale
 70
     0
300
3/4" = 1'-0"
140
0.75
141
12.0
290
     0
  0
SCALE
  5
64
102
{ACAD_REACTORS
330
47
102
}
330
47
100
AcDbScale
 70
     0
300
1" = 1'-0"
140
1.0
141
12.0
290
     0
  0
SCALE
  5
65
102
{ACAD_REACTORS
330
47
102
}
330
47
100
AcDbScale
 70
     0
300
1-1/2" = 1'-0"
140
1.5
141
12.0
290
     0
  0
SCALE
  5
66
102
{ACAD_REACTORS
330
47
102
}
330
47
100
AcDbScale
 70
     0
300
3" = 1'-0"
140
3.0
141
12.0
290
     0
  0
SCALE
  5
67
102
{ACAD_REACTORS
330
47
102
}
330
47
100
AcDbScale
 70
     0
300
6" = 1'-0"
140
6.0
141
12.0
290
     0
  0
SCALE
  5
68
102
{ACAD_REACTORS
330
47
102
}
330
47
100
AcDbScale
 70
     0
300
1'-0" = 1'-0"
140
12.0
141
12.0
290
     0
  0
ENDSEC
  0
EOF
