  0
SECTION
  2
HEADER
  9
$ACADVER
  1
AC1015
  9
$ACADMAINTVER
 70
     6
  9
$DWGCODEPAGE
  3
ANSI_1252
  9
$INSBASE
 10
0.0
 20
0.0
 30
0.0
  9
$EXTMIN
 10
0.0
 20
0.0
 30
0.0
  9
$EXTMAX
 10
17.0
 20
11.0
 30
0.0
  9
$LIMMIN
 10
0.0
 20
0.0
  9
$LIMMAX
 10
17.0
 20
11.0
  9
$ORTHOMODE
 70
     0
  9
$REGENMODE
 70
     1
  9
$FILLMODE
 70
     1
  9
$QTEXTMODE
 70
     0
  9
$MIRRTEXT
 70
     1
  9
$LTSCALE
 40
1.0
  9
$ATTMODE
 70
     1
  9
$TEXTSIZE
 40
0.09
  9
$TRACEWID
 40
0.05
  9
$TEXTSTYLE
  7
Standard
  9
$CLAYER
  8
0
  9
$CELTYPE
  6
ByLayer
  9
$CECOLOR
 62
   256
  9
$CELTSCALE
 40
1.0
  9
$DISPSILH
 70
     0
  9
$DIMSCALE
 40
1.0
  9
$DIMASZ
 40
0.13
  9
$DIMEXO
 40
0.05
  9
$DIMDLI
 40
0.38
  9
$DIMRND
 40
0.0
  9
$DIMDLE
 40
0.0
  9
$DIMEXE
 40
0.125
  9
$DIMTP
 40
0.0
  9
$DIMTM
 40
0.0
  9
$DIMTXT
 40
0.09
  9
$DIMCEN
 40
0.09
  9
$DIMTSZ
 40
0.0
  9
$DIMTOL
 70
     0
  9
$DIMLIM
 70
     0
  9
$DIMTIH
 70
     1
  9
$DIMTOH
 70
     1
  9
$DIMSE1
 70
     0
  9
$DIMSE2
 70
     0
  9
$DIMTAD
 70
     0
  9
$DIMZIN
 70
     1
  9
$DIMBLK
  1

  9
$DIMASO
 70
     1
  9
$DIMSHO
 70
     1
  9
$DIMPOST
  1

  9
$DIMAPOST
  1

  9
$DIMALT
 70
     0
  9
$DIMALTD
 70
     2
  9
$DIMALTF
 40
25.4
  9
$DIMLFAC
 40
2.0
  9
$DIMTOFL
 70
     0
  9
$DIMTVP
 40
0.0
  9
$DIMTIX
 70
     0
  9
$DIMSOXD
 70
     0
  9
$DIMSAH
 70
     0
  9
$DIMBLK1
  1

  9
$DIMBLK2
  1

  9
$DIMSTYLE
  2
Standard
  9
$DIMCLRD
 70
     0
  9
$DIMCLRE
 70
     0
  9
$DIMCLRT
 70
     0
  9
$DIMTFAC
 40
1.0
  9
$DIMGAP
 40
0.06
  9
$DIMJUST
 70
     0
  9
$DIMSD1
 70
     0
  9
$DIMSD2
 70
     0
  9
$DIMTOLJ
 70
     1
  9
$DIMTZIN
 70
     1
  9
$DIMALTZ
 70
     0
  9
$DIMALTTZ
 70
     0
  9
$DIMUPT
 70
     0
  9
$DIMDEC
 70
     3
  9
$DIMTDEC
 70
     3
  9
$DIMALTU
 70
     2
  9
$DIMALTTD
 70
     2
  9
$DIMTXSTY
  7
Standard
  9
$DIMAUNIT
 70
     0
  9
$DIMADEC
 70
     2
  9
$DIMALTRND
 40
0.0
  9
$DIMAZIN
 70
     0
  9
$DIMDSEP
 70
    46
  9
$DIMATFIT
 70
     3
  9
$DIMFRAC
 70
     0
  9
$DIMLDRBLK
  1

  9
$DIMLUNIT
 70
     2
  9
$DIMLWD
 70
    -2
  9
$DIMLWE
 70
    -2
  9
$DIMTMOVE
 70
     0
  9
$LUNITS
 70
     2
  9
$LUPREC
 70
     3
  9
$SKETCHINC
 40
0.1
  9
$FILLETRAD
 40
0.5
  9
$AUNITS
 70
     0
  9
$AUPREC
 70
     2
  9
$MENU
  1
.
  9
$ELEVATION
 40
0.0
  9
$PELEVATION
 40
0.0
  9
$THICKNESS
 40
0.0
  9
$LIMCHECK
 70
     0
  9
$CHAMFERA
 40
0.0
  9
$CHAMFERB
 40
0.0
  9
$CHAMFERC
 40
0.0
  9
$CHAMFERD
 40
0.0
  9
$SKPOLY
 70
     0
  9
$TDCREATE
 40
2458982.616416331
  9
$TDUCREATE
 40
2458982.783082998
  9
$TDUPDATE
 40
2458982.616417743
  9
$TDUUPDATE
 40
2458982.78308441
  9
$TDINDWG
 40
0.0000000116
  9
$TDUSRTIMER
 40
0.0000000116
  9
$USRTIMER
 70
     1
  9
$ANGBASE
 50
0.0
  9
$ANGDIR
 70
     0
  9
$PDMODE
 70
     0
  9
$PDSIZE
 40
-1.0
  9
$PLINEWID
 40
0.0
  9
$SPLFRAME
 70
     0
  9
$SPLINETYPE
 70
     6
  9
$SPLINESEGS
 70
     8
  9
$HANDSEED
  5
35D
  9
$SURFTAB1
 70
     6
  9
$SURFTAB2
 70
     6
  9
$SURFTYPE
 70
     6
  9
$SURFU
 70
     6
  9
$SURFV
 70
     6
  9
$UCSBASE
  2

  9
$UCSNAME
  2

  9
$UCSORG
 10
0.0
 20
0.0
 30
0.0
  9
$UCSXDIR
 10
1.0
 20
0.0
 30
0.0
  9
$UCSYDIR
 10
0.0
 20
1.0
 30
0.0
  9
$UCSORTHOREF
  2

  9
$UCSORTHOVIEW
 70
     0
  9
$UCSORGTOP
 10
0.0
 20
0.0
 30
0.0
  9
$UCSORGBOTTOM
 10
0.0
 20
0.0
 30
0.0
  9
$UCSORGLEFT
 10
0.0
 20
0.0
 30
0.0
  9
$UCSORGRIGHT
 10
0.0
 20
0.0
 30
0.0
  9
$UCSORGFRONT
 10
0.0
 20
0.0
 30
0.0
  9
$UCSORGBACK
 10
0.0
 20
0.0
 30
0.0
  9
$PUCSBASE
  2

  9
$PUCSNAME
  2

  9
$PUCSORG
 10
0.0
 20
0.0
 30
0.0
  9
$PUCSXDIR
 10
1.0
 20
0.0
 30
0.0
  9
$PUCSYDIR
 10
0.0
 20
1.0
 30
0.0
  9
$PUCSORTHOREF
  2

  9
$PUCSORTHOVIEW
 70
     0
  9
$PUCSORGTOP
 10
0.0
 20
0.0
 30
0.0
  9
$PUCSORGBOTTOM
 10
0.0
 20
0.0
 30
0.0
  9
$PUCSORGLEFT
 10
0.0
 20
0.0
 30
0.0
  9
$PUCSORGRIGHT
 10
0.0
 20
0.0
 30
0.0
  9
$PUCSORGFRONT
 10
0.0
 20
0.0
 30
0.0
  9
$PUCSORGBACK
 10
0.0
 20
0.0
 30
0.0
  9
$USERI1
 70
     0
  9
$USERI2
 70
     0
  9
$USERI3
 70
     0
  9
$USERI4
 70
     0
  9
$USERI5
 70
     0
  9
$USERR1
 40
0.0
  9
$USERR2
 40
0.0
  9
$USERR3
 40
0.0
  9
$USERR4
 40
0.0
  9
$USERR5
 40
0.0
  9
$WORLDVIEW
 70
     1
  9
$SHADEDGE
 70
     3
  9
$SHADEDIF
 70
    70
  9
$TILEMODE
 70
     1
  9
$MAXACTVP
 70
    64
  9
$PINSBASE
 10
0.0
 20
0.0
 30
0.0
  9
$PLIMCHECK
 70
     0
  9
$PEXTMIN
 10
1.0000000000E+20
 20
1.0000000000E+20
 30
1.0000000000E+20
  9
$PEXTMAX
 10
-1.0000000000E+20
 20
-1.0000000000E+20
 30
-1.0000000000E+20
  9
$PLIMMIN
 10
0.0
 20
0.0
  9
$PLIMMAX
 10
12.0
 20
9.0
  9
$UNITMODE
 70
     0
  9
$VISRETAIN
 70
     1
  9
$PLINEGEN
 70
     0
  9
$PSLTSCALE
 70
     1
  9
$TREEDEPTH
 70
  3020
  9
$CMLSTYLE
  2
Standard
  9
$CMLJUST
 70
     0
  9
$CMLSCALE
 40
1.0
  9
$PROXYGRAPHICS
 70
     1
  9
$MEASUREMENT
 70
     0
  9
$CELWEIGHT
370
    -1
  9
$ENDCAPS
280
     0
  9
$JOINSTYLE
280
     0
  9
$LWDISPLAY
290
     1
  9
$INSUNITS
 70
     1
  9
$HYPERLINKBASE
  1

  9
$STYLESHEET
  1

  9
$XEDIT
290
     1
  9
$CEPSNTYPE
380
     0
  9
$PSTYLEMODE
290
     1
  9
$FINGERPRINTGUID
  2
{1d681ff8-02bd-4fb3-9b83-74a8e2357900}
  9
$VERSIONGUID
  2
{FAEB1C32-E019-11D5-929B-00C0DF256EC4}
  9
$EXTNAMES
290
     1
  9
$PSVPSCALE
 40
0.0
  9
$OLESTARTUP
290
     0
  0
ENDSEC
  0
SECTION
  2
CLASSES
  0
CLASS
  1
ACDBDICTIONARYWDFLT
  2
AcDbDictionaryWithDefault
  3
ObjectDBX Classes
 90
        0
280
     0
281
     0
  0
CLASS
  1
VISUALSTYLE
  2
AcDbVisualStyle
  3
ObjectDBX Classes
 90
     4095
280
     0
281
     0
  0
CLASS
  1
MATERIAL
  2
AcDbMaterial
  3
ObjectDBX Classes
 90
     1153
280
     0
281
     0
  0
CLASS
  1
SCALE
  2
AcDbScale
  3
ObjectDBX Classes
 90
     1153
280
     0
281
     0
  0
CLASS
  1
TABLESTYLE
  2
AcDbTableStyle
  3
ObjectDBX Classes
 90
     4095
280
     0
281
     0
  0
CLASS
  1
MLEADERSTYLE
  2
AcDbMLeaderStyle
  3
ACDB_MLEADERSTYLE_CLASS
 90
     4095
280
     0
281
     0
  0
CLASS
  1
SUN
  2
AcDbSun
  3
SCENEOE
 90
     1153
280
     0
281
     0
  0
CLASS
  1
ACDBPLACEHOLDER
  2
AcDbPlaceHolder
  3
ObjectDBX Classes
 90
        0
280
     0
281
     0
  0
CLASS
  1
LAYOUT
  2
AcDbLayout
  3
ObjectDBX Classes
 90
        0
280
     0
281
     0
  0
ENDSEC
  0
SECTION
  2
TABLES
  0
TABLE
  2
VPORT
  5
8
330
0
100
AcDbSymbolTable
 70
     1
  0
VPORT
  5
29
330
8
100
AcDbSymbolTableRecord
100
AcDbViewportTableRecord
  2
*Active
 70
     0
 10
0.0
 20
0.0
 11
1.0
 21
1.0
 12
8.5
 22
5.5
 13
0.0
 23
0.0
 14
0.5
 24
0.5
 15
0.5
 25
0.5
 16
0.0
 26
0.0
 36
1.0
 17
0.0
 27
0.0
 37
0.0
 40
11.0
 41
1.5454545455
 42
50.0
 43
0.0
 44
0.0
 50
0.0
 51
0.0
 71
     0
 72
  2000
 73
     1
 74
     3
 75
     0
 76
     0
 77
     0
 78
     0
281
     0
 65
     1
110
0.0
120
0.0
130
0.0
111
1.0
121
0.0
131
0.0
112
0.0
122
1.0
132
0.0
 79
     0
146
0.0
  0
ENDTAB
  0
TABLE
  2
LTYPE
  5
5
330
0
100
AcDbSymbolTable
 70
     6
  0
LTYPE
  5
14
330
5
100
AcDbSymbolTableRecord
100
AcDbLinetypeTableRecord
  2
ByBlock
 70
     0
  3

 72
    65
 73
     0
 40
0.0
  0
LTYPE
  5
15
330
5
100
AcDbSymbolTableRecord
100
AcDbLinetypeTableRecord
  2
ByLayer
 70
     0
  3

 72
    65
 73
     0
 40
0.0
  0
LTYPE
  5
16
330
5
100
AcDbSymbolTableRecord
100
AcDbLinetypeTableRecord
  2
Continuous
 70
     0
  3
Solid line
 72
    65
 73
     0
 40
0.0
  0
LTYPE
  5
6E
330
5
100
AcDbSymbolTableRecord
100
AcDbLinetypeTableRecord
  2
HIDDEN
 70
     0
  3
Hidden __ __ __ __ __ __ __ __ __ __ __ __ __ __
 72
    65
 73
     2
 40
0.075
 49
0.05
 74
     0
 49
-0.025
 74
     0
  0
LTYPE
  5
6F
330
5
100
AcDbSymbolTableRecord
100
AcDbLinetypeTableRecord
  2
PHANTOM
 70
     0
  3
Phantom ______  __  __  ______  __  __  ______
 72
    65
 73
     6
 40
0.5
 49
0.25
 74
     0
 49
-0.05
 74
     0
 49
0.05
 74
     0
 49
-0.05
 74
     0
 49
0.05
 74
     0
 49
-0.05
 74
     0
  0
LTYPE
  5
70
330
5
100
AcDbSymbolTableRecord
100
AcDbLinetypeTableRecord
  2
CENTER
 70
     0
  3
Center ____ _ ____ _ ____ _ ____ _ ____ _ ____
 72
    65
 73
     4
 40
0.4
 49
0.25
 74
     0
 49
-0.05
 74
     0
 49
0.05
 74
     0
 49
-0.05
 74
     0
  0
LTYPE
  5
71
330
5
100
AcDbSymbolTableRecord
100
AcDbLinetypeTableRecord
  2
CENTERX2
 70
     0
  3
Center (2x) ________  __  ________  __  _____
 72
    65
 73
     4
 40
0.8
 49
0.5
 74
     0
 49
-0.1
 74
     0
 49
0.1
 74
     0
 49
-0.1
 74
     0
  0
LTYPE
  5
72
330
5
100
AcDbSymbolTableRecord
100
AcDbLinetypeTableRecord
  2
DOT2
 70
     0
  3
Dot (.5x) ........................................
 72
    65
 73
     2
 40
0.025
 49
0.0
 74
     0
 49
-0.025
 74
     0
  0
ENDTAB
  0
TABLE
  2
LAYER
  5
2
330
0
100
AcDbSymbolTable
 70
     2
  0
LAYER
  5
10
330
2
100
AcDbSymbolTableRecord
100
AcDbLayerTableRecord
  2
0
 70
     0
 62
     7
  6
Continuous
370
    -3
390
F
  0
LAYER
  5
73
330
2
100
AcDbSymbolTableRecord
100
AcDbLayerTableRecord
  2
SLD-0
 70
     0
 62
   179
  6
Continuous
370
    -3
390
F
  0
ENDTAB
  0
TABLE
  2
STYLE
  5
3
330
0
100
AcDbSymbolTable
 70
     1
  0
STYLE
  5
11
330
3
100
AcDbSymbolTableRecord
100
AcDbTextStyleTableRecord
  2
Standard
 70
     0
 40
0.0
 41
1.0
 50
0.0
 71
     0
 42
0.09
  3
txt
  4

  0
ENDTAB
  0
TABLE
  2
VIEW
  5
6
330
0
100
AcDbSymbolTable
 70
     0
  0
ENDTAB
  0
TABLE
  2
UCS
  5
7
330
0
100
AcDbSymbolTable
 70
     0
  0
ENDTAB
  0
TABLE
  2
APPID
  5
9
330
0
100
AcDbSymbolTable
 70
     1
  0
APPID
  5
12
330
9
100
AcDbSymbolTableRecord
100
AcDbRegAppTableRecord
  2
ACAD
 70
     0
  0
ENDTAB
  0
TABLE
  2
DIMSTYLE
  5
A
330
0
100
AcDbSymbolTable
 70
     1
100
AcDbDimStyleTable
  0
DIMSTYLE
105
27
330
A
100
AcDbSymbolTableRecord
100
AcDbDimStyleTableRecord
  2
Standard
 70
     0
178
     0
340
11
  0
ENDTAB
  0
TABLE
  2
BLOCK_RECORD
  5
1
330
0
100
AcDbSymbolTable
 70
     1
  0
BLOCK_RECORD
  5
1F
330
1
100
AcDbSymbolTableRecord
100
AcDbBlockTableRecord
  2
*Model_Space
340
22
  0
BLOCK_RECORD
  5
1B
330
1
100
AcDbSymbolTableRecord
100
AcDbBlockTableRecord
  2
*Paper_Space
340
1E
  0
BLOCK_RECORD
  5
23
330
1
100
AcDbSymbolTableRecord
100
AcDbBlockTableRecord
  2
*Paper_Space0
340
26
  0
ENDTAB
  0
ENDSEC
  0
SECTION
  2
BLOCKS
  0
BLOCK
  5
20
330
1F
100
AcDbEntity
  8
0
100
AcDbBlockBegin
  2
*Model_Space
 70
     0
 10
0.0
 20
0.0
 30
0.0
  3
*Model_Space
  1

  0
ENDBLK
  5
21
330
1F
100
AcDbEntity
  8
0
100
AcDbBlockEnd
  0
BLOCK
  5
1C
330
1B
100
AcDbEntity
 67
     1
  8
0
100
AcDbBlockBegin
  2
*Paper_Space
 70
     0
 10
0.0
 20
0.0
 30
0.0
  3
*Paper_Space
  1

  0
ENDBLK
  5
1D
330
1B
100
AcDbEntity
 67
     1
  8
0
100
AcDbBlockEnd
  0
BLOCK
  5
24
330
23
100
AcDbEntity
  8
0
100
AcDbBlockBegin
  2
*Paper_Space0
 70
     0
 10
0.0
 20
0.0
 30
0.0
  3
*Paper_Space0
  1

  0
ENDBLK
  5
25
330
23
100
AcDbEntity
  8
0
100
AcDbBlockEnd
  0
ENDSEC
  0
SECTION
  2
ENTITIES
  0
LINE
  5
74
330
1F
100
AcDbEntity
  8
0
  6
Continuous
 62
     7
370
    25
100
AcDbLine
 10
8.7688018269
 20
6.6729505092
 30
0.0
 11
8.7688018269
 21
6.6854506181
 31
0.0
  0
LINE
  5
75
330
1F
100
AcDbEntity
  8
0
  6
Continuous
 62
     7
370
    25
100
AcDbLine
 10
8.5878018283
 20
6.6854506181
 30
0.0
 11
8.5878018283
 21
6.6729505092
 31
0.0
  0
LINE
  5
76
330
1F
100
AcDbEntity
  8
0
  6
Continuous
 62
     7
370
    25
100
AcDbLine
 10
8.5933018289
 20
6.7029505359
 30
0.0
 11
8.5933018289
 21
6.6879505225
 31
0.0
  0
LINE
  5
77
330
1F
100
AcDbEntity
  8
0
  6
Continuous
 62
     7
370
    25
100
AcDbLine
 10
8.7633018263
 20
6.6879505225
 30
0.0
 11
8.7633018263
 21
6.7029505359
 31
0.0
  0
LINE
  5
78
330
1F
100
AcDbEntity
  8
0
  6
Continuous
 62
     7
370
    25
100
AcDbLine
 10
8.5980518307
 20
6.6879505225
 30
0.0
 11
8.5980518307
 21
6.6854506181
 31
0.0
  0
LINE
  5
79
330
1F
100
AcDbEntity
  8
0
  6
Continuous
 62
     7
370
    25
100
AcDbLine
 10
8.7585518245
 20
6.6854506181
 30
0.0
 11
8.7585518245
 21
6.6879505225
 31
0.0
  0
SPLINE
  5
7A
330
1F
100
AcDbEntity
  8
0
  6
Continuous
 62
     7
370
    25
100
AcDbSpline
210
0.0
220
0.0
230
1.0
 70
     8
 71
     3
 72
     9
 73
     5
 74
     0
 42
0.000000001
 43
0.00000001
 40
0.0
 40
0.0
 40
0.0
 40
0.0
 40
0.4989632646222902
 40
0.9999999999999999
 40
0.9999999999999999
 40
0.9999999999999999
 40
0.9999999999999999
 10
8.461795474317208
 20
4.172950576040973
 30
0.0
 10
8.470765134001896
 20
4.188486476299114
 30
0.0
 10
8.488741727311782
 20
4.219622837149048
 30
0.0
 10
8.506849435975074
 20
4.250986326201362
 30
0.0
 10
8.515922063208901
 20
4.266700586366188
 30
0.0
  0
ARC
  5
7B
330
1F
100
AcDbEntity
  8
0
  6
Continuous
 62
     7
370
    25
100
AcDbCircle
 10
8.6783018286
 20
4.1729505529
 30
0.0
 40
0.1875
100
AcDbArc
 50
150.0
 51
210.0
  0
SPLINE
  5
7C
330
1F
100
AcDbEntity
  8
0
  6
Continuous
 62
     7
370
    25
100
AcDbSpline
210
0.0
220
0.0
230
1.0
 70
     8
 71
     3
 72
     9
 73
     5
 74
     0
 42
0.000000001
 43
0.00000001
 40
0.0
 40
0.0
 40
0.0
 40
0.0
 40
0.4987908038072357
 40
1.0
 40
1.0
 40
1.0
 40
1.0
 10
8.515922063208901
 20
4.07920056571576
 30
0.0
 10
8.506890111704406
 20
4.094844369964968
 30
0.0
 10
8.488782417184868
 20
4.126207827610538
 30
0.0
 10
8.470805613594734
 20
4.157344559618962
 30
0.0
 10
8.461795474317208
 20
4.172950576040973
 30
0.0
  0
ARC
  5
7D
330
1F
100
AcDbEntity
  8
0
  6
Continuous
 62
     7
370
    25
100
AcDbCircle
 10
8.6783018286
 20
4.1729505529
 30
0.0
 40
0.1875
100
AcDbArc
 50
210.0
 51
270.0
  0
SPLINE
  5
7E
330
1F
100
AcDbEntity
  8
0
  6
Continuous
 62
     7
370
    25
100
AcDbSpline
210
0.0
220
0.0
230
1.0
 70
    24
 71
     3
 72
     9
 73
     5
 74
     0
 42
0.000000001
 43
0.00000001
 40
0.0
 40
0.0
 40
0.0
 40
0.0
 40
0.5185419688717398
 40
1.0
 40
1.0
 40
1.0
 40
1.0
 10
8.678301827592339
 20
3.985450555390545
 30
0.0
 10
8.660237061416302
 20
3.985450555390545
 30
0.0
 10
8.625399445060301
 20
3.985450555390545
 30
0.0
 10
8.59081365284206
 20
3.985450555390545
 30
0.0
 10
8.574162045415656
 20
3.985450555390545
 30
0.0
  0
SPLINE
  5
7F
330
1F
100
AcDbEntity
  8
0
  6
Continuous
 62
     7
370
    25
100
AcDbSpline
210
0.0
220
0.0
230
1.0
 70
     8
 71
     3
 72
     9
 73
     5
 74
     0
 42
0.000000001
 43
0.00000001
 40
0.0
 40
0.0
 40
0.0
 40
0.0
 40
0.4751798921107175
 40
1.0
 40
1.0
 40
1.0
 40
1.0
 10
8.567601767033885
 20
3.989688733097422
 30
0.0
 10
8.55944627831683
 20
4.003814435828345
 30
0.0
 10
8.542283328342604
 20
4.033541499126788
 30
0.0
 10
8.524995213503804
 20
4.06348540290451
 30
0.0
 10
8.515922063208901
 20
4.07920056571576
 30
0.0
  0
SPLINE
  5
80
330
1F
100
AcDbEntity
  8
0
  6
Continuous
 62
     7
370
    25
100
AcDbSpline
210
0.0
220
0.0
230
1.0
 70
    24
 71
     3
 72
     9
 73
     5
 74
     0
 42
0.000000001
 43
0.00000001
 40
0.0
 40
0.0
 40
0.0
 40
0.0
 40
0.4989631831067667
 40
1.0
 40
1.0
 40
1.0
 40
1.0
 10
8.570048652100594
 20
4.360450523358915
 30
0.0
 10
8.58798796168909
 20
4.360450523358915
 30
0.0
 10
8.623941134580118
 20
4.360450523358915
 30
0.0
 10
8.660156564075535
 20
4.360450523358915
 30
0.0
 10
8.678301827592339
 20
4.360450523358915
 30
0.0
  0
ARC
  5
81
330
1F
100
AcDbEntity
  8
0
  6
Continuous
 62
     7
370
    25
100
AcDbCircle
 10
8.6783018286
 20
4.1729505529
 30
0.0
 40
0.1875
100
AcDbArc
 50
90.0
 51
150.0
  0
SPLINE
  5
82
330
1F
100
AcDbEntity
  8
0
  6
Continuous
 62
     7
370
    25
100
AcDbSpline
210
0.0
220
0.0
230
1.0
 70
     8
 71
     3
 72
     9
 73
     5
 74
     0
 42
0.000000001
 43
0.00000001
 40
0.0
 40
0.0
 40
0.0
 40
0.0
 40
0.4987905529737498
 40
1.0
 40
1.0
 40
1.0
 40
1.0
 10
8.515922063208901
 20
4.266700586366188
 30
0.0
 10
8.524954021530284
 20
4.282344363956469
 30
0.0
 10
8.543061738822717
 20
4.313707783927064
 30
0.0
 10
8.56103851969852
 20
4.344844504738703
 30
0.0
 10
8.570048652100594
 20
4.360450523358915
 30
0.0
  0
SPLINE
  5
83
330
1F
100
AcDbEntity
  8
0
  6
Continuous
 62
     7
370
    25
100
AcDbSpline
210
0.0
220
0.0
230
1.0
 70
     8
 71
     3
 72
     9
 73
     5
 74
     0
 42
0.000000001
 43
0.00000001
 40
0.0
 40
0.0
 40
0.0
 40
0.0
 40
0.498962910130025
 40
1.0
 40
1.0
 40
1.0
 40
1.0
 10
8.786555007667365
 20
4.360450523358915
 30
0.0
 10
8.795524662157382
 20
4.344914648100562
 30
0.0
 10
8.813501257827948
 20
4.313778315233046
 30
0.0
 10
8.831608957996039
 20
4.282414847145168
 30
0.0
 10
8.840681587392497
 20
4.266700586366188
 30
0.0
  0
ARC
  5
84
330
1F
100
AcDbEntity
  8
0
  6
Continuous
 62
     7
370
    25
100
AcDbCircle
 10
8.6783018286
 20
4.1729505529
 30
0.0
 40
0.1875
100
AcDbArc
 50
30.0
 51
90.0
  0
SPLINE
  5
85
330
1F
100
AcDbEntity
  8
0
  6
Continuous
 62
     7
370
    25
100
AcDbSpline
210
0.0
220
0.0
230
1.0
 70
    24
 71
     3
 72
    10
 73
     6
 74
     0
 42
0.000000001
 43
0.00000001
 40
0.0
 40
0.0
 40
0.0
 40
0.0
 40
0.3869226367567825
 40
0.7750672802566536
 40
1.0
 40
1.0
 40
1.0
 40
1.0
 10
8.678301827592339
 20
4.360450523358915
 30
0.0
 10
8.69231004375787
 20
4.360450523358915
 30
0.0
 10
8.720370717839057
 20
4.360450523358915
 30
0.0
 10
8.756459940946874
 20
4.360450523358916
 30
0.0
 10
8.778477103420471
 20
4.360450523358915
 30
0.0
 10
8.786555007667365
 20
4.360450523358915
 30
0.0
  0
ARC
  5
86
330
1F
100
AcDbEntity
  8
0
  6
Continuous
 62
     7
370
    25
100
AcDbCircle
 10
8.6783018286
 20
4.1729505529
 30
0.0
 40
0.1875
100
AcDbArc
 50
330.0
 51
30.0
  0
ARC
  5
87
330
1F
100
AcDbEntity
  8
0
  6
Continuous
 62
     7
370
    25
100
AcDbCircle
 10
8.6783018286
 20
4.1729505529
 30
0.0
 40
0.1875
100
AcDbArc
 50
270.0
 51
330.0
  0
SPLINE
  5
88
330
1F
100
AcDbEntity
  8
0
  6
Continuous
 62
     7
370
    25
100
AcDbSpline
210
0.0
220
0.0
230
1.0
 70
    24
 71
     3
 72
     9
 73
     5
 74
     0
 42
0.000000001
 43
0.00000001
 40
0.0
 40
0.0
 40
0.0
 40
0.0
 40
0.4987908249460077
 40
1.0
 40
1.0
 40
1.0
 40
1.0
 10
8.840681587392497
 20
4.266700586366188
 30
0.0
 10
8.84971354252569
 20
4.251056782444089
 30
0.0
 10
8.867821243552806
 20
4.219693326783509
 30
0.0
 10
8.885798046750118
 20
4.188556592796485
 30
0.0
 10
8.894808185450751
 20
4.172950576040973
 30
0.0
  0
SPLINE
  5
89
330
1F
100
AcDbEntity
  8
0
  6
Continuous
 62
     7
370
    25
100
AcDbSpline
210
0.0
220
0.0
230
1.0
 70
     8
 71
     3
 72
     9
 73
     5
 74
     0
 42
0.000000001
 43
0.00000001
 40
0.0
 40
0.0
 40
0.0
 40
0.0
 40
0.4989632435783661
 40
1.0
 40
1.0
 40
1.0
 40
1.0
 10
8.894808185450751
 20
4.172950576040973
 30
0.0
 10
8.885838526335235
 20
4.157414675453795
 30
0.0
 10
8.86786193340789
 20
4.126278312631234
 30
0.0
 10
8.849754218257603
 20
4.094914825552007
 30
0.0
 10
8.840681587392497
 20
4.07920056571576
 30
0.0
  0
SPLINE
  5
8A
330
1F
100
AcDbEntity
  8
0
  6
Continuous
 62
     7
370
    25
100
AcDbSpline
210
0.0
220
0.0
230
1.0
 70
    24
 71
     3
 72
    10
 73
     6
 74
     0
 42
0.000000001
 43
0.00000001
 40
0.0
 40
0.0
 40
0.0
 40
0.0
 40
0.1963459703226295
 40
0.5975985273790595
 40
1.0
 40
1.0
 40
1.0
 40
1.0
 10
8.782720369465434
 20
3.985450555390545
 30
0.0
 10
8.775919493411275
 20
3.985450555390545
 30
0.0
 10
8.755220349404528
 20
3.985450555390545
 30
0.0
 10
8.720412199800922
 20
3.985450555390545
 30
0.0
 10
8.692351990090714
 20
3.985450555390546
 30
0.0
 10
8.678301827592339
 20
3.985450555390545
 30
0.0
  0
SPLINE
  5
8B
330
1F
100
AcDbEntity
  8
0
  6
Continuous
 62
     7
370
    25
100
AcDbSpline
210
0.0
220
0.0
230
1.0
 70
     8
 71
     3
 72
     9
 73
     5
 74
     0
 42
0.000000001
 43
0.00000001
 40
0.0
 40
0.0
 40
0.0
 40
0.0
 40
0.5214341599150181
 40
1.0
 40
1.0
 40
1.0
 40
1.0
 10
8.840681587392497
 20
4.07920056571576
 30
0.0
 10
8.831649148424459
 20
4.063555906632194
 30
0.0
 10
8.814326848386596
 20
4.033552772418442
 30
0.0
 10
8.797129730442846
 20
4.003766532209362
 30
0.0
 10
8.788899777247053
 20
3.98951185514073
 30
0.0
  0
SPLINE
  5
8C
330
1F
100
AcDbEntity
  8
0
  6
Continuous
 62
     7
370
    25
100
AcDbSpline
210
0.0
220
0.0
230
1.0
 70
     8
 71
     3
 72
     9
 73
     5
 74
     0
 42
0.000000001
 43
0.00000001
 40
0.0
 40
0.0
 40
0.0
 40
0.0
 40
0.7446462724686069
 40
1.0
 40
1.0
 40
1.0
 40
1.0
 10
8.843952876268956
 20
4.388405160424562
 30
0.0
 10
8.843939133558479
 20
4.384857366147662
 30
0.0
 10
8.843920678204594
 20
4.380092964030748
 30
0.0
 10
8.843904895400884
 20
4.376016093094043
 30
0.0
 10
8.843900865203127
 20
4.37497504890369
 30
0.0
  0
SPLINE
  5
8D
330
1F
100
AcDbEntity
  8
0
  6
Continuous
 62
     7
370
    25
100
AcDbSpline
210
0.0
220
0.0
230
1.0
 70
     8
 71
     3
 72
     9
 73
     5
 74
     0
 42
0.000000001
 43
0.00000001
 40
0.0
 40
0.0
 40
0.0
 40
0.0
 40
0.5619035360695991
 40
1.0
 40
1.0
 40
1.0
 40
1.0
 10
8.843900865203127
 20
4.37497504890369
 30
0.0
 10
8.846243791289778
 20
4.374965977867443
 30
0.0
 10
8.850413414608118
 20
4.374949834462634
 30
0.0
 10
8.854576805598814
 20
4.374933712456627
 30
0.0
 10
8.856400772469797
 20
4.374926649462805
 30
0.0
  0
SPLINE
  5
8E
330
1F
100
AcDbEntity
  8
0
  6
Continuous
 62
     7
370
    25
100
AcDbSpline
210
0.0
220
0.0
230
1.0
 70
     8
 71
     3
 72
     9
 73
     5
 74
     0
 42
0.000000001
 43
0.00000001
 40
0.0
 40
0.0
 40
0.0
 40
0.0
 40
0.4613210333885968
 40
1.0
 40
1.0
 40
1.0
 40
1.0
 10
8.856400772469797
 20
4.374926649462805
 30
0.0
 10
8.856408196396858
 20
4.37684444090561
 30
0.0
 10
8.856424289153363
 20
4.381001614119062
 30
0.0
 10
8.856442807884614
 20
4.38578178400779
 30
0.0
 10
8.856452783535628
 20
4.388356760983677
 30
0.0
  0
SPLINE
  5
8F
330
1F
100
AcDbEntity
  8
0
  6
Continuous
 62
     7
370
    25
100
AcDbSpline
210
0.0
220
0.0
230
1.0
 70
     8
 71
     3
 72
     9
 73
     5
 74
     0
 42
0.000000001
 43
0.00000001
 40
0.0
 40
0.0
 40
0.0
 40
0.0
 40
0.8144134358950389
 40
1.0
 40
1.0
 40
1.0
 40
1.0
 10
8.875999154400949
 20
4.40775232359115
 30
0.0
 10
8.879527410231335
 20
4.407738675301021
 30
0.0
 10
8.88385967646723
 20
4.407721916871549
 30
0.0
 10
8.887633337747111
 20
4.407707297332635
 30
0.0
 10
8.88833367857814
 20
4.40770458414264
 30
0.0
  0
SPLINE
  5
90
330
1F
100
AcDbEntity
  8
0
  6
Continuous
 62
     7
370
    25
100
AcDbSpline
210
0.0
220
0.0
230
1.0
 70
     8
 71
     3
 72
     9
 73
     5
 74
     0
 42
0.000000001
 43
0.00000001
 40
0.0
 40
0.0
 40
0.0
 40
0.0
 40
0.5854086876324145
 40
1.0
 40
1.0
 40
1.0
 40
1.0
 10
8.88833367857814
 20
4.40770458414264
 30
0.0
 10
8.88834312849488
 20
4.410146566124613
 30
0.0
 10
8.888359270921423
 20
4.41431798010183
 30
0.0
 10
8.888375393668257
 20
4.418479247686959
 30
0.0
 10
8.888382078019026
 20
4.420204473076189
 30
0.0
  0
SPLINE
  5
91
330
1F
100
AcDbEntity
  8
0
  6
Continuous
 62
     7
370
    25
100
AcDbSpline
210
0.0
220
0.0
230
1.0
 70
     8
 71
     3
 72
     9
 73
     5
 74
     0
 42
0.000000001
 43
0.00000001
 40
0.0
 40
0.0
 40
0.0
 40
0.0
 40
0.5141200624977922
 40
1.0
 40
1.0
 40
1.0
 40
1.0
 10
8.888382078019026
 20
4.420204473076189
 30
0.0
 10
8.8863442983524
 20
4.420212372587249
 30
0.0
 10
8.882380672313914
 20
4.420227737696757
 30
0.0
 10
8.877914792214785
 20
4.42024499894854
 30
0.0
 10
8.875744910671328
 20
4.420253385844478
 30
0.0
  0
SPLINE
  5
92
330
1F
100
AcDbEntity
  8
0
  6
Continuous
 62
     7
370
    25
100
AcDbSpline
210
0.0
220
0.0
230
1.0
 70
     8
 71
     3
 72
     9
 73
     5
 74
     0
 42
0.000000001
 43
0.00000001
 40
0.0
 40
0.0
 40
0.0
 40
0.0
 40
0.7446422611165153
 40
1.0
 40
1.0
 40
1.0
 40
1.0
 10
8.85665078124834
 20
4.439495976885758
 30
0.0
 10
8.856664524049796
 20
4.443043734580107
 30
0.0
 10
8.856682979625276
 20
4.44780811323494
 30
0.0
 10
8.856698762129563
 20
4.451885018975165
 30
0.0
 10
8.856702792314172
 20
4.45292608840663
 30
0.0
  0
SPLINE
  5
93
330
1F
100
AcDbEntity
  8
0
  6
Continuous
 62
     7
370
    25
100
AcDbSpline
210
0.0
220
0.0
230
1.0
 70
     8
 71
     3
 72
     9
 73
     5
 74
     0
 42
0.000000001
 43
0.00000001
 40
0.0
 40
0.0
 40
0.0
 40
0.0
 40
0.5619035360695991
 40
1.0
 40
1.0
 40
1.0
 40
1.0
 10
8.856702792314172
 20
4.45292608840663
 30
0.0
 10
8.854359866227519
 20
4.452935159442877
 30
0.0
 10
8.850190242909179
 20
4.452951302847687
 30
0.0
 10
8.846026851918484
 20
4.452967424853692
 30
0.0
 10
8.8442028850475
 20
4.452974487847515
 30
0.0
  0
SPLINE
  5
94
330
1F
100
AcDbEntity
  8
0
  6
Continuous
 62
     7
370
    25
100
AcDbSpline
210
0.0
220
0.0
230
1.0
 70
     8
 71
     3
 72
     9
 73
     5
 74
     0
 42
0.000000001
 43
0.00000001
 40
0.0
 40
0.0
 40
0.0
 40
0.0
 40
0.4613210333885968
 40
1.0
 40
1.0
 40
1.0
 40
1.0
 10
8.8442028850475
 20
4.452974487847515
 30
0.0
 10
8.844195461120439
 20
4.45105669640471
 30
0.0
 10
8.844179368363932
 20
4.446899523191258
 30
0.0
 10
8.844160849632683
 20
4.44211935330253
 30
0.0
 10
8.84415087398167
 20
4.439544376326643
 30
0.0
  0
SPLINE
  5
95
330
1F
100
AcDbEntity
  8
0
  6
Continuous
 62
     7
370
    25
100
AcDbSpline
210
0.0
220
0.0
230
1.0
 70
     8
 71
     3
 72
     9
 73
     5
 74
     0
 42
0.000000001
 43
0.00000001
 40
0.0
 40
0.0
 40
0.0
 40
0.0
 40
0.8144134393091841
 40
1.0
 40
1.0
 40
1.0
 40
1.0
 10
8.824604503116348
 20
4.420148740386685
 30
0.0
 10
8.821076247313972
 20
4.420162423074693
 30
0.0
 10
8.816743981130633
 20
4.420179223740481
 30
0.0
 10
8.81297031977193
 20
4.420193840494562
 30
0.0
 10
8.812269978939156
 20
4.42019655316768
 30
0.0
  0
SPLINE
  5
96
330
1F
100
AcDbEntity
  8
0
  6
Continuous
 62
     7
370
    25
100
AcDbSpline
210
0.0
220
0.0
230
1.0
 70
     8
 71
     3
 72
     9
 73
     5
 74
     0
 42
0.000000001
 43
0.00000001
 40
0.0
 40
0.0
 40
0.0
 40
0.0
 40
0.5854111127644602
 40
0.9999999999999999
 40
0.9999999999999999
 40
0.9999999999999999
 40
0.9999999999999999
 10
8.812269978939156
 20
4.42019655316768
 30
0.0
 10
8.812260529050018
 20
4.41775454670903
 30
0.0
 10
8.812244386737493
 20
4.413583108201278
 30
0.0
 10
8.812228263862906
 20
4.409421816286184
 30
0.0
 10
8.81222157949827
 20
4.407696590901645
 30
0.0
  0
SPLINE
  5
97
330
1F
100
AcDbEntity
  8
0
  6
Continuous
 62
     7
370
    25
100
AcDbSpline
210
0.0
220
0.0
230
1.0
 70
    24
 71
     3
 72
     9
 73
     5
 74
     0
 42
0.000000001
 43
0.00000001
 40
0.0
 40
0.0
 40
0.0
 40
0.0
 40
0.5159080930737155
 40
1.0
 40
1.0
 40
1.0
 40
1.0
 10
8.81222157949827
 20
4.407696590901645
 30
0.0
 10
8.814258923687245
 20
4.407696590901645
 30
0.0
 10
8.818207968519696
 20
4.407696590901645
 30
0.0
 10
8.822656636550025
 20
4.407696590901645
 30
0.0
 10
8.82481020074011
 20
4.407696590901645
 30
0.0
  0
CIRCLE
  5
98
330
1F
100
AcDbEntity
  8
0
  6
Continuous
 62
     7
370
    25
100
AcDbCircle
 10
8.8503018286
 20
4.4139505529
 30
0.0
 40
0.0494999999999998
  0
SPLINE
  5
99
330
1F
100
AcDbEntity
  8
0
  6
Continuous
 62
     7
370
    25
100
AcDbSpline
210
0.0
220
0.0
230
1.0
 70
     8
 71
     3
 72
     9
 73
     5
 74
     0
 42
0.000000001
 43
0.00000001
 40
0.0
 40
0.0
 40
0.0
 40
0.0
 40
0.417976858770282
 40
1.0
 40
1.0
 40
1.0
 40
1.0
 10
8.875744910671328
 20
4.420253385844478
 30
0.0
 10
8.87308946853583
 20
4.422929489426286
 30
0.0
 10
8.866736384436127
 20
4.429332005560028
 30
0.0
 10
8.860361254436482
 20
4.435756672216819
 30
0.0
 10
8.85665078124834
 20
4.439495976885758
 30
0.0
  0
SPLINE
  5
9A
330
1F
100
AcDbEntity
  8
0
  6
Continuous
 62
     7
370
    25
100
AcDbSpline
210
0.0
220
0.0
230
1.0
 70
     8
 71
     3
 72
     9
 73
     5
 74
     0
 42
0.000000001
 43
0.00000001
 40
0.0
 40
0.0
 40
0.0
 40
0.0
 40
0.4164575066495185
 40
1.0
 40
1.0
 40
1.0
 40
1.0
 10
8.82481020074011
 20
4.407696590901645
 30
0.0
 10
8.827462418290137
 20
4.405023765901125
 30
0.0
 10
8.833830937305112
 20
4.398605764165429
 30
0.0
 10
8.84022289647662
 20
4.392164128539167
 30
0.0
 10
8.843952876268956
 20
4.388405160424562
 30
0.0
  0
SPLINE
  5
9B
330
1F
100
AcDbEntity
  8
0
  6
Continuous
 62
     7
370
    25
100
AcDbSpline
210
0.0
220
0.0
230
1.0
 70
     8
 71
     3
 72
     9
 73
     5
 74
     0
 42
0.000000001
 43
0.00000001
 40
0.0
 40
0.0
 40
0.0
 40
0.0
 40
0.4100495042766701
 40
0.9999999999999999
 40
0.9999999999999999
 40
0.9999999999999999
 40
0.9999999999999999
 10
8.856452783535628
 20
4.388356760983677
 30
0.0
 10
8.859118821033245
 20
4.391002235493215
 30
0.0
 10
8.865620566480592
 20
4.397453833366026
 30
0.0
 10
8.872148183502803
 20
4.403931072910795
 30
0.0
 10
8.875999154400949
 20
4.40775232359115
 30
0.0
  0
SPLINE
  5
9C
330
1F
100
AcDbEntity
  8
0
  6
Continuous
 62
     7
370
    25
100
AcDbSpline
210
0.0
220
0.0
230
1.0
 70
     8
 71
     3
 72
     9
 73
     5
 74
     0
 42
0.000000001
 43
0.00000001
 40
0.0
 40
0.0
 40
0.0
 40
0.0
 40
0.4100487402440628
 40
1.0
 40
1.0
 40
1.0
 40
1.0
 10
8.84415087398167
 20
4.439544376326643
 30
0.0
 10
8.841484834749473
 20
4.436898903579287
 30
0.0
 10
8.83498307295742
 20
4.430447297982884
 30
0.0
 10
8.828455470442947
 20
4.423970019177633
 30
0.0
 10
8.824604503116348
 20
4.420148740386685
 30
0.0
  0
SPLINE
  5
9D
330
1F
100
AcDbEntity
  8
0
  6
Continuous
 62
     7
370
    25
100
AcDbSpline
210
0.0
220
0.0
230
1.0
 70
     8
 71
     3
 72
     9
 73
     5
 74
     0
 42
0.000000001
 43
0.00000001
 40
0.0
 40
0.0
 40
0.0
 40
0.0
 40
0.7446422611165153
 40
1.0
 40
1.0
 40
1.0
 40
1.0
 10
8.499952878519618
 20
6.156405129671382
 30
0.0
 10
8.499939135718162
 20
6.152857371977032
 30
0.0
 10
8.499920680142683
 20
6.148092993322201
 30
0.0
 10
8.499904897638396
 20
6.144016087581975
 30
0.0
 10
8.499900867453787
 20
6.142975018150509
 30
0.0
  0
SPLINE
  5
9E
330
1F
100
AcDbEntity
  8
0
  6
Continuous
 62
     7
370
    25
100
AcDbSpline
210
0.0
220
0.0
230
1.0
 70
     8
 71
     3
 72
     9
 73
     5
 74
     0
 42
0.000000001
 43
0.00000001
 40
0.0
 40
0.0
 40
0.0
 40
0.0
 40
0.5619028057368968
 40
1.0
 40
1.0
 40
1.0
 40
1.0
 10
8.499900867453787
 20
6.142975018150509
 30
0.0
 10
8.502243790474965
 20
6.142965947106713
 30
0.0
 10
8.506413413757242
 20
6.142949803667485
 30
0.0
 10
8.510576804790269
 20
6.14293368169885
 30
0.0
 10
8.51240077472046
 20
6.142926618709623
 30
0.0
  0
SPLINE
  5
9F
330
1F
100
AcDbEntity
  8
0
  6
Continuous
 62
     7
370
    25
100
AcDbSpline
210
0.0
220
0.0
230
1.0
 70
     8
 71
     3
 72
     9
 73
     5
 74
     0
 42
0.000000001
 43
0.00000001
 40
0.0
 40
0.0
 40
0.0
 40
0.0
 40
0.4613210363973712
 40
1.0
 40
1.0
 40
1.0
 40
1.0
 10
8.51240077472046
 20
6.142926618709623
 30
0.0
 10
8.512408203614955
 20
6.144844410146127
 30
0.0
 10
8.512424307139204
 20
6.149001583318803
 30
0.0
 10
8.512442809686647
 20
6.153781753247475
 30
0.0
 10
8.512452776619728
 20
6.156356730230496
 30
0.0
  0
SPLINE
  5
A0
330
1F
100
AcDbEntity
  8
0
  6
Continuous
 62
     7
370
    25
100
AcDbSpline
210
0.0
220
0.0
230
1.0
 70
     8
 71
     3
 72
     9
 73
     5
 74
     0
 42
0.000000001
 43
0.00000001
 40
0.0
 40
0.0
 40
0.0
 40
0.0
 40
0.8144134393091841
 40
1.0
 40
1.0
 40
1.0
 40
1.0
 10
8.53199914748505
 20
6.175752366170456
 30
0.0
 10
8.535527403287427
 20
6.175738683482447
 30
0.0
 10
8.539859669470767
 20
6.175721882816658
 30
0.0
 10
8.543633330829469
 20
6.175707266062577
 30
0.0
 10
8.544333671662242
 20
6.175704553389458
 30
0.0
  0
SPLINE
  5
A1
330
1F
100
AcDbEntity
  8
0
  6
Continuous
 62
     7
370
    25
100
AcDbSpline
210
0.0
220
0.0
230
1.0
 70
     8
 71
     3
 72
     9
 73
     5
 74
     0
 42
0.000000001
 43
0.00000001
 40
0.0
 40
0.0
 40
0.0
 40
0.0
 40
0.58541111559309
 40
1.0
 40
1.0
 40
1.0
 40
1.0
 10
8.544333671662242
 20
6.175704553389458
 30
0.0
 10
8.544343126764108
 20
6.178146559839803
 30
0.0
 10
8.544359277980943
 20
6.182317998313207
 30
0.0
 10
8.54437539087596
 20
6.186479290266774
 30
0.0
 10
8.544382071103128
 20
6.188204515655494
 30
0.0
  0
SPLINE
  5
A2
330
1F
100
AcDbEntity
  8
0
  6
Continuous
 62
     7
370
    25
100
AcDbSpline
210
0.0
220
0.0
230
1.0
 70
     8
 71
     3
 72
     9
 73
     5
 74
     0
 42
0.000000001
 43
0.00000001
 40
0.0
 40
0.0
 40
0.0
 40
0.0
 40
0.5141189019363421
 40
1.0
 40
1.0
 40
1.0
 40
1.0
 10
8.544382071103128
 20
6.188204515655494
 30
0.0
 10
8.542344297988622
 20
6.188212377800792
 30
0.0
 10
8.538380675747092
 20
6.18822767026576
 30
0.0
 10
8.533914792171139
 20
6.188245005541145
 30
0.0
 10
8.53174490375543
 20
6.188253428423783
 30
0.0
  0
SPLINE
  5
A3
330
1F
100
AcDbEntity
  8
0
  6
Continuous
 62
     7
370
    25
100
AcDbSpline
210
0.0
220
0.0
230
1.0
 70
     8
 71
     3
 72
     9
 73
     5
 74
     0
 42
0.000000001
 43
0.00000001
 40
0.0
 40
0.0
 40
0.0
 40
0.0
 40
0.7446462719329603
 40
0.9999999999999999
 40
0.9999999999999999
 40
0.9999999999999999
 40
0.9999999999999999
 10
8.512650783499003
 20
6.207495946132576
 30
0.0
 10
8.512664522016332
 20
6.211043740412617
 30
0.0
 10
8.512682971739167
 20
6.215808142537171
 30
0.0
 10
8.512698755066737
 20
6.21988501346355
 30
0.0
 10
8.512702785398274
 20
6.220926057653449
 30
0.0
  0
SPLINE
  5
A4
330
1F
100
AcDbEntity
  8
0
  6
Continuous
 62
     7
370
    25
100
AcDbSpline
210
0.0
220
0.0
230
1.0
 70
     8
 71
     3
 72
     9
 73
     5
 74
     0
 42
0.000000001
 43
0.00000001
 40
0.0
 40
0.0
 40
0.0
 40
0.0
 40
0.5619032159338926
 40
1.0
 40
1.0
 40
1.0
 40
1.0
 10
8.512702785398274
 20
6.220926057653449
 30
0.0
 10
8.510359862371022
 20
6.220935128693005
 30
0.0
 10
8.50619024212182
 20
6.220951272112901
 30
0.0
 10
8.502026854170468
 20
6.220967394102527
 30
0.0
 10
8.500202887298162
 20
6.220974457094335
 30
0.0
  0
SPLINE
  5
A5
330
1F
100
AcDbEntity
  8
0
  6
Continuous
 62
     7
370
    25
100
AcDbSpline
210
0.0
220
0.0
230
1.0
 70
     8
 71
     3
 72
     9
 73
     5
 74
     0
 42
0.000000001
 43
0.00000001
 40
0.0
 40
0.0
 40
0.0
 40
0.0
 40
0.4613210374424854
 40
1.0
 40
1.0
 40
1.0
 40
1.0
 10
8.500202887298162
 20
6.220974457094335
 30
0.0
 10
8.500195454643366
 20
6.219056665660021
 30
0.0
 10
8.500179342967998
 20
6.214899492501508
 30
0.0
 10
8.500160842204448
 20
6.210119322558962
 30
0.0
 10
8.500150876232333
 20
6.207544345573462
 30
0.0
  0
SPLINE
  5
A6
330
1F
100
AcDbEntity
  8
0
  6
Continuous
 62
     7
370
    25
100
AcDbSpline
210
0.0
220
0.0
230
1.0
 70
     8
 71
     3
 72
     9
 73
     5
 74
     0
 42
0.000000001
 43
0.00000001
 40
0.0
 40
0.0
 40
0.0
 40
0.0
 40
0.8144134358950389
 40
1.0
 40
1.0
 40
1.0
 40
1.0
 10
8.48060450536701
 20
6.18814878296599
 30
0.0
 10
8.477076249536623
 20
6.188162431256117
 30
0.0
 10
8.47274398330073
 20
6.188179189685591
 30
0.0
 10
8.468970322020848
 20
6.188193809224504
 30
0.0
 10
8.468269981189819
 20
6.1881965224145
 30
0.0
  0
SPLINE
  5
A7
330
1F
100
AcDbEntity
  8
0
  6
Continuous
 62
     7
370
    25
100
AcDbSpline
210
0.0
220
0.0
230
1.0
 70
     8
 71
     3
 72
     9
 73
     5
 74
     0
 42
0.000000001
 43
0.00000001
 40
0.0
 40
0.0
 40
0.0
 40
0.0
 40
0.5854086876324145
 40
1.0
 40
1.0
 40
1.0
 40
1.0
 10
8.468269981189819
 20
6.1881965224145
 30
0.0
 10
8.46826053127308
 20
6.185754540432526
 30
0.0
 10
8.468244388846538
 20
6.18158312645531
 30
0.0
 10
8.468228266099702
 20
6.177421858870182
 30
0.0
 10
8.468221581748933
 20
6.175696633480951
 30
0.0
  0
SPLINE
  5
A8
330
1F
100
AcDbEntity
  8
0
  6
Continuous
 62
     7
370
    25
100
AcDbSpline
210
0.0
220
0.0
230
1.0
 70
    24
 71
     3
 72
     9
 73
     5
 74
     0
 42
0.000000001
 43
0.00000001
 40
0.0
 40
0.0
 40
0.0
 40
0.0
 40
0.5159080930737155
 40
1.0
 40
1.0
 40
1.0
 40
1.0
 10
8.468221581748933
 20
6.17569663348095
 30
0.0
 10
8.470258925937905
 20
6.17569663348095
 30
0.0
 10
8.474207970770358
 20
6.17569663348095
 30
0.0
 10
8.478656638800688
 20
6.17569663348095
 30
0.0
 10
8.480810202990773
 20
6.17569663348095
 30
0.0
  0
CIRCLE
  5
A9
330
1F
100
AcDbEntity
  8
0
  6
Continuous
 62
     7
370
    25
100
AcDbCircle
 10
8.5063018286
 20
6.1819505529
 30
0.0
 40
0.0494999999999998
  0
SPLINE
  5
AA
330
1F
100
AcDbEntity
  8
0
  6
Continuous
 62
     7
370
    25
100
AcDbSpline
210
0.0
220
0.0
230
1.0
 70
     8
 71
     3
 72
     9
 73
     5
 74
     0
 42
0.000000001
 43
0.00000001
 40
0.0
 40
0.0
 40
0.0
 40
0.0
 40
0.4179756136713794
 40
1.0
 40
1.0
 40
1.0
 40
1.0
 10
8.53174490375543
 20
6.188253428423784
 30
0.0
 10
8.529089462461924
 20
6.190929505327148
 30
0.0
 10
8.522736361451603
 20
6.197331976705462
 30
0.0
 10
8.516361252420568
 20
6.203756637105737
 30
0.0
 10
8.512650783499003
 20
6.207495946132576
 30
0.0
  0
SPLINE
  5
AB
330
1F
100
AcDbEntity
  8
0
  6
Continuous
 62
     7
370
    25
100
AcDbSpline
210
0.0
220
0.0
230
1.0
 70
     8
 71
     3
 72
     9
 73
     5
 74
     0
 42
0.000000001
 43
0.00000001
 40
0.0
 40
0.0
 40
0.0
 40
0.0
 40
0.4164586142925048
 40
0.9999999999999999
 40
0.9999999999999999
 40
0.9999999999999999
 40
0.9999999999999999
 10
8.480810202990773
 20
6.17569663348095
 30
0.0
 10
8.483462418012586
 20
6.17302378149414
 30
0.0
 10
8.489830914018652
 20
6.166605732028765
 30
0.0
 10
8.496222893787747
 20
6.160164092770423
 30
0.0
 10
8.499952878519618
 20
6.156405129671382
 30
0.0
  0
SPLINE
  5
AC
330
1F
100
AcDbEntity
  8
0
  6
Continuous
 62
     7
370
    25
100
AcDbSpline
210
0.0
220
0.0
230
1.0
 70
     8
 71
     3
 72
     9
 73
     5
 74
     0
 42
0.000000001
 43
0.00000001
 40
0.0
 40
0.0
 40
0.0
 40
0.0
 40
0.4100487402440628
 40
1.0
 40
1.0
 40
1.0
 40
1.0
 10
8.512452776619728
 20
6.156356730230496
 30
0.0
 10
8.515118815851926
 20
6.159002202977853
 30
0.0
 10
8.521620577643978
 20
6.165453808574256
 30
0.0
 10
8.528148180158452
 20
6.171931087379507
 30
0.0
 10
8.53199914748505
 20
6.175752366170454
 30
0.0
  0
SPLINE
  5
AD
330
1F
100
AcDbEntity
  8
0
  6
Continuous
 62
     7
370
    25
100
AcDbSpline
210
0.0
220
0.0
230
1.0
 70
     8
 71
     3
 72
     9
 73
     5
 74
     0
 42
0.000000001
 43
0.00000001
 40
0.0
 40
0.0
 40
0.0
 40
0.0
 40
0.4100495042766701
 40
0.9999999999999999
 40
0.9999999999999999
 40
0.9999999999999999
 40
0.9999999999999999
 10
8.500150876232333
 20
6.207544345573462
 30
0.0
 10
8.497484838734714
 20
6.204898871063924
 30
0.0
 10
8.490983093287367
 20
6.198447273191114
 30
0.0
 10
8.484455476265156
 20
6.191970033646345
 30
0.0
 10
8.48060450536701
 20
6.18814878296599
 30
0.0
  0
SPLINE
  5
AE
330
1F
100
AcDbEntity
  8
0
  6
Continuous
 62
     7
370
    25
100
AcDbSpline
210
0.0
220
0.0
230
1.0
 70
     8
 71
     3
 72
     9
 73
     5
 74
     0
 42
0.000000001
 43
0.00000001
 40
0.0
 40
0.0
 40
0.0
 40
0.0
 40
0.7446462724686069
 40
1.0
 40
1.0
 40
1.0
 40
1.0
 10
8.499952878519618
 20
4.388405160424562
 30
0.0
 10
8.499939135809141
 20
4.384857366147662
 30
0.0
 10
8.499920680455256
 20
4.380092964030748
 30
0.0
 10
8.499904897651545
 20
4.376016093094043
 30
0.0
 10
8.499900867453787
 20
4.37497504890369
 30
0.0
  0
SPLINE
  5
AF
330
1F
100
AcDbEntity
  8
0
  6
Continuous
 62
     7
370
    25
100
AcDbSpline
210
0.0
220
0.0
230
1.0
 70
     8
 71
     3
 72
     9
 73
     5
 74
     0
 42
0.000000001
 43
0.00000001
 40
0.0
 40
0.0
 40
0.0
 40
0.0
 40
0.5619028057368968
 40
1.0
 40
1.0
 40
1.0
 40
1.0
 10
8.499900867453787
 20
4.37497504890369
 30
0.0
 10
8.502243790474965
 20
4.374965977859894
 30
0.0
 10
8.506413413757242
 20
4.374949834420667
 30
0.0
 10
8.510576804790269
 20
4.37493371245203
 30
0.0
 10
8.51240077472046
 20
4.374926649462805
 30
0.0
  0
SPLINE
  5
B0
330
1F
100
AcDbEntity
  8
0
  6
Continuous
 62
     7
370
    25
100
AcDbSpline
210
0.0
220
0.0
230
1.0
 70
     8
 71
     3
 72
     9
 73
     5
 74
     0
 42
0.000000001
 43
0.00000001
 40
0.0
 40
0.0
 40
0.0
 40
0.0
 40
0.4613210363973712
 40
1.0
 40
1.0
 40
1.0
 40
1.0
 10
8.51240077472046
 20
4.374926649462805
 30
0.0
 10
8.512408203614955
 20
4.376844440899307
 30
0.0
 10
8.512424307139204
 20
4.381001614071984
 30
0.0
 10
8.512442809686647
 20
4.385781784000655
 30
0.0
 10
8.512452776619728
 20
4.388356760983677
 30
0.0
  0
SPLINE
  5
B1
330
1F
100
AcDbEntity
  8
0
  6
Continuous
 62
     7
370
    25
100
AcDbSpline
210
0.0
220
0.0
230
1.0
 70
     8
 71
     3
 72
     9
 73
     5
 74
     0
 42
0.000000001
 43
0.00000001
 40
0.0
 40
0.0
 40
0.0
 40
0.0
 40
0.8144134358950389
 40
1.0
 40
1.0
 40
1.0
 40
1.0
 10
8.53199914748505
 20
4.40775232359115
 30
0.0
 10
8.535527403315438
 20
4.407738675301021
 30
0.0
 10
8.539859669551332
 20
4.407721916871549
 30
0.0
 10
8.543633330831213
 20
4.407707297332635
 30
0.0
 10
8.544333671662242
 20
4.40770458414264
 30
0.0
  0
SPLINE
  5
B2
330
1F
100
AcDbEntity
  8
0
  6
Continuous
 62
     7
370
    25
100
AcDbSpline
210
0.0
220
0.0
230
1.0
 70
     8
 71
     3
 72
     9
 73
     5
 74
     0
 42
0.000000001
 43
0.00000001
 40
0.0
 40
0.0
 40
0.0
 40
0.0
 40
0.5854086904610724
 40
1.0
 40
1.0
 40
1.0
 40
1.0
 10
8.544333671662242
 20
4.40770458414264
 30
0.0
 10
8.544343126791686
 20
4.410146566116306
 30
0.0
 10
8.54435927812254
 20
4.414317980059176
 30
0.0
 10
8.544375390889835
 20
4.418479247682778
 30
0.0
 10
8.544382071103128
 20
4.420204473076189
 30
0.0
  0
SPLINE
  5
B3
330
1F
100
AcDbEntity
  8
0
  6
Continuous
 62
     7
370
    25
100
AcDbSpline
210
0.0
220
0.0
230
1.0
 70
     8
 71
     3
 72
     9
 73
     5
 74
     0
 42
0.000000001
 43
0.00000001
 40
0.0
 40
0.0
 40
0.0
 40
0.0
 40
0.5141189196309428
 40
1.0
 40
1.0
 40
1.0
 40
1.0
 10
8.544382071103128
 20
4.420204473076189
 30
0.0
 10
8.54234429803119
 20
4.420212372597873
 30
0.0
 10
8.538380676008877
 20
4.420227737762198
 30
0.0
 10
8.533914792203559
 20
4.420244998956663
 30
0.0
 10
8.53174490375543
 20
4.420253385844478
 30
0.0
  0
SPLINE
  5
B4
330
1F
100
AcDbEntity
  8
0
  6
Continuous
 62
     7
370
    25
100
AcDbSpline
210
0.0
220
0.0
230
1.0
 70
     8
 71
     3
 72
     9
 73
     5
 74
     0
 42
0.000000001
 43
0.00000001
 40
0.0
 40
0.0
 40
0.0
 40
0.0
 40
0.7446422605808568
 40
0.9999999999999999
 40
0.9999999999999999
 40
0.9999999999999999
 40
0.9999999999999999
 10
8.512650783499003
 20
4.439495976885758
 30
0.0
 10
8.512664522107315
 20
4.443043734583245
 30
0.0
 10
8.512682972051726
 20
4.44780811324572
 30
0.0
 10
8.512698755079882
 20
4.451885018975618
 30
0.0
 10
8.512702785398274
 20
4.45292608840663
 30
0.0
  0
SPLINE
  5
B5
330
1F
100
AcDbEntity
  8
0
  6
Continuous
 62
     7
370
    25
100
AcDbSpline
210
0.0
220
0.0
230
1.0
 70
     8
 71
     3
 72
     9
 73
     5
 74
     0
 42
0.000000001
 43
0.00000001
 40
0.0
 40
0.0
 40
0.0
 40
0.0
 40
0.5619032159338926
 40
1.0
 40
1.0
 40
1.0
 40
1.0
 10
8.512702785398274
 20
4.45292608840663
 30
0.0
 10
8.510359862371022
 20
4.452935159446186
 30
0.0
 10
8.50619024212182
 20
4.452951302866083
 30
0.0
 10
8.502026854170468
 20
4.452967424855708
 30
0.0
 10
8.500202887298162
 20
4.452974487847515
 30
0.0
  0
SPLINE
  5
B6
330
1F
100
AcDbEntity
  8
0
  6
Continuous
 62
     7
370
    25
100
AcDbSpline
210
0.0
220
0.0
230
1.0
 70
     8
 71
     3
 72
     9
 73
     5
 74
     0
 42
0.000000001
 43
0.00000001
 40
0.0
 40
0.0
 40
0.0
 40
0.0
 40
0.4613210374424854
 40
1.0
 40
1.0
 40
1.0
 40
1.0
 10
8.500202887298162
 20
4.452974487847515
 30
0.0
 10
8.500195454643366
 20
4.451056696413202
 30
0.0
 10
8.500179342967998
 20
4.446899523254689
 30
0.0
 10
8.500160842204448
 20
4.442119353312143
 30
0.0
 10
8.500150876232333
 20
4.439544376326643
 30
0.0
  0
SPLINE
  5
B7
330
1F
100
AcDbEntity
  8
0
  6
Continuous
 62
     7
370
    25
100
AcDbSpline
210
0.0
220
0.0
230
1.0
 70
     8
 71
     3
 72
     9
 73
     5
 74
     0
 42
0.000000001
 43
0.00000001
 40
0.0
 40
0.0
 40
0.0
 40
0.0
 40
0.8144134393091841
 40
1.0
 40
1.0
 40
1.0
 40
1.0
 10
8.48060450536701
 20
4.420148740386685
 30
0.0
 10
8.477076249564632
 20
4.420162423074693
 30
0.0
 10
8.472743983381294
 20
4.420179223740481
 30
0.0
 10
8.468970322022592
 20
4.420193840494562
 30
0.0
 10
8.468269981189819
 20
4.42019655316768
 30
0.0
  0
SPLINE
  5
B8
330
1F
100
AcDbEntity
  8
0
  6
Continuous
 62
     7
370
    25
100
AcDbSpline
210
0.0
220
0.0
230
1.0
 70
     8
 71
     3
 72
     9
 73
     5
 74
     0
 42
0.000000001
 43
0.00000001
 40
0.0
 40
0.0
 40
0.0
 40
0.0
 40
0.5854111127644602
 40
0.9999999999999999
 40
0.9999999999999999
 40
0.9999999999999999
 40
0.9999999999999999
 10
8.468269981189819
 20
4.42019655316768
 30
0.0
 10
8.46826053130068
 20
4.41775454670903
 30
0.0
 10
8.468244388988156
 20
4.413583108201278
 30
0.0
 10
8.468228266113567
 20
4.409421816286184
 30
0.0
 10
8.468221581748933
 20
4.407696590901645
 30
0.0
  0
SPLINE
  5
B9
330
1F
100
AcDbEntity
  8
0
  6
Continuous
 62
     7
370
    25
100
AcDbSpline
210
0.0
220
0.0
230
1.0
 70
    24
 71
     3
 72
     9
 73
     5
 74
     0
 42
0.000000001
 43
0.00000001
 40
0.0
 40
0.0
 40
0.0
 40
0.0
 40
0.5159080930737155
 40
1.0
 40
1.0
 40
1.0
 40
1.0
 10
8.468221581748933
 20
4.407696590901645
 30
0.0
 10
8.470258925937905
 20
4.407696590901645
 30
0.0
 10
8.474207970770358
 20
4.407696590901645
 30
0.0
 10
8.478656638800688
 20
4.407696590901645
 30
0.0
 10
8.480810202990773
 20
4.407696590901645
 30
0.0
  0
CIRCLE
  5
BA
330
1F
100
AcDbEntity
  8
0
  6
Continuous
 62
     7
370
    25
100
AcDbCircle
 10
8.5063018286
 20
4.4139505529
 30
0.0
 40
0.0494999999999998
  0
SPLINE
  5
BB
330
1F
100
AcDbEntity
  8
0
  6
Continuous
 62
     7
370
    25
100
AcDbSpline
210
0.0
220
0.0
230
1.0
 70
     8
 71
     3
 72
     9
 73
     5
 74
     0
 42
0.000000001
 43
0.00000001
 40
0.0
 40
0.0
 40
0.0
 40
0.0
 40
0.4179767213761213
 40
1.0
 40
1.0
 40
1.0
 40
1.0
 10
8.53174490375543
 20
4.420253385844478
 30
0.0
 10
8.529089464999297
 20
4.422929489743455
 30
0.0
 10
8.522736386896309
 20
4.429332008740604
 30
0.0
 10
8.516361257317888
 20
4.435756672828982
 30
0.0
 10
8.512650783499003
 20
4.439495976885758
 30
0.0
  0
SPLINE
  5
BC
330
1F
100
AcDbEntity
  8
0
  6
Continuous
 62
     7
370
    25
100
AcDbSpline
210
0.0
220
0.0
230
1.0
 70
     8
 71
     3
 72
     9
 73
     5
 74
     0
 42
0.000000001
 43
0.00000001
 40
0.0
 40
0.0
 40
0.0
 40
0.0
 40
0.4164575066495185
 40
1.0
 40
1.0
 40
1.0
 40
1.0
 10
8.480810202990773
 20
4.407696590901645
 30
0.0
 10
8.4834624205408
 20
4.405023765901125
 30
0.0
 10
8.489830939555775
 20
4.398605764165429
 30
0.0
 10
8.496222898727282
 20
4.392164128539167
 30
0.0
 10
8.499952878519618
 20
4.388405160424562
 30
0.0
  0
SPLINE
  5
BD
330
1F
100
AcDbEntity
  8
0
  6
Continuous
 62
     7
370
    25
100
AcDbSpline
210
0.0
220
0.0
230
1.0
 70
     8
 71
     3
 72
     9
 73
     5
 74
     0
 42
0.000000001
 43
0.00000001
 40
0.0
 40
0.0
 40
0.0
 40
0.0
 40
0.4100495042766701
 40
0.9999999999999999
 40
0.9999999999999999
 40
0.9999999999999999
 40
0.9999999999999999
 10
8.512452776619728
 20
4.388356760983677
 30
0.0
 10
8.515118814117347
 20
4.391002235493215
 30
0.0
 10
8.521620559564694
 20
4.397453833366026
 30
0.0
 10
8.528148176586905
 20
4.403931072910795
 30
0.0
 10
8.53199914748505
 20
4.40775232359115
 30
0.0
  0
SPLINE
  5
BE
330
1F
100
AcDbEntity
  8
0
  6
Continuous
 62
     7
370
    25
100
AcDbSpline
210
0.0
220
0.0
230
1.0
 70
     8
 71
     3
 72
     9
 73
     5
 74
     0
 42
0.000000001
 43
0.00000001
 40
0.0
 40
0.0
 40
0.0
 40
0.0
 40
0.4100487402440628
 40
1.0
 40
1.0
 40
1.0
 40
1.0
 10
8.500150876232333
 20
4.439544376326643
 30
0.0
 10
8.497484837000133
 20
4.436898903579287
 30
0.0
 10
8.490983075208083
 20
4.430447297982884
 30
0.0
 10
8.48445547269361
 20
4.423970019177633
 30
0.0
 10
8.48060450536701
 20
4.420148740386685
 30
0.0
  0
SPLINE
  5
BF
330
1F
100
AcDbEntity
  8
0
  6
Continuous
 62
     7
370
    25
100
AcDbSpline
210
0.0
220
0.0
230
1.0
 70
     8
 71
     3
 72
     9
 73
     5
 74
     0
 42
0.000000001
 43
0.00000001
 40
0.0
 40
0.0
 40
0.0
 40
0.0
 40
0.7446422611165153
 40
1.0
 40
1.0
 40
1.0
 40
1.0
 10
8.843952876268956
 20
6.156405129671382
 30
0.0
 10
8.8439391334675
 20
6.152857371977032
 30
0.0
 10
8.84392067789202
 20
6.148092993322201
 30
0.0
 10
8.843904895387734
 20
6.144016087581975
 30
0.0
 10
8.843900865203127
 20
6.142975018150509
 30
0.0
  0
SPLINE
  5
C0
330
1F
100
AcDbEntity
  8
0
  6
Continuous
 62
     7
370
    25
100
AcDbSpline
210
0.0
220
0.0
230
1.0
 70
     8
 71
     3
 72
     9
 73
     5
 74
     0
 42
0.000000001
 43
0.00000001
 40
0.0
 40
0.0
 40
0.0
 40
0.0
 40
0.5619035360695991
 40
1.0
 40
1.0
 40
1.0
 40
1.0
 10
8.843900865203127
 20
6.142975018150509
 30
0.0
 10
8.846243791289778
 20
6.142965947114263
 30
0.0
 10
8.850413414608118
 20
6.142949803709453
 30
0.0
 10
8.854576805598814
 20
6.142933681703448
 30
0.0
 10
8.856400772469797
 20
6.142926618709625
 30
0.0
  0
SPLINE
  5
C1
330
1F
100
AcDbEntity
  8
0
  6
Continuous
 62
     7
370
    25
100
AcDbSpline
210
0.0
220
0.0
230
1.0
 70
     8
 71
     3
 72
     9
 73
     5
 74
     0
 42
0.000000001
 43
0.00000001
 40
0.0
 40
0.0
 40
0.0
 40
0.0
 40
0.4613210333885968
 40
1.0
 40
1.0
 40
1.0
 40
1.0
 10
8.856400772469797
 20
6.142926618709623
 30
0.0
 10
8.856408196396858
 20
6.144844410152429
 30
0.0
 10
8.856424289153363
 20
6.149001583365882
 30
0.0
 10
8.856442807884614
 20
6.153781753254609
 30
0.0
 10
8.856452783535628
 20
6.156356730230496
 30
0.0
  0
SPLINE
  5
C2
330
1F
100
AcDbEntity
  8
0
  6
Continuous
 62
     7
370
    25
100
AcDbSpline
210
0.0
220
0.0
230
1.0
 70
     8
 71
     3
 72
     9
 73
     5
 74
     0
 42
0.000000001
 43
0.00000001
 40
0.0
 40
0.0
 40
0.0
 40
0.0
 40
0.8144134393091841
 40
1.0
 40
1.0
 40
1.0
 40
1.0
 10
8.875999154400949
 20
6.175752366170456
 30
0.0
 10
8.879527410203325
 20
6.175738683482447
 30
0.0
 10
8.883859676386665
 20
6.175721882816658
 30
0.0
 10
8.887633337745367
 20
6.175707266062577
 30
0.0
 10
8.88833367857814
 20
6.175704553389458
 30
0.0
  0
SPLINE
  5
C3
330
1F
100
AcDbEntity
  8
0
  6
Continuous
 62
     7
370
    25
100
AcDbSpline
210
0.0
220
0.0
230
1.0
 70
     8
 71
     3
 72
     9
 73
     5
 74
     0
 42
0.000000001
 43
0.00000001
 40
0.0
 40
0.0
 40
0.0
 40
0.0
 40
0.5854111127644602
 40
0.9999999999999999
 40
0.9999999999999999
 40
0.9999999999999999
 40
0.9999999999999999
 10
8.88833367857814
 20
6.175704553389458
 30
0.0
 10
8.888343128467278
 20
6.17814655984811
 30
0.0
 10
8.888359270779803
 20
6.182317998355861
 30
0.0
 10
8.888375393654393
 20
6.186479290270953
 30
0.0
 10
8.888382078019026
 20
6.188204515655495
 30
0.0
  0
SPLINE
  5
C4
330
1F
100
AcDbEntity
  8
0
  6
Continuous
 62
     7
370
    25
100
AcDbSpline
210
0.0
220
0.0
230
1.0
 70
     8
 71
     3
 72
     9
 73
     5
 74
     0
 42
0.000000001
 43
0.00000001
 40
0.0
 40
0.0
 40
0.0
 40
0.0
 40
0.514120044803183
 40
1.0
 40
1.0
 40
1.0
 40
1.0
 10
8.888382078019026
 20
6.188204515655494
 30
0.0
 10
8.886344298309831
 20
6.18821237779011
 30
0.0
 10
8.882380672052127
 20
6.188227670200307
 30
0.0
 10
8.877914792182365
 20
6.188245005533075
 30
0.0
 10
8.875744910671328
 20
6.188253428423783
 30
0.0
  0
SPLINE
  5
C5
330
1F
100
AcDbEntity
  8
0
  6
Continuous
 62
     7
370
    25
100
AcDbSpline
210
0.0
220
0.0
230
1.0
 70
     8
 71
     3
 72
     9
 73
     5
 74
     0
 42
0.000000001
 43
0.00000001
 40
0.0
 40
0.0
 40
0.0
 40
0.0
 40
0.7446462724686069
 40
1.0
 40
1.0
 40
1.0
 40
1.0
 10
8.85665078124834
 20
6.207495946132576
 30
0.0
 10
8.856664523958818
 20
6.211043740409478
 30
0.0
 10
8.856682979312703
 20
6.215808142526392
 30
0.0
 10
8.856698762116412
 20
6.219885013463097
 30
0.0
 10
8.856702792314172
 20
6.220926057653449
 30
0.0
  0
SPLINE
  5
C6
330
1F
100
AcDbEntity
  8
0
  6
Continuous
 62
     7
370
    25
100
AcDbSpline
210
0.0
220
0.0
230
1.0
 70
     8
 71
     3
 72
     9
 73
     5
 74
     0
 42
0.000000001
 43
0.00000001
 40
0.0
 40
0.0
 40
0.0
 40
0.0
 40
0.5619035360695991
 40
1.0
 40
1.0
 40
1.0
 40
1.0
 10
8.856702792314172
 20
6.220926057653449
 30
0.0
 10
8.854359866227519
 20
6.220935128689696
 30
0.0
 10
8.850190242909179
 20
6.220951272094505
 30
0.0
 10
8.846026851918484
 20
6.220967394100513
 30
0.0
 10
8.8442028850475
 20
6.220974457094336
 30
0.0
  0
SPLINE
  5
C7
330
1F
100
AcDbEntity
  8
0
  6
Continuous
 62
     7
370
    25
100
AcDbSpline
210
0.0
220
0.0
230
1.0
 70
     8
 71
     3
 72
     9
 73
     5
 74
     0
 42
0.000000001
 43
0.00000001
 40
0.0
 40
0.0
 40
0.0
 40
0.0
 40
0.4613210333885968
 40
1.0
 40
1.0
 40
1.0
 40
1.0
 10
8.8442028850475
 20
6.220974457094335
 30
0.0
 10
8.844195461120439
 20
6.21905666565153
 30
0.0
 10
8.844179368363932
 20
6.214899492438078
 30
0.0
 10
8.844160849632683
 20
6.21011932254935
 30
0.0
 10
8.84415087398167
 20
6.207544345573462
 30
0.0
  0
SPLINE
  5
C8
330
1F
100
AcDbEntity
  8
0
  6
Continuous
 62
     7
370
    25
100
AcDbSpline
210
0.0
220
0.0
230
1.0
 70
     8
 71
     3
 72
     9
 73
     5
 74
     0
 42
0.000000001
 43
0.00000001
 40
0.0
 40
0.0
 40
0.0
 40
0.0
 40
0.8144134358950389
 40
1.0
 40
1.0
 40
1.0
 40
1.0
 10
8.824604503116348
 20
6.18814878296599
 30
0.0
 10
8.82107624728596
 20
6.188162431256117
 30
0.0
 10
8.816743981050067
 20
6.188179189685591
 30
0.0
 10
8.812970319770185
 20
6.188193809224504
 30
0.0
 10
8.812269978939156
 20
6.1881965224145
 30
0.0
  0
SPLINE
  5
C9
330
1F
100
AcDbEntity
  8
0
  6
Continuous
 62
     7
370
    25
100
AcDbSpline
210
0.0
220
0.0
230
1.0
 70
     8
 71
     3
 72
     9
 73
     5
 74
     0
 42
0.000000001
 43
0.00000001
 40
0.0
 40
0.0
 40
0.0
 40
0.0
 40
0.5854086876324145
 40
1.0
 40
1.0
 40
1.0
 40
1.0
 10
8.812269978939156
 20
6.1881965224145
 30
0.0
 10
8.812260529022419
 20
6.185754540432526
 30
0.0
 10
8.812244386595875
 20
6.18158312645531
 30
0.0
 10
8.81222826384904
 20
6.177421858870182
 30
0.0
 10
8.81222157949827
 20
6.175696633480951
 30
0.0
  0
SPLINE
  5
CA
330
1F
100
AcDbEntity
  8
0
  6
Continuous
 62
     7
370
    25
100
AcDbSpline
210
0.0
220
0.0
230
1.0
 70
    24
 71
     3
 72
     9
 73
     5
 74
     0
 42
0.000000001
 43
0.00000001
 40
0.0
 40
0.0
 40
0.0
 40
0.0
 40
0.5159080930737155
 40
1.0
 40
1.0
 40
1.0
 40
1.0
 10
8.81222157949827
 20
6.17569663348095
 30
0.0
 10
8.814258923687245
 20
6.17569663348095
 30
0.0
 10
8.818207968519696
 20
6.17569663348095
 30
0.0
 10
8.822656636550025
 20
6.17569663348095
 30
0.0
 10
8.82481020074011
 20
6.17569663348095
 30
0.0
  0
CIRCLE
  5
CB
330
1F
100
AcDbEntity
  8
0
  6
Continuous
 62
     7
370
    25
100
AcDbCircle
 10
8.8503018286
 20
6.1819505529
 30
0.0
 40
0.0494999999999998
  0
SPLINE
  5
CC
330
1F
100
AcDbEntity
  8
0
  6
Continuous
 62
     7
370
    25
100
AcDbSpline
210
0.0
220
0.0
230
1.0
 70
     8
 71
     3
 72
     9
 73
     5
 74
     0
 42
0.000000001
 43
0.00000001
 40
0.0
 40
0.0
 40
0.0
 40
0.0
 40
0.4179757510666886
 40
0.9999999999999999
 40
0.9999999999999999
 40
0.9999999999999999
 40
0.9999999999999999
 10
8.875744910671328
 20
6.188253428423783
 30
0.0
 10
8.87308946599846
 20
6.190929505009977
 30
0.0
 10
8.866736358991435
 20
6.197331973524871
 30
0.0
 10
8.860361249539165
 20
6.20375663649357
 30
0.0
 10
8.85665078124834
 20
6.207495946132576
 30
0.0
  0
SPLINE
  5
CD
330
1F
100
AcDbEntity
  8
0
  6
Continuous
 62
     7
370
    25
100
AcDbSpline
210
0.0
220
0.0
230
1.0
 70
     8
 71
     3
 72
     9
 73
     5
 74
     0
 42
0.000000001
 43
0.00000001
 40
0.0
 40
0.0
 40
0.0
 40
0.0
 40
0.4164586142925048
 40
0.9999999999999999
 40
0.9999999999999999
 40
0.9999999999999999
 40
0.9999999999999999
 10
8.82481020074011
 20
6.17569663348095
 30
0.0
 10
8.827462415761925
 20
6.17302378149414
 30
0.0
 10
8.83383091176799
 20
6.166605732028765
 30
0.0
 10
8.840222891537085
 20
6.160164092770423
 30
0.0
 10
8.843952876268956
 20
6.156405129671382
 30
0.0
  0
SPLINE
  5
CE
330
1F
100
AcDbEntity
  8
0
  6
Continuous
 62
     7
370
    25
100
AcDbSpline
210
0.0
220
0.0
230
1.0
 70
     8
 71
     3
 72
     9
 73
     5
 74
     0
 42
0.000000001
 43
0.00000001
 40
0.0
 40
0.0
 40
0.0
 40
0.0
 40
0.4100487402440628
 40
1.0
 40
1.0
 40
1.0
 40
1.0
 10
8.856452783535628
 20
6.156356730230496
 30
0.0
 10
8.859118822767824
 20
6.159002202977853
 30
0.0
 10
8.865620584559876
 20
6.165453808574256
 30
0.0
 10
8.87214818707435
 20
6.171931087379507
 30
0.0
 10
8.875999154400949
 20
6.175752366170454
 30
0.0
  0
SPLINE
  5
CF
330
1F
100
AcDbEntity
  8
0
  6
Continuous
 62
     7
370
    25
100
AcDbSpline
210
0.0
220
0.0
230
1.0
 70
     8
 71
     3
 72
     9
 73
     5
 74
     0
 42
0.000000001
 43
0.00000001
 40
0.0
 40
0.0
 40
0.0
 40
0.0
 40
0.4100495042766701
 40
0.9999999999999999
 40
0.9999999999999999
 40
0.9999999999999999
 40
0.9999999999999999
 10
8.84415087398167
 20
6.207544345573462
 30
0.0
 10
8.841484836484051
 20
6.204898871063924
 30
0.0
 10
8.834983091036705
 20
6.198447273191114
 30
0.0
 10
8.828455474014493
 20
6.191970033646345
 30
0.0
 10
8.824604503116348
 20
6.18814878296599
 30
0.0
  0
LINE
  5
D0
330
1F
100
AcDbEntity
  8
0
  6
Continuous
 62
     7
370
    25
100
AcDbLine
 10
8.4301038871
 20
6.1184505815
 30
0.0
 11
8.4301038871
 21
4.4934505736
 31
0.0
  0
LINE
  5
D1
330
1F
100
AcDbEntity
  8
0
  6
Continuous
 62
     7
370
    25
100
AcDbLine
 10
8.4710698338
 20
6.1184505815
 30
0.0
 11
8.4710698338
 21
4.4934505736
 31
0.0
  0
LINE
  5
D2
330
1F
100
AcDbEntity
  8
0
  6
Continuous
 62
     7
370
    25
100
AcDbLine
 10
8.8855338259
 20
6.1184505815
 30
0.0
 11
8.8855338259
 21
4.4934505736
 31
0.0
  0
LINE
  5
D3
330
1F
100
AcDbEntity
  8
0
  6
Continuous
 62
     7
370
    25
100
AcDbLine
 10
8.9264997727
 20
6.1184505815
 30
0.0
 11
8.9264997727
 21
4.4934505736
 31
0.0
  0
ELLIPSE
  5
D4
330
1F
100
AcDbEntity
  8
0
  6
Continuous
 62
     7
370
    25
100
AcDbEllipse
 10
8.9707896377
 20
3.9429627437
 30
0.0
 11
0.01415937089198493
 21
-0.01415937089198449
 31
0.0
210
0.0
220
0.0
230
1.0
 40
0.998782766
 41
5.498396131367821
 42
7.0679744829914
  0
CIRCLE
  5
D5
330
1F
100
AcDbEntity
  8
0
  6
Continuous
 62
     7
370
    25
100
AcDbCircle
 10
8.6783018286
 20
4.1809505529
 30
0.0
 40
0.2217500000000019
  0
ELLIPSE
  5
D6
330
1F
100
AcDbEntity
  8
0
  6
Continuous
 62
     7
370
    25
100
AcDbEllipse
 10
8.3858140195
 20
3.9429627437
 30
0.0
 11
-0.01415937089198316
 21
-0.0141593708919836
 31
0.0
210
0.0
220
0.0
230
1.0
 40
0.998782766
 41
5.498396131367763
 42
7.067974482991414
  0
LINE
  5
D7
330
1F
100
AcDbEntity
  8
0
  6
Continuous
 62
     7
370
    25
100
AcDbLine
 10
8.9708140074
 20
6.6729505092
 30
0.0
 11
8.3857896523
 21
6.6729505092
 31
0.0
  0
CIRCLE
  5
D8
330
1F
100
AcDbEntity
  8
0
  6
Continuous
 62
     7
370
    25
100
AcDbCircle
 10
8.8503018286
 20
6.1899505529
 30
0.0
 40
0.0600000000000005
  0
CIRCLE
  5
D9
330
1F
100
AcDbEntity
  8
0
  6
Continuous
 62
     7
370
    25
100
AcDbCircle
 10
8.8503018286
 20
4.4219505529
 30
0.0
 40
0.0599999999999987
  0
LINE
  5
DA
330
1F
100
AcDbEntity
  8
0
  6
Continuous
 62
     7
370
    25
100
AcDbLine
 10
8.9264997727
 20
4.4934505736
 30
0.0
 11
8.6783018276
 21
4.4934505736
 31
0.0
  0
LINE
  5
DB
330
1F
100
AcDbEntity
  8
0
  6
Continuous
 62
     7
370
    25
100
AcDbLine
 10
8.9264997727
 20
6.1184505815
 30
0.0
 11
8.6783018276
 21
6.1184505815
 31
0.0
  0
ELLIPSE
  5
DC
330
1F
100
AcDbEntity
  8
0
  6
Continuous
 62
     7
370
    25
100
AcDbEllipse
 10
8.9707896377
 20
6.652938362
 30
0.0
 11
0.01415937089198494
 21
0.01415937089198405
 31
0.0
210
0.0
220
0.0
230
1.0
 40
0.998782766
 41
5.498396131367748
 42
7.067974482991501
  0
LINE
  5
DD
330
1F
100
AcDbEntity
  8
0
  6
Continuous
 62
     7
370
    25
100
AcDbLine
 10
8.3658018199
 20
6.6529627134
 30
0.0
 11
8.3658018199
 21
3.9429383932
 31
0.0
  0
CIRCLE
  5
DE
330
1F
100
AcDbEntity
  8
0
  6
Continuous
 62
     7
370
    25
100
AcDbCircle
 10
8.5063018286
 20
6.1899505529
 30
0.0
 40
0.0599999999999987
  0
LINE
  5
DF
330
1F
100
AcDbEntity
  8
0
  6
Continuous
 62
     7
370
    25
100
AcDbLine
 10
8.6783018276
 20
4.4934505736
 30
0.0
 11
8.4301038871
 21
4.4934505736
 31
0.0
  0
CIRCLE
  5
E0
330
1F
100
AcDbEntity
  8
0
  6
Continuous
 62
     7
370
    25
100
AcDbCircle
 10
8.5063018286
 20
4.4219505529
 30
0.0
 40
0.0599999999999987
  0
LINE
  5
E1
330
1F
100
AcDbEntity
  8
0
  6
Continuous
 62
     7
370
    25
100
AcDbLine
 10
8.3857896523
 20
3.9229505974
 30
0.0
 11
8.9708140074
 21
3.9229505974
 31
0.0
  0
LINE
  5
E2
330
1F
100
AcDbEntity
  8
0
  6
Continuous
 62
     7
370
    25
100
AcDbLine
 10
8.6783018276
 20
6.1184505815
 30
0.0
 11
8.4301038871
 21
6.1184505815
 31
0.0
  0
ELLIPSE
  5
E3
330
1F
100
AcDbEntity
  8
0
  6
Continuous
 62
     7
370
    25
100
AcDbEllipse
 10
8.3858140195
 20
6.652938362
 30
0.0
 11
-0.01415937089198316
 21
0.01415937089198405
 31
0.0
210
0.0
220
0.0
230
1.0
 40
0.998782766
 41
5.498396131367779
 42
7.067974482991469
  0
LINE
  5
E4
330
1F
100
AcDbEntity
  8
0
  6
Continuous
 62
     7
370
    25
100
AcDbLine
 10
8.9908018399
 20
3.9429383932
 30
0.0
 11
8.9908018399
 21
6.6529627134
 31
0.0
  0
LINE
  5
E5
330
1F
100
AcDbEntity
  8
0
  6
Continuous
 62
     7
370
    25
100
AcDbLine
 10
8.6845518294
 20
6.6854506181
 30
0.0
 11
8.6845518294
 21
6.6729505092
 31
0.0
  0
LINE
  5
E6
330
1F
100
AcDbEntity
  8
0
  6
Continuous
 62
     7
370
    25
100
AcDbLine
 10
8.6845518294
 20
6.6854506181
 30
0.0
 11
8.7060518281
 21
6.6854506181
 31
0.0
  0
LINE
  5
E7
330
1F
100
AcDbEntity
  8
0
  6
Continuous
 62
     7
370
    25
100
AcDbLine
 10
8.7060518281
 20
6.6854506181
 30
0.0
 11
8.7060518281
 21
6.6729505092
 31
0.0
  0
LINE
  5
E8
330
1F
100
AcDbEntity
  8
0
  6
Continuous
 62
     7
370
    25
100
AcDbLine
 10
8.7060518281
 20
6.6854506181
 30
0.0
 11
8.7193461645
 21
6.6854506181
 31
0.0
  0
LINE
  5
E9
330
1F
100
AcDbEntity
  8
0
  6
Continuous
 62
     7
370
    25
100
AcDbLine
 10
8.7193461645
 20
6.6854506181
 30
0.0
 11
8.7193461645
 21
6.6729505092
 31
0.0
  0
LINE
  5
EA
330
1F
100
AcDbEntity
  8
0
  6
Continuous
 62
     7
370
    25
100
AcDbLine
 10
8.6505518288
 20
6.6854506181
 30
0.0
 11
8.6505518288
 21
6.6729505092
 31
0.0
  0
LINE
  5
EB
330
1F
100
AcDbEntity
  8
0
  6
Continuous
 62
     7
370
    25
100
AcDbLine
 10
8.6720518281
 20
6.6854506181
 30
0.0
 11
8.6720518281
 21
6.6729505092
 31
0.0
  0
LINE
  5
EC
330
1F
100
AcDbEntity
  8
0
  6
Continuous
 62
     7
370
    25
100
AcDbLine
 10
8.6505518288
 20
6.6854506181
 30
0.0
 11
8.6720518281
 21
6.6854506181
 31
0.0
  0
LINE
  5
ED
330
1F
100
AcDbEntity
  8
0
  6
Continuous
 62
     7
370
    25
100
AcDbLine
 10
8.637257493
 20
6.6854506181
 30
0.0
 11
8.637257493
 21
6.6729505092
 31
0.0
  0
LINE
  5
EE
330
1F
100
AcDbEntity
  8
0
  6
Continuous
 62
     7
370
    25
100
AcDbLine
 10
8.637257493
 20
6.6854506181
 30
0.0
 11
8.6505518288
 21
6.6854506181
 31
0.0
  0
LINE
  5
EF
330
1F
100
AcDbEntity
  8
0
  6
Continuous
 62
     7
370
    25
100
AcDbLine
 10
8.7193461645
 20
6.6854506181
 30
0.0
 11
8.7688018269
 21
6.6854506181
 31
0.0
  0
LINE
  5
F0
330
1F
100
AcDbEntity
  8
0
  6
Continuous
 62
     7
370
    25
100
AcDbLine
 10
8.5878018283
 20
6.6854506181
 30
0.0
 11
8.637257493
 21
6.6854506181
 31
0.0
  0
LINE
  5
F1
330
1F
100
AcDbEntity
  8
0
  6
Continuous
 62
     7
370
    25
100
AcDbLine
 10
8.6318115774
 20
6.7029505359
 30
0.0
 11
8.5933018289
 21
6.7029505359
 31
0.0
  0
LINE
  5
F2
330
1F
100
AcDbEntity
  8
0
  6
Continuous
 62
     7
370
    25
100
AcDbLine
 10
8.7633018263
 20
6.7029505359
 30
0.0
 11
8.6318115774
 21
6.7029505359
 31
0.0
  0
LINE
  5
F3
330
1F
100
AcDbEntity
  8
0
  6
Continuous
 62
     7
370
    25
100
AcDbLine
 10
8.6318115774
 20
6.6879505225
 30
0.0
 11
8.5933018289
 21
6.6879505225
 31
0.0
  0
LINE
  5
F4
330
1F
100
AcDbEntity
  8
0
  6
Continuous
 62
     7
370
    25
100
AcDbLine
 10
8.7633018263
 20
6.6879505225
 30
0.0
 11
8.6318115774
 21
6.6879505225
 31
0.0
  0
LINE
  5
F5
330
1F
100
AcDbEntity
  8
0
  6
Continuous
 62
     7
370
    25
100
AcDbLine
 10
8.3658018199
 20
6.6729505092
 30
0.0
 11
8.3658018199
 21
6.6529627134
 31
0.0
  0
LINE
  5
F6
330
1F
100
AcDbEntity
  8
0
  6
Continuous
 62
     7
370
    25
100
AcDbLine
 10
8.3658018199
 20
3.9429383932
 30
0.0
 11
8.3658018199
 21
3.9229505974
 31
0.0
  0
LINE
  5
F7
330
1F
100
AcDbEntity
  8
0
  6
Continuous
 62
     7
370
    25
100
AcDbLine
 10
8.3658018199
 20
6.6729505092
 30
0.0
 11
8.3857896523
 21
6.6729505092
 31
0.0
  0
LINE
  5
F8
330
1F
100
AcDbEntity
  8
0
  6
Continuous
 62
     7
370
    25
100
AcDbLine
 10
8.3658018199
 20
3.9229505974
 30
0.0
 11
8.3857896523
 21
3.9229505974
 31
0.0
  0
LINE
  5
F9
330
1F
100
AcDbEntity
  8
0
  6
Continuous
 62
     7
370
    25
100
AcDbLine
 10
8.9908018399
 20
6.6729505092
 30
0.0
 11
8.9908018399
 21
6.6529627134
 31
0.0
  0
LINE
  5
FA
330
1F
100
AcDbEntity
  8
0
  6
Continuous
 62
     7
370
    25
100
AcDbLine
 10
8.9908018399
 20
3.9429383932
 30
0.0
 11
8.9908018399
 21
3.9229505974
 31
0.0
  0
LINE
  5
FB
330
1F
100
AcDbEntity
  8
0
  6
Continuous
 62
     7
370
    25
100
AcDbLine
 10
8.9708140074
 20
3.9229505974
 30
0.0
 11
8.9908018399
 21
3.9229505974
 31
0.0
  0
LINE
  5
FC
330
1F
100
AcDbEntity
  8
0
  6
Continuous
 62
     7
370
    25
100
AcDbLine
 10
8.9708140074
 20
6.6729505092
 30
0.0
 11
8.9908018399
 21
6.6729505092
 31
0.0
  0
LINE
  5
FD
330
1F
100
AcDbEntity
  8
0
  6
Continuous
 62
     7
370
    25
100
AcDbLine
 10
10.9303848463
 20
6.6729505092
 30
0.0
 11
10.9303848463
 21
6.6854506181
 31
0.0
  0
LINE
  5
FE
330
1F
100
AcDbEntity
  8
0
  6
Continuous
 62
     7
370
    25
100
AcDbLine
 10
10.7548848528
 20
6.7029505359
 30
0.0
 11
10.7548848528
 21
6.6879505225
 31
0.0
  0
LINE
  5
FF
330
1F
100
AcDbEntity
  8
0
  6
Continuous
 62
     7
370
    25
100
AcDbLine
 10
10.9248848548
 20
6.6879505225
 30
0.0
 11
10.9248848548
 21
6.7029505359
 31
0.0
  0
LINE
  5
100
330
1F
100
AcDbEntity
  8
0
  6
Continuous
 62
     7
370
    25
100
AcDbLine
 10
10.75963485
 20
6.6879505225
 30
0.0
 11
10.75963485
 21
6.6854506181
 31
0.0
  0
LINE
  5
101
330
1F
100
AcDbEntity
  8
0
  6
Continuous
 62
     7
370
    25
100
AcDbLine
 10
10.920134853
 20
6.6854506181
 30
0.0
 11
10.920134853
 21
6.6879505225
 31
0.0
  0
SPLINE
  5
102
330
1F
100
AcDbEntity
  8
0
  6
Continuous
 62
     7
370
    25
100
AcDbSpline
210
0.0
220
0.0
230
1.0
 70
     8
 71
     3
 72
    10
 73
     6
 74
     0
 42
0.000000001
 43
0.00000001
 40
0.0
 40
0.0
 40
0.0
 40
0.0
 40
0.4663130360416918
 40
0.9370840072453548
 40
1.0
 40
1.0
 40
1.0
 40
1.0
 10
11.17238483733524
 20
4.010570818532455
 30
0.0
 10
11.16863303544139
 20
4.017438890810258
 30
0.0
 10
11.1610935645681
 20
4.031240693879646
 30
0.0
 10
11.15512435134412
 20
4.046746938076459
 30
0.0
 10
11.15267376619145
 20
4.055175011899392
 30
0.0
 10
11.15238486837659
 20
4.056168591783087
 30
0.0
  0
SPLINE
  5
103
330
1F
100
AcDbEntity
  8
0
  6
Continuous
 62
     7
370
    25
100
AcDbSpline
210
0.0
220
0.0
230
1.0
 70
     8
 71
     3
 72
     9
 73
     5
 74
     0
 42
0.000000001
 43
0.00000001
 40
0.0
 40
0.0
 40
0.0
 40
0.0
 40
0.5135305592346444
 40
1.0
 40
1.0
 40
1.0
 40
1.0
 10
11.15238486837659
 20
4.127352729457854
 30
0.0
 10
11.15506557856648
 20
4.135403492194539
 30
0.0
 10
11.1602857356568
 20
4.151080772917
 30
0.0
 10
11.1684252246679
 20
4.165793354638634
 30
0.0
 10
11.17238483733524
 20
4.172950576040972
 30
0.0
  0
LINE
  5
104
330
1F
100
AcDbEntity
  8
0
  6
Continuous
 62
     7
370
    25
100
AcDbLine
 10
11.1723848373
 20
4.172950576
 30
0.0
 11
11.4448848361
 21
4.172950576
 31
0.0
  0
SPLINE
  5
105
330
1F
100
AcDbEntity
  8
0
  6
Continuous
 62
     7
370
    25
100
AcDbSpline
210
0.0
220
0.0
230
1.0
 70
     8
 71
     3
 72
    10
 73
     6
 74
     0
 42
0.000000001
 43
0.00000001
 40
0.0
 40
0.0
 40
0.0
 40
0.0
 40
0.4663134746745257
 40
0.9370838541991452
 40
1.0
 40
1.0
 40
1.0
 40
1.0
 10
11.44488483605867
 20
4.172950576040972
 30
0.0
 10
11.4486366576481
 20
4.166082480285052
 30
0.0
 10
11.45617615977752
 20
4.152280645271688
 30
0.0
 10
11.46214515728394
 20
4.136774353681547
 30
0.0
 10
11.46459595458467
 20
4.128346309124903
 30
0.0
 10
11.4648848783498
 20
4.127352729457854
 30
0.0
  0
LINE
  5
106
330
1F
100
AcDbEntity
  8
0
  6
Continuous
 62
     7
370
    25
100
AcDbLine
 10
11.4648848783
 20
4.1273527295
 30
0.0
 11
11.4648848783
 21
4.0561685918
 31
0.0
  0
SPLINE
  5
107
330
1F
100
AcDbEntity
  8
0
  6
Continuous
 62
     7
370
    25
100
AcDbSpline
210
0.0
220
0.0
230
1.0
 70
     8
 71
     3
 72
     9
 73
     5
 74
     0
 42
0.000000001
 43
0.00000001
 40
0.0
 40
0.0
 40
0.0
 40
0.0
 40
0.5135307773186227
 40
0.9999999999999999
 40
0.9999999999999999
 40
0.9999999999999999
 40
0.9999999999999999
 10
11.4648848783498
 20
4.056168591783087
 30
0.0
 10
11.46220417577689
 20
4.048117824096367
 30
0.0
 10
11.45698403573599
 20
4.032440540392445
 30
0.0
 10
11.44884447960344
 20
4.017728011181419
 30
0.0
 10
11.44488483605867
 20
4.010570818532455
 30
0.0
  0
LINE
  5
108
330
1F
100
AcDbEntity
  8
0
  6
Continuous
 62
     7
370
    25
100
AcDbLine
 10
11.1723848373
 20
4.0105708185
 30
0.0
 11
11.4448848361
 21
4.0105708185
 31
0.0
  0
SPLINE
  5
109
330
1F
100
AcDbEntity
  8
0
  6
Continuous
 62
     7
370
    25
100
AcDbSpline
210
0.0
220
0.0
230
1.0
 70
     8
 71
     3
 72
     9
 73
     5
 74
     0
 42
0.000000001
 43
0.00000001
 40
0.0
 40
0.0
 40
0.0
 40
0.0
 40
0.5135297653164204
 40
1.0
 40
1.0
 40
1.0
 40
1.0
 10
11.4648848783498
 20
4.218548349291605
 30
0.0
 10
11.4622041711763
 20
4.210497611175882
 30
0.0
 10
11.45698401188942
 20
4.194820354160871
 30
0.0
 10
11.44884447734077
 20
4.180107797118279
 30
0.0
 10
11.44488483605867
 20
4.172950576040972
 30
0.0
  0
LINE
  5
10A
330
1F
100
AcDbEntity
  8
0
  6
Continuous
 62
     7
370
    25
100
AcDbLine
 10
11.4648848783
 20
4.2185483493
 30
0.0
 11
11.4648848783
 21
4.1273527295
 31
0.0
  0
SPLINE
  5
10B
330
1F
100
AcDbEntity
  8
0
  6
Continuous
 62
     7
370
    25
100
AcDbSpline
210
0.0
220
0.0
230
1.0
 70
     8
 71
     3
 72
    10
 73
     6
 74
     0
 42
0.000000001
 43
0.00000001
 40
0.0
 40
0.0
 40
0.0
 40
0.0
 40
0.4663130763431708
 40
0.937084090530734
 40
0.9999999999999999
 40
0.9999999999999999
 40
0.9999999999999999
 40
0.9999999999999999
 10
11.17238483733524
 20
4.172950576040972
 30
0.0
 10
11.16863303506809
 20
4.179818649615607
 30
0.0
 10
11.16109356342615
 20
4.193620455324884
 30
0.0
 10
11.15512435474878
 20
4.209126684198565
 30
0.0
 10
11.15267376622791
 20
4.217554769316569
 30
0.0
 10
11.15238486837659
 20
4.218548349291605
 30
0.0
  0
SPLINE
  5
10C
330
1F
100
AcDbEntity
  8
0
  6
Continuous
 62
     7
370
    25
100
AcDbSpline
210
0.0
220
0.0
230
1.0
 70
     8
 71
     3
 72
     9
 73
     5
 74
     0
 42
0.000000001
 43
0.00000001
 40
0.0
 40
0.0
 40
0.0
 40
0.0
 40
0.5135299998477593
 40
1.0
 40
1.0
 40
1.0
 40
1.0
 10
11.15238486837659
 20
4.289732560298858
 30
0.0
 10
11.15506558110944
 20
4.2977832966127
 30
0.0
 10
11.160285748838
 20
4.313460542959024
 30
0.0
 10
11.1684252259186
 20
4.328173110712309
 30
0.0
 10
11.17238483733524
 20
4.335330333549491
 30
0.0
  0
LINE
  5
10D
330
1F
100
AcDbEntity
  8
0
  6
Continuous
 62
     7
370
    25
100
AcDbLine
 10
11.1723848373
 20
4.3353303335
 30
0.0
 11
11.4448848361
 21
4.3353303335
 31
0.0
  0
SPLINE
  5
10E
330
1F
100
AcDbEntity
  8
0
  6
Continuous
 62
     7
370
    25
100
AcDbSpline
210
0.0
220
0.0
230
1.0
 70
     8
 71
     3
 72
    10
 73
     6
 74
     0
 42
0.000000001
 43
0.00000001
 40
0.0
 40
0.0
 40
0.0
 40
0.0
 40
0.4663139326933619
 40
0.937083703679615
 40
1.0
 40
1.0
 40
1.0
 40
1.0
 10
11.44488483605867
 20
4.335330333549491
 30
0.0
 10
11.44863665492614
 20
4.328462235988985
 30
0.0
 10
11.45617614296923
 20
4.314660413122449
 30
0.0
 10
11.46214516633934
 20
4.299154157112064
 30
0.0
 10
11.4645959546995
 20
4.290726139964395
 30
0.0
 10
11.4648848783498
 20
4.289732560298858
 30
0.0
  0
LINE
  5
10F
330
1F
100
AcDbEntity
  8
0
  6
Continuous
 62
     7
370
    25
100
AcDbLine
 10
11.4648848783
 20
4.2897325603
 30
0.0
 11
11.4648848783
 21
4.2185483493
 31
0.0
  0
SPLINE
  5
110
330
1F
100
AcDbEntity
  8
0
  6
Continuous
 62
     7
370
    25
100
AcDbSpline
210
0.0
220
0.0
230
1.0
 70
    24
 71
     3
 72
    10
 73
     6
 74
     0
 42
0.000000001
 43
0.00000001
 40
0.0
 40
0.0
 40
0.0
 40
0.0
 40
0.0706212014337741
 40
0.5327004736573513
 40
1.0
 40
1.0
 40
1.0
 40
1.0
 10
11.4648848783498
 20
4.335330333549491
 30
0.0
 10
11.46455965467887
 20
4.335330333549491
 30
0.0
 10
11.46210647064871
 20
4.33533033354949
 30
0.0
 10
11.45612084557484
 20
4.335330333549491
 30
0.0
 10
11.44864417121211
 20
4.335330333549491
 30
0.0
 10
11.44488483605867
 20
4.335330333549491
 30
0.0
  0
LINE
  5
111
330
1F
100
AcDbEntity
  8
0
  6
Continuous
 62
     7
370
    25
100
AcDbLine
 10
11.4648848783
 20
4.3353303335
 30
0.0
 11
11.4648848783
 21
4.2897325603
 31
0.0
  0
SPLINE
  5
112
330
1F
100
AcDbEntity
  8
0
  6
Continuous
 62
     7
370
    25
100
AcDbSpline
210
0.0
220
0.0
230
1.0
 70
    24
 71
     3
 72
    10
 73
     6
 74
     0
 42
0.000000001
 43
0.00000001
 40
0.0
 40
0.0
 40
0.0
 40
0.0
 40
0.168995397274946
 40
0.5826962194202674
 40
1.0
 40
1.0
 40
1.0
 40
1.0
 10
11.17238483733524
 20
4.335330333549491
 30
0.0
 10
11.17098978803863
 20
4.335330333549491
 30
0.0
 10
11.16617965732412
 20
4.33533033354949
 30
0.0
 10
11.15878629976637
 20
4.335330333549491
 30
0.0
 10
11.15452483759878
 20
4.335330333549491
 30
0.0
 10
11.15238486837659
 20
4.335330333549491
 30
0.0
  0
SPLINE
  5
113
330
1F
100
AcDbEntity
  8
0
  6
Continuous
 62
     7
370
    25
100
AcDbSpline
210
0.0
220
0.0
230
1.0
 70
    24
 71
     3
 72
    10
 73
     6
 74
     0
 42
0.000000001
 43
0.00000001
 40
0.0
 40
0.0
 40
0.0
 40
0.0
 40
0.1689958765990453
 40
0.582696240071104
 40
1.0
 40
1.0
 40
1.0
 40
1.0
 10
11.44488483605867
 20
4.010570818532455
 30
0.0
 10
11.44627991406869
 20
4.010570818532455
 30
0.0
 10
11.45109013031425
 20
4.010570818532455
 30
0.0
 10
11.45848337790722
 20
4.010570818532455
 30
0.0
 10
11.46274488529236
 20
4.010570818532455
 30
0.0
 10
11.4648848783498
 20
4.010570818532455
 30
0.0
  0
LINE
  5
114
330
1F
100
AcDbEntity
  8
0
  6
Continuous
 62
     7
370
    25
100
AcDbLine
 10
11.4648848783
 20
4.0561685918
 30
0.0
 11
11.4648848783
 21
4.0105708185
 31
0.0
  0
SPLINE
  5
115
330
1F
100
AcDbEntity
  8
0
  6
Continuous
 62
     7
370
    25
100
AcDbSpline
210
0.0
220
0.0
230
1.0
 70
    24
 71
     3
 72
    10
 73
     6
 74
     0
 42
0.000000001
 43
0.00000001
 40
0.0
 40
0.0
 40
0.0
 40
0.0
 40
0.0706209060173419
 40
0.5327005604310612
 40
0.9999999999999999
 40
0.9999999999999999
 40
0.9999999999999999
 40
0.9999999999999999
 10
11.15238486837659
 20
4.010570818532455
 30
0.0
 10
11.15271006575356
 20
4.010570818532455
 30
0.0
 10
11.15516306210735
 20
4.010570818532455
 30
0.0
 10
11.16114893863094
 20
4.010570818532455
 30
0.0
 10
11.16862554051679
 20
4.010570818532455
 30
0.0
 10
11.17238483733524
 20
4.010570818532455
 30
0.0
  0
SPLINE
  5
116
330
1F
100
AcDbEntity
  8
0
  6
Continuous
 62
     7
370
    25
100
AcDbSpline
210
0.0
220
0.0
230
1.0
 70
     8
 71
     3
 72
    10
 73
     6
 74
     0
 42
0.000000001
 43
0.00000001
 40
0.0
 40
0.0
 40
0.0
 40
0.0
 40
0.4663140824504565
 40
0.9370840046248003
 40
1.0
 40
1.0
 40
1.0
 40
1.0
 10
11.17238483733524
 20
6.260570773007648
 30
0.0
 10
11.16863303949357
 20
6.267438875210445
 30
0.0
 10
11.16109359370302
 20
6.281240707405923
 30
0.0
 10
11.15512434551042
 20
6.296746908374636
 30
0.0
 10
11.15267376609372
 20
6.305174966263525
 30
0.0
 10
11.15238486837659
 20
6.30616854625828
 30
0.0
  0
SPLINE
  5
117
330
1F
100
AcDbEntity
  8
0
  6
Continuous
 62
     7
370
    25
100
AcDbSpline
210
0.0
220
0.0
230
1.0
 70
     8
 71
     3
 72
     9
 73
     5
 74
     0
 42
0.000000001
 43
0.00000001
 40
0.0
 40
0.0
 40
0.0
 40
0.0
 40
0.5135300375007478
 40
0.9999999999999999
 40
0.9999999999999999
 40
0.9999999999999999
 40
0.9999999999999999
 10
11.15238486837659
 20
6.377352757265533
 30
0.0
 10
11.15506558093827
 20
6.385403493290089
 30
0.0
 10
11.16028574795076
 20
6.401080737923602
 30
0.0
 10
11.16842522583441
 20
6.415793307396444
 30
0.0
 10
11.17238483733524
 20
6.422950530516165
 30
0.0
  0
LINE
  5
118
330
1F
100
AcDbEntity
  8
0
  6
Continuous
 62
     7
370
    25
100
AcDbLine
 10
11.1723848373
 20
6.4229505305
 30
0.0
 11
11.4448848361
 21
6.4229505305
 31
0.0
  0
SPLINE
  5
119
330
1F
100
AcDbEntity
  8
0
  6
Continuous
 62
     7
370
    25
100
AcDbSpline
210
0.0
220
0.0
230
1.0
 70
     8
 71
     3
 72
    10
 73
     6
 74
     0
 42
0.000000001
 43
0.00000001
 40
0.0
 40
0.0
 40
0.0
 40
0.0
 40
0.4663129265862289
 40
0.9370837895851789
 40
1.0
 40
1.0
 40
1.0
 40
1.0
 10
11.44488483605867
 20
6.422950530516165
 30
0.0
 10
11.44863665935157
 20
6.416082461583823
 30
0.0
 10
11.45617617324604
 20
6.402280665203509
 30
0.0
 10
11.46214515710038
 20
6.386774381287894
 30
0.0
 10
11.46459595456531
 20
6.378346336911351
 30
0.0
 10
11.4648848783498
 20
6.377352757265533
 30
0.0
  0
LINE
  5
11A
330
1F
100
AcDbEntity
  8
0
  6
Continuous
 62
     7
370
    25
100
AcDbLine
 10
11.4648848783
 20
6.3773527573
 30
0.0
 11
11.4648848783
 21
6.3061685463
 31
0.0
  0
SPLINE
  5
11B
330
1F
100
AcDbEntity
  8
0
  6
Continuous
 62
     7
370
    25
100
AcDbSpline
210
0.0
220
0.0
230
1.0
 70
     8
 71
     3
 72
     9
 73
     5
 74
     0
 42
0.000000001
 43
0.00000001
 40
0.0
 40
0.0
 40
0.0
 40
0.0
 40
0.513529727663431
 40
1.0
 40
1.0
 40
1.0
 40
1.0
 10
11.4648848783498
 20
6.30616854625828
 30
0.0
 10
11.46220417100513
 20
6.298117807853272
 30
0.0
 10
11.45698401100218
 20
6.28244054912545
 30
0.0
 10
11.44884447725658
 20
6.267727993802413
 30
0.0
 10
11.44488483605867
 20
6.260570773007648
 30
0.0
  0
LINE
  5
11C
330
1F
100
AcDbEntity
  8
0
  6
Continuous
 62
     7
370
    25
100
AcDbLine
 10
11.1723848373
 20
6.260570773
 30
0.0
 11
11.4448848361
 21
6.260570773
 31
0.0
  0
SPLINE
  5
11D
330
1F
100
AcDbEntity
  8
0
  6
Continuous
 62
     7
370
    25
100
AcDbSpline
210
0.0
220
0.0
230
1.0
 70
     8
 71
     3
 72
    10
 73
     6
 74
     0
 42
0.000000001
 43
0.00000001
 40
0.0
 40
0.0
 40
0.0
 40
0.0
 40
0.0706209074810724
 40
0.5327002267075437
 40
1.0
 40
1.0
 40
1.0
 40
1.0
 10
11.4648848783498
 20
6.468548377099284
 30
0.0
 10
11.46455965454514
 20
6.467433307667459
 30
0.0
 10
11.46210646043228
 20
6.459022232812806
 30
0.0
 10
11.45612084629835
 20
6.443522563990013
 30
0.0
 10
11.44864417198494
 20
6.429833506133405
 30
0.0
 10
11.44488483605867
 20
6.422950530516165
 30
0.0
  0
LINE
  5
11E
330
1F
100
AcDbEntity
  8
0
  6
Continuous
 62
     7
370
    25
100
AcDbLine
 10
11.4648848783
 20
6.4685483771
 30
0.0
 11
11.4648848783
 21
6.3773527573
 31
0.0
  0
SPLINE
  5
11F
330
1F
100
AcDbEntity
  8
0
  6
Continuous
 62
     7
370
    25
100
AcDbSpline
210
0.0
220
0.0
230
1.0
 70
     8
 71
     3
 72
    10
 73
     6
 74
     0
 42
0.000000001
 43
0.00000001
 40
0.0
 40
0.0
 40
0.0
 40
0.0
 40
0.1689956325052103
 40
0.5826958682235587
 40
1.0
 40
1.0
 40
1.0
 40
1.0
 10
11.17238483733524
 20
6.422950530516165
 30
0.0
 10
11.17098978866104
 20
6.425423234054367
 30
0.0
 10
11.16617966968712
 20
6.433949100159267
 30
0.0
 10
11.1587862862875
 20
6.448969537393179
 30
0.0
 10
11.15452483469502
 20
6.462003255673356
 30
0.0
 10
11.15238486837659
 20
6.468548377099284
 30
0.0
  0
SPLINE
  5
120
330
1F
100
AcDbEntity
  8
0
  6
Continuous
 62
     7
370
    25
100
AcDbSpline
210
0.0
220
0.0
230
1.0
 70
     8
 71
     3
 72
    10
 73
     6
 74
     0
 42
0.000000001
 43
0.00000001
 40
0.0
 40
0.0
 40
0.0
 40
0.0
 40
0.0706206172980475
 40
0.5327003529632074
 40
1.0
 40
1.0
 40
1.0
 40
1.0
 10
11.15238486837659
 20
6.539732514774052
 30
0.0
 10
11.15271006588904
 20
6.54084758463453
 30
0.0
 10
11.15516307233806
 20
6.549258699277569
 30
0.0
 10
11.16114893694728
 20
6.564758299242508
 30
0.0
 10
11.16862553961999
 20
6.578447378824812
 30
0.0
 10
11.17238483733524
 20
6.58533036135717
 30
0.0
  0
LINE
  5
121
330
1F
100
AcDbEntity
  8
0
  6
Continuous
 62
     7
370
    25
100
AcDbLine
 10
11.1723848373
 20
6.5853303614
 30
0.0
 11
11.4448848361
 21
6.5853303614
 31
0.0
  0
SPLINE
  5
122
330
1F
100
AcDbEntity
  8
0
  6
Continuous
 62
     7
370
    25
100
AcDbSpline
210
0.0
220
0.0
230
1.0
 70
     8
 71
     3
 72
    10
 73
     6
 74
     0
 42
0.000000001
 43
0.00000001
 40
0.0
 40
0.0
 40
0.0
 40
0.0
 40
0.1689970758439833
 40
0.5826969851107624
 40
1.0
 40
1.0
 40
1.0
 40
1.0
 10
11.44488483605867
 20
6.58533036135717
 30
0.0
 10
11.44627991248454
 20
6.582857633457736
 30
0.0
 10
11.45109009528385
 20
6.574331739830265
 30
0.0
 10
11.45848338301466
 20
6.559311284226871
 30
0.0
 10
11.46274488748731
 20
6.546277608620782
 30
0.0
 10
11.4648848783498
 20
6.539732514774052
 30
0.0
  0
LINE
  5
123
330
1F
100
AcDbEntity
  8
0
  6
Continuous
 62
     7
370
    25
100
AcDbLine
 10
11.4648848783
 20
6.5397325148
 30
0.0
 11
11.4648848783
 21
6.4685483771
 31
0.0
  0
SPLINE
  5
124
330
1F
100
AcDbEntity
  8
0
  6
Continuous
 62
     7
370
    25
100
AcDbSpline
210
0.0
220
0.0
230
1.0
 70
    24
 71
     3
 72
    10
 73
     6
 74
     0
 42
0.000000001
 43
0.00000001
 40
0.0
 40
0.0
 40
0.0
 40
0.0
 40
0.4663136476741424
 40
0.9370837629239269
 40
1.0
 40
1.0
 40
1.0
 40
1.0
 10
11.44488483605867
 20
6.260570773007648
 30
0.0
 10
11.44863665640144
 20
6.260570773007648
 30
0.0
 10
11.45617615249417
 20
6.260570773007648
 30
0.0
 10
11.46214516220259
 20
6.260570773007647
 30
0.0
 10
11.46459595464464
 20
6.260570773007648
 30
0.0
 10
11.4648848783498
 20
6.260570773007648
 30
0.0
  0
LINE
  5
125
330
1F
100
AcDbEntity
  8
0
  6
Continuous
 62
     7
370
    25
100
AcDbLine
 10
11.4648848783
 20
6.3061685463
 30
0.0
 11
11.4648848783
 21
6.260570773
 31
0.0
  0
SPLINE
  5
126
330
1F
100
AcDbEntity
  8
0
  6
Continuous
 62
     7
370
    25
100
AcDbSpline
210
0.0
220
0.0
230
1.0
 70
    24
 71
     3
 72
     9
 73
     5
 74
     0
 42
0.000000001
 43
0.00000001
 40
0.0
 40
0.0
 40
0.0
 40
0.0
 40
0.5135302127080709
 40
1.0
 40
1.0
 40
1.0
 40
1.0
 10
11.15238486837659
 20
6.260570773007648
 30
0.0
 10
11.15506558014178
 20
6.260570773007648
 30
0.0
 10
11.16028574382224
 20
6.260570773007648
 30
0.0
 10
11.16842522544268
 20
6.260570773007647
 30
0.0
 10
11.17238483733524
 20
6.260570773007648
 30
0.0
  0
SPLINE
  5
127
330
1F
100
AcDbEntity
  8
0
  6
Continuous
 62
     7
370
    25
100
AcDbSpline
210
0.0
220
0.0
230
1.0
 70
    24
 71
     3
 72
     9
 73
     5
 74
     0
 42
0.000000001
 43
0.00000001
 40
0.0
 40
0.0
 40
0.0
 40
0.0
 40
0.5135299405236698
 40
1.0
 40
1.0
 40
1.0
 40
1.0
 10
11.4648848783498
 20
6.58533036135717
 30
0.0
 10
11.46220417197279
 20
6.585330361357169
 30
0.0
 10
11.45698401601796
 20
6.585330361357169
 30
0.0
 10
11.4488444777325
 20
6.58533036135717
 30
0.0
 10
11.44488483605867
 20
6.58533036135717
 30
0.0
  0
LINE
  5
128
330
1F
100
AcDbEntity
  8
0
  6
Continuous
 62
     7
370
    25
100
AcDbLine
 10
11.4648848783
 20
6.5853303614
 30
0.0
 11
11.4648848783
 21
6.5397325148
 31
0.0
  0
SPLINE
  5
129
330
1F
100
AcDbEntity
  8
0
  6
Continuous
 62
     7
370
    25
100
AcDbSpline
210
0.0
220
0.0
230
1.0
 70
    24
 71
     3
 72
    10
 73
     6
 74
     0
 42
0.000000001
 43
0.00000001
 40
0.0
 40
0.0
 40
0.0
 40
0.0
 40
0.4663137974311985
 40
0.9370840638692378
 40
1.0
 40
1.0
 40
1.0
 40
1.0
 10
11.17238483733524
 20
6.58533036135717
 30
0.0
 10
11.16863303801827
 20
6.58533036135717
 30
0.0
 10
11.1610935841781
 20
6.58533036135717
 30
0.0
 10
11.1551243496469
 20
6.58533036135717
 30
0.0
 10
11.15267376614858
 20
6.58533036135717
 30
0.0
 10
11.15238486837659
 20
6.58533036135717
 30
0.0
  0
LINE
  5
12A
330
1F
100
AcDbEntity
  8
0
  6
Continuous
 62
     7
370
    25
100
AcDbLine
 10
10.5118848542
 20
4.386187806
 30
0.0
 11
10.5109379118
 21
4.388356761
 31
0.0
  0
SPLINE
  5
12B
330
1F
100
AcDbEntity
  8
0
  6
Continuous
 62
     7
370
    25
100
AcDbSpline
210
0.0
220
0.0
230
1.0
 70
     8
 71
     3
 72
     9
 73
     5
 74
     0
 42
0.000000001
 43
0.00000001
 40
0.0
 40
0.0
 40
0.0
 40
0.0
 40
0.4100495042766701
 40
0.9999999999999999
 40
0.9999999999999999
 40
0.9999999999999999
 40
0.9999999999999999
 10
10.5109379117599
 20
4.388356760983676
 30
0.0
 10
10.51040560317553
 20
4.391002235493215
 30
0.0
 10
10.50910744629735
 20
4.397453833366025
 30
0.0
 10
10.51028383198125
 20
4.403931072910794
 30
0.0
 10
10.51097784129863
 20
4.407752323591148
 30
0.0
  0
LINE
  5
12C
330
1F
100
AcDbEntity
  8
0
  6
Continuous
 62
     7
370
    25
100
AcDbLine
 10
10.5118848542
 20
4.4202442926
 30
0.0
 11
10.5108986789
 21
4.4202533858
 31
0.0
  0
SPLINE
  5
12D
330
1F
100
AcDbEntity
  8
0
  6
Continuous
 62
     7
370
    25
100
AcDbSpline
210
0.0
220
0.0
230
1.0
 70
     8
 71
     3
 72
     9
 73
     5
 74
     0
 42
0.000000001
 43
0.00000001
 40
0.0
 40
0.0
 40
0.0
 40
0.0
 40
0.417976858770282
 40
1.0
 40
1.0
 40
1.0
 40
1.0
 10
10.51089867887979
 20
4.420253385844477
 30
0.0
 10
10.51037624499993
 20
4.422929489426284
 30
0.0
 10
10.50912633398478
 20
4.429332005560027
 30
0.0
 10
10.51027143592919
 20
4.435756672216818
 30
0.0
 10
10.5109379117599
 20
4.439495976885756
 30
0.0
  0
LINE
  5
12E
330
1F
100
AcDbEntity
  8
0
  6
Continuous
 62
     7
370
    25
100
AcDbLine
 10
10.5109379118
 20
4.4394959769
 30
0.0
 11
10.5118848542
 21
4.441479254
 31
0.0
  0
LINE
  5
12F
330
1F
100
AcDbEntity
  8
0
  6
Continuous
 62
     7
370
    25
100
AcDbLine
 10
10.5109778413
 20
4.4077523236
 30
0.0
 11
10.5118848542
 21
4.4077523236
 31
0.0
  0
LINE
  5
130
330
1F
100
AcDbEntity
  8
0
  6
Continuous
 62
     7
370
    25
100
AcDbLine
 10
10.5109778413
 20
4.4201487404
 30
0.0
 11
10.5118848542
 21
4.4201487404
 31
0.0
  0
LINE
  5
131
330
1F
100
AcDbEntity
  8
0
  6
Continuous
 62
     7
370
    25
100
AcDbLine
 10
10.5118848542
 20
6.1541878486
 30
0.0
 11
10.5109379118
 21
6.1563567302
 31
0.0
  0
SPLINE
  5
132
330
1F
100
AcDbEntity
  8
0
  6
Continuous
 62
     7
370
    25
100
AcDbSpline
210
0.0
220
0.0
230
1.0
 70
     8
 71
     3
 72
     9
 73
     5
 74
     0
 42
0.000000001
 43
0.00000001
 40
0.0
 40
0.0
 40
0.0
 40
0.0
 40
0.4100487402440628
 40
1.0
 40
1.0
 40
1.0
 40
1.0
 10
10.5109379117599
 20
6.156356730230496
 30
0.0
 10
10.5104056036171
 20
6.159002202977852
 30
0.0
 10
10.50910744539696
 20
6.165453808574255
 30
0.0
 10
10.51028383108186
 20
6.171931087379505
 30
0.0
 10
10.51097784129863
 20
6.175752366170454
 30
0.0
  0
LINE
  5
133
330
1F
100
AcDbEntity
  8
0
  6
Continuous
 62
     7
370
    25
100
AcDbLine
 10
10.5118848542
 20
6.1882442619
 30
0.0
 11
10.5108986789
 21
6.1882534284
 31
0.0
  0
SPLINE
  5
134
330
1F
100
AcDbEntity
  8
0
  6
Continuous
 62
     7
370
    25
100
AcDbSpline
210
0.0
220
0.0
230
1.0
 70
     8
 71
     3
 72
     9
 73
     5
 74
     0
 42
0.000000001
 43
0.00000001
 40
0.0
 40
0.0
 40
0.0
 40
0.0
 40
0.4179757510666886
 40
0.9999999999999999
 40
0.9999999999999999
 40
0.9999999999999999
 40
0.9999999999999999
 10
10.51089867887979
 20
6.188253428423783
 30
0.0
 10
10.5103762456402
 20
6.190929505009976
 30
0.0
 10
10.50912633284442
 20
6.19733197352487
 30
0.0
 10
10.51027143470787
 20
6.203756636493569
 30
0.0
 10
10.5109379117599
 20
6.207495946132576
 30
0.0
  0
LINE
  5
135
330
1F
100
AcDbEntity
  8
0
  6
Continuous
 62
     7
370
    25
100
AcDbLine
 10
10.5109379118
 20
6.2074959461
 30
0.0
 11
10.5118848542
 21
6.2094792966
 31
0.0
  0
LINE
  5
136
330
1F
100
AcDbEntity
  8
0
  6
Continuous
 62
     7
370
    25
100
AcDbLine
 10
10.5109778413
 20
6.1757523662
 30
0.0
 11
10.5118848542
 21
6.1757523662
 31
0.0
  0
LINE
  5
137
330
1F
100
AcDbEntity
  8
0
  6
Continuous
 62
     7
370
    25
100
AcDbLine
 10
10.5109778413
 20
6.188148783
 30
0.0
 11
10.5118848542
 21
6.188148783
 31
0.0
  0
LINE
  5
138
330
1F
100
AcDbEntity
  8
0
  6
Continuous
 62
     7
370
    25
100
AcDbLine
 10
10.5898848431
 20
6.6502388515
 30
0.0
 11
10.5118848542
 21
6.6529627134
 31
0.0
  0
LINE
  5
139
330
1F
100
AcDbEntity
  8
0
  6
Continuous
 62
     7
370
    25
100
AcDbLine
 10
10.5118848542
 20
3.9429383932
 30
0.0
 11
10.5898848431
 21
3.945662255
 31
0.0
  0
LINE
  5
13A
330
1F
100
AcDbEntity
  8
0
  6
Continuous
 62
     7
370
    25
100
AcDbLine
 10
10.5118848542
 20
3.9429383932
 30
0.0
 11
10.5118848542
 21
6.6529627134
 31
0.0
  0
LINE
  5
13B
330
1F
100
AcDbEntity
  8
0
  6
Continuous
 62
     7
370
    25
100
AcDbLine
 10
10.5898848431
 20
3.9256743126
 30
0.0
 11
10.5118848542
 21
3.9229505974
 31
0.0
  0
LINE
  5
13C
330
1F
100
AcDbEntity
  8
0
  6
Continuous
 62
     7
370
    25
100
AcDbLine
 10
10.5118848542
 20
3.9229505974
 30
0.0
 11
10.5118848542
 21
3.9429383932
 31
0.0
  0
LINE
  5
13D
330
1F
100
AcDbEntity
  8
0
  6
Continuous
 62
     7
370
    25
100
AcDbLine
 10
10.5118848542
 20
6.6729505092
 30
0.0
 11
10.5898848431
 21
6.670226794
 31
0.0
  0
LINE
  5
13E
330
1F
100
AcDbEntity
  8
0
  6
Continuous
 62
     7
370
    25
100
AcDbLine
 10
10.5118848542
 20
6.6529627134
 30
0.0
 11
10.5118848542
 21
6.6729505092
 31
0.0
  0
LINE
  5
13F
330
1F
100
AcDbEntity
  8
0
  6
Continuous
 62
     7
370
    25
100
AcDbLine
 10
10.7592274743
 20
6.6854506181
 30
0.0
 11
10.7592274743
 21
6.6729505092
 31
0.0
  0
LINE
  5
140
330
1F
100
AcDbEntity
  8
0
  6
Continuous
 62
     7
370
    25
100
AcDbLine
 10
10.7592274743
 20
6.6854506181
 30
0.0
 11
10.9303848463
 21
6.6854506181
 31
0.0
  0
LINE
  5
141
330
1F
100
AcDbEntity
  8
0
  6
Continuous
 62
     7
370
    25
100
AcDbLine
 10
10.7428880981
 20
6.6854506181
 30
0.0
 11
10.7428880981
 21
6.6729505092
 31
0.0
  0
LINE
  5
142
330
1F
100
AcDbEntity
  8
0
  6
Continuous
 62
     7
370
    25
100
AcDbLine
 10
10.7428880981
 20
6.6854506181
 30
0.0
 11
10.7592274743
 21
6.6854506181
 31
0.0
  0
LINE
  5
143
330
1F
100
AcDbEntity
  8
0
  6
Continuous
 62
     7
370
    25
100
AcDbLine
 10
10.9248848548
 20
6.6879505225
 30
0.0
 11
10.7548848528
 21
6.6879505225
 31
0.0
  0
LINE
  5
144
330
1F
100
AcDbEntity
  8
0
  6
Continuous
 62
     7
370
    25
100
AcDbLine
 10
10.9248848548
 20
6.7029505359
 30
0.0
 11
10.7548848528
 21
6.7029505359
 31
0.0
  0
LINE
  5
145
330
1F
100
AcDbEntity
  8
0
  6
Continuous
 62
     7
370
    25
100
AcDbLine
 10
10.5898848431
 20
6.6729505092
 30
0.0
 11
10.5898848431
 21
3.9229505974
 31
0.0
  0
CIRCLE
  5
146
330
1F
100
AcDbEntity
  8
0
  6
Continuous
 62
     7
370
    25
100
AcDbCircle
 10
10.8398848508
 20
5.2979505529
 30
0.0
 40
0.078125
  0
LINE
  5
147
330
1F
100
AcDbEntity
  8
0
  6
Continuous
 62
     7
370
    25
100
AcDbLine
 10
11.1523848684
 20
6.6729505092
 30
0.0
 11
11.1523848684
 21
3.9229505974
 31
0.0
  0
LINE
  5
148
330
1F
100
AcDbEntity
  8
0
  6
Continuous
 62
     7
370
    25
100
AcDbLine
 10
10.5898848431
 20
3.9229505974
 30
0.0
 11
11.1523848684
 21
3.9229505974
 31
0.0
  0
LINE
  5
149
330
1F
100
AcDbEntity
  8
0
  6
Continuous
 62
     7
370
    25
100
AcDbLine
 10
10.5898848431
 20
6.6729505092
 30
0.0
 11
11.1523848684
 21
6.6729505092
 31
0.0
  0
LINE
  5
14A
330
1F
100
AcDbEntity
  8
0
  6
Continuous
 62
     8
370
    25
100
AcDbLine
 10
10.8399604
 20
5.3760755191
 30
0.0
 11
10.8399604
 21
5.2198255895
 31
0.0
  0
LINE
  5
14B
330
1F
100
AcDbEntity
  8
0
  6
Continuous
 62
     7
370
    25
100
AcDbLine
 10
5.9838302394
 20
6.6854506181
 30
0.0
 11
5.9838302394
 21
6.6729505092
 31
0.0
  0
LINE
  5
14C
330
1F
100
AcDbEntity
  8
0
  6
Continuous
 62
     7
370
    25
100
AcDbLine
 10
5.9893302309
 20
6.7029505359
 30
0.0
 11
5.9893302309
 21
6.6879505225
 31
0.0
  0
LINE
  5
14D
330
1F
100
AcDbEntity
  8
0
  6
Continuous
 62
     7
370
    25
100
AcDbLine
 10
6.1593302329
 20
6.6879505225
 30
0.0
 11
6.1593302329
 21
6.7029505359
 31
0.0
  0
LINE
  5
14E
330
1F
100
AcDbEntity
  8
0
  6
Continuous
 62
     7
370
    25
100
AcDbLine
 10
5.9940802327
 20
6.6879505225
 30
0.0
 11
5.9940802327
 21
6.6854506181
 31
0.0
  0
LINE
  5
14F
330
1F
100
AcDbEntity
  8
0
  6
Continuous
 62
     7
370
    25
100
AcDbLine
 10
6.1545802357
 20
6.6854506181
 30
0.0
 11
6.1545802357
 21
6.6879505225
 31
0.0
  0
SPLINE
  5
150
330
1F
100
AcDbEntity
  8
0
  6
Continuous
 62
     7
370
    25
100
AcDbSpline
210
0.0
220
0.0
230
1.0
 70
     8
 71
     3
 72
    10
 73
     6
 74
     0
 42
0.000000001
 43
0.00000001
 40
0.0
 40
0.0
 40
0.0
 40
0.0
 40
0.4663140831968533
 40
0.9370840832470875
 40
0.9999999999999999
 40
0.9999999999999999
 40
0.9999999999999999
 40
0.9999999999999999
 10
5.741830248379058
 20
4.335330333549491
 30
0.0
 10
5.745582046716965
 20
4.32846222972796
 30
0.0
 10
5.753121494125253
 20
4.314660393143653
 30
0.0
 10
5.759090736785972
 20
4.299154209591946
 30
0.0
 10
5.761541319582716
 20
4.290726140387384
 30
0.0
 10
5.761830217337709
 20
4.289732560298858
 30
0.0
  0
SPLINE
  5
151
330
1F
100
AcDbEntity
  8
0
  6
Continuous
 62
     7
370
    25
100
AcDbSpline
210
0.0
220
0.0
230
1.0
 70
     8
 71
     3
 72
     9
 73
     5
 74
     0
 42
0.000000001
 43
0.00000001
 40
0.0
 40
0.0
 40
0.0
 40
0.0
 40
0.5135299998477593
 40
1.0
 40
1.0
 40
1.0
 40
1.0
 10
5.761830217337709
 20
4.218548349291605
 30
0.0
 10
5.759149504604856
 20
4.210497612977764
 30
0.0
 10
5.753929336876293
 20
4.19482036663144
 30
0.0
 10
5.745789859795695
 20
4.180107798878153
 30
0.0
 10
5.741830248379058
 20
4.172950576040972
 30
0.0
  0
LINE
  5
152
330
1F
100
AcDbEntity
  8
0
  6
Continuous
 62
     7
370
    25
100
AcDbLine
 10
5.7418302484
 20
4.172950576
 30
0.0
 11
5.4693302497
 21
4.172950576
 31
0.0
  0
SPLINE
  5
153
330
1F
100
AcDbEntity
  8
0
  6
Continuous
 62
     7
370
    25
100
AcDbSpline
210
0.0
220
0.0
230
1.0
 70
     8
 71
     3
 72
    10
 73
     6
 74
     0
 42
0.000000001
 43
0.00000001
 40
0.0
 40
0.0
 40
0.0
 40
0.0
 40
0.4663129625492884
 40
0.937083784732945
 40
1.0
 40
1.0
 40
1.0
 40
1.0
 10
5.46933024965563
 20
4.172950576040972
 30
0.0
 10
5.465578426532222
 20
4.179818644492547
 30
0.0
 10
5.458038913598866
 20
4.19362043877084
 30
0.0
 10
5.452069928206128
 20
4.209126726611117
 30
0.0
 10
5.449619131143333
 20
4.217554769658859
 30
0.0
 10
5.449330207364492
 20
4.218548349291605
 30
0.0
  0
LINE
  5
154
330
1F
100
AcDbEntity
  8
0
  6
Continuous
 62
     7
370
    25
100
AcDbLine
 10
5.4493302074
 20
4.2185483493
 30
0.0
 11
5.4493302074
 21
4.2897325603
 31
0.0
  0
SPLINE
  5
155
330
1F
100
AcDbEntity
  8
0
  6
Continuous
 62
     7
370
    25
100
AcDbSpline
210
0.0
220
0.0
230
1.0
 70
     8
 71
     3
 72
     9
 73
     5
 74
     0
 42
0.000000001
 43
0.00000001
 40
0.0
 40
0.0
 40
0.0
 40
0.0
 40
0.513529727663431
 40
1.0
 40
1.0
 40
1.0
 40
1.0
 10
5.449330207364492
 20
4.289732560298858
 30
0.0
 10
5.452010914709168
 20
4.297783298703866
 30
0.0
 10
5.45723107471212
 20
4.313460557431688
 30
0.0
 10
5.465370608457716
 20
4.328173112754725
 30
0.0
 10
5.46933024965563
 20
4.335330333549491
 30
0.0
  0
LINE
  5
156
330
1F
100
AcDbEntity
  8
0
  6
Continuous
 62
     7
370
    25
100
AcDbLine
 10
5.7418302484
 20
4.3353303335
 30
0.0
 11
5.4693302497
 21
4.3353303335
 31
0.0
  0
LINE
  5
157
330
1F
100
AcDbEntity
  8
0
  6
Continuous
 62
     7
370
    25
100
AcDbLine
 10
5.4493302074
 20
4.1273527295
 30
0.0
 11
5.4493302074
 21
4.2185483493
 31
0.0
  0
SPLINE
  5
158
330
1F
100
AcDbEntity
  8
0
  6
Continuous
 62
     7
370
    25
100
AcDbSpline
210
0.0
220
0.0
230
1.0
 70
     8
 71
     3
 72
     9
 73
     5
 74
     0
 42
0.000000001
 43
0.00000001
 40
0.0
 40
0.0
 40
0.0
 40
0.0
 40
0.5135302493975022
 40
0.9999999999999999
 40
0.9999999999999999
 40
0.9999999999999999
 40
0.9999999999999999
 10
5.449330207364492
 20
4.127352729457854
 30
0.0
 10
5.452010912337355
 20
4.135403494574994
 30
0.0
 10
5.457231062418114
 20
4.151080789391777
 30
0.0
 10
5.4653706072912
 20
4.16579335696359
 30
0.0
 10
5.46933024965563
 20
4.172950576040972
 30
0.0
  0
SPLINE
  5
159
330
1F
100
AcDbEntity
  8
0
  6
Continuous
 62
     7
370
    25
100
AcDbSpline
210
0.0
220
0.0
230
1.0
 70
     8
 71
     3
 72
    10
 73
     6
 74
     0
 42
0.000000001
 43
0.00000001
 40
0.0
 40
0.0
 40
0.0
 40
0.0
 40
0.4663136603945777
 40
0.9370841502922099
 40
1.0
 40
1.0
 40
1.0
 40
1.0
 10
5.741830248379058
 20
4.172950576040972
 30
0.0
 10
5.745582048773162
 20
4.166082476123513
 30
0.0
 10
5.753121507688862
 20
4.152280633883191
 30
0.0
 10
5.75909073155684
 20
4.136774393410347
 30
0.0
 10
5.761541319511397
 20
4.12834630944105
 30
0.0
 10
5.761830217337709
 20
4.127352729457854
 30
0.0
  0
SPLINE
  5
15A
330
1F
100
AcDbEntity
  8
0
  6
Continuous
 62
     7
370
    25
100
AcDbSpline
210
0.0
220
0.0
230
1.0
 70
     8
 71
     3
 72
     9
 73
     5
 74
     0
 42
0.000000001
 43
0.00000001
 40
0.0
 40
0.0
 40
0.0
 40
0.0
 40
0.5135310495040708
 40
1.0
 40
1.0
 40
1.0
 40
1.0
 10
5.761830217337709
 20
4.056168591783087
 30
0.0
 10
5.759149509376588
 20
4.048117826187546
 30
0.0
 10
5.753929361610038
 20
4.032440554865167
 30
0.0
 10
5.745789862142563
 20
4.017728013223839
 30
0.0
 10
5.741830248379058
 20
4.010570818532455
 30
0.0
  0
LINE
  5
15B
330
1F
100
AcDbEntity
  8
0
  6
Continuous
 62
     7
370
    25
100
AcDbLine
 10
5.7418302484
 20
4.0105708185
 30
0.0
 11
5.4693302497
 21
4.0105708185
 31
0.0
  0
SPLINE
  5
15C
330
1F
100
AcDbEntity
  8
0
  6
Continuous
 62
     7
370
    25
100
AcDbSpline
210
0.0
220
0.0
230
1.0
 70
     8
 71
     3
 72
    10
 73
     6
 74
     0
 42
0.000000001
 43
0.00000001
 40
0.0
 40
0.0
 40
0.0
 40
0.0
 40
0.4663128870312283
 40
0.9370837849220517
 40
1.0
 40
1.0
 40
1.0
 40
1.0
 10
5.46933024965563
 20
4.010570818532455
 30
0.0
 10
5.465578426239788
 20
4.017438887786692
 30
0.0
 10
5.458038911496245
 20
4.031240685915933
 30
0.0
 10
5.452069928627168
 20
4.046746967737674
 30
0.0
 10
5.449619131150385
 20
4.055175012134838
 30
0.0
 10
5.449330207364492
 20
4.056168591783087
 30
0.0
  0
LINE
  5
15D
330
1F
100
AcDbEntity
  8
0
  6
Continuous
 62
     7
370
    25
100
AcDbLine
 10
5.4493302074
 20
4.0561685918
 30
0.0
 11
5.4493302074
 21
4.1273527295
 31
0.0
  0
SPLINE
  5
15E
330
1F
100
AcDbEntity
  8
0
  6
Continuous
 62
     7
370
    25
100
AcDbSpline
210
0.0
220
0.0
230
1.0
 70
    24
 71
     3
 72
    10
 73
     6
 74
     0
 42
0.000000001
 43
0.00000001
 40
0.0
 40
0.0
 40
0.0
 40
0.0
 40
0.0706212407270104
 40
0.5327004740314124
 40
0.9999999999999999
 40
0.9999999999999999
 40
0.9999999999999999
 40
0.9999999999999999
 10
5.449330207364492
 20
4.010570818532455
 30
0.0
 10
5.449655431013714
 20
4.010570818532455
 30
0.0
 10
5.452108613516932
 20
4.010570818532455
 30
0.0
 10
5.458094241141535
 20
4.010570818532455
 30
0.0
 10
5.465570914733695
 20
4.010570818532455
 30
0.0
 10
5.46933024965563
 20
4.010570818532455
 30
0.0
  0
LINE
  5
15F
330
1F
100
AcDbEntity
  8
0
  6
Continuous
 62
     7
370
    25
100
AcDbLine
 10
5.4493302074
 20
4.0105708185
 30
0.0
 11
5.4493302074
 21
4.0561685918
 31
0.0
  0
SPLINE
  5
160
330
1F
100
AcDbEntity
  8
0
  6
Continuous
 62
     7
370
    25
100
AcDbSpline
210
0.0
220
0.0
230
1.0
 70
    24
 71
     3
 72
    10
 73
     6
 74
     0
 42
0.000000001
 43
0.00000001
 40
0.0
 40
0.0
 40
0.0
 40
0.0
 40
0.1689958765990453
 40
0.582696240071104
 40
1.0
 40
1.0
 40
1.0
 40
1.0
 10
5.46933024965563
 20
4.335330333549491
 30
0.0
 10
5.467935171645602
 20
4.335330333549491
 30
0.0
 10
5.463124955400048
 20
4.335330333549491
 30
0.0
 10
5.455731707807073
 20
4.335330333549491
 30
0.0
 10
5.451470200421933
 20
4.335330333549491
 30
0.0
 10
5.449330207364492
 20
4.335330333549491
 30
0.0
  0
LINE
  5
161
330
1F
100
AcDbEntity
  8
0
  6
Continuous
 62
     7
370
    25
100
AcDbLine
 10
5.4493302074
 20
4.2897325603
 30
0.0
 11
5.4493302074
 21
4.3353303335
 31
0.0
  0
SPLINE
  5
162
330
1F
100
AcDbEntity
  8
0
  6
Continuous
 62
     7
370
    25
100
AcDbSpline
210
0.0
220
0.0
230
1.0
 70
    24
 71
     3
 72
    10
 73
     6
 74
     0
 42
0.000000001
 43
0.00000001
 40
0.0
 40
0.0
 40
0.0
 40
0.0
 40
0.168995397274946
 40
0.5826962194202674
 40
1.0
 40
1.0
 40
1.0
 40
1.0
 10
5.741830248379058
 20
4.010570818532455
 30
0.0
 10
5.743225297675671
 20
4.010570818532455
 30
0.0
 10
5.748035428390175
 20
4.010570818532454
 30
0.0
 10
5.755428785947928
 20
4.010570818532455
 30
0.0
 10
5.759690248115517
 20
4.010570818532455
 30
0.0
 10
5.761830217337709
 20
4.010570818532455
 30
0.0
  0
SPLINE
  5
163
330
1F
100
AcDbEntity
  8
0
  6
Continuous
 62
     7
370
    25
100
AcDbSpline
210
0.0
220
0.0
230
1.0
 70
    24
 71
     3
 72
    10
 73
     6
 74
     0
 42
0.000000001
 43
0.00000001
 40
0.0
 40
0.0
 40
0.0
 40
0.0
 40
0.0706209453107593
 40
0.5327005608052144
 40
1.0
 40
1.0
 40
1.0
 40
1.0
 10
5.761830217337709
 20
4.335330333549491
 30
0.0
 10
5.761505019982448
 20
4.335330333549491
 30
0.0
 10
5.759052025155517
 20
4.335330333549491
 30
0.0
 10
5.753066146081316
 20
4.335330333549491
 30
0.0
 10
5.745589544966
 20
4.335330333549491
 30
0.0
 10
5.741830248379058
 20
4.335330333549491
 30
0.0
  0
SPLINE
  5
164
330
1F
100
AcDbEntity
  8
0
  6
Continuous
 62
     7
370
    25
100
AcDbSpline
210
0.0
220
0.0
230
1.0
 70
     8
 71
     3
 72
    10
 73
     6
 74
     0
 42
0.000000001
 43
0.00000001
 40
0.0
 40
0.0
 40
0.0
 40
0.0
 40
0.466313584876656
 40
0.9370841504813255
 40
1.0
 40
1.0
 40
1.0
 40
1.0
 10
5.741830248379058
 20
6.58533036135717
 30
0.0
 10
5.745582049065602
 20
6.578462260637047
 30
0.0
 10
5.75312150979149
 20
6.564660414545779
 30
0.0
 10
5.759090731135831
 20
6.549154180091472
 30
0.0
 10
5.761541319504344
 20
6.54072609477275
 30
0.0
 10
5.761830217337709
 20
6.539732514774052
 30
0.0
  0
SPLINE
  5
165
330
1F
100
AcDbEntity
  8
0
  6
Continuous
 62
     7
370
    25
100
AcDbSpline
210
0.0
220
0.0
230
1.0
 70
     8
 71
     3
 72
     9
 73
     5
 74
     0
 42
0.000000001
 43
0.00000001
 40
0.0
 40
0.0
 40
0.0
 40
0.0
 40
0.5135305215818154
 40
1.0
 40
1.0
 40
1.0
 40
1.0
 10
5.761830217337709
 20
6.468548377099284
 30
0.0
 10
5.759149506976652
 20
6.460497614073315
 30
0.0
 10
5.753929349170254
 20
6.444820331638048
 30
0.0
 10
5.745789860962215
 20
6.430107751635964
 30
0.0
 10
5.741830248379058
 20
6.422950530516165
 30
0.0
  0
LINE
  5
166
330
1F
100
AcDbEntity
  8
0
  6
Continuous
 62
     7
370
    25
100
AcDbLine
 10
5.7418302484
 20
6.4229505305
 30
0.0
 11
5.4693302497
 21
6.4229505305
 31
0.0
  0
SPLINE
  5
167
330
1F
100
AcDbEntity
  8
0
  6
Continuous
 62
     7
370
    25
100
AcDbSpline
210
0.0
220
0.0
230
1.0
 70
     8
 71
     3
 72
    10
 73
     6
 74
     0
 42
0.000000001
 43
0.00000001
 40
0.0
 40
0.0
 40
0.0
 40
0.0
 40
0.4663135106375905
 40
0.9370838493469212
 40
0.9999999999999999
 40
0.9999999999999999
 40
0.9999999999999999
 40
0.9999999999999999
 10
5.46933024965563
 20
6.422950530516165
 30
0.0
 10
5.465578428235697
 20
6.429818625791317
 30
0.0
 10
5.458038927067384
 20
6.443620458702657
 30
0.0
 10
5.452069928022565
 20
6.459126754217462
 30
0.0
 10
5.449619131123975
 20
6.467554797445305
 30
0.0
 10
5.449330207364492
 20
6.468548377099284
 30
0.0
  0
LINE
  5
168
330
1F
100
AcDbEntity
  8
0
  6
Continuous
 62
     7
370
    25
100
AcDbLine
 10
5.4493302074
 20
6.4685483771
 30
0.0
 11
5.4493302074
 21
6.5397325148
 31
0.0
  0
SPLINE
  5
169
330
1F
100
AcDbEntity
  8
0
  6
Continuous
 62
     7
370
    25
100
AcDbSpline
210
0.0
220
0.0
230
1.0
 70
     8
 71
     3
 72
     9
 73
     5
 74
     0
 42
0.000000001
 43
0.00000001
 40
0.0
 40
0.0
 40
0.0
 40
0.0
 40
0.5135302493975022
 40
0.9999999999999999
 40
0.9999999999999999
 40
0.9999999999999999
 40
0.9999999999999999
 10
5.449330207364492
 20
6.539732514774052
 30
0.0
 10
5.452010912337355
 20
6.547783279891192
 30
0.0
 10
5.457231062418114
 20
6.563460574707973
 30
0.0
 10
5.4653706072912
 20
6.578173142279787
 30
0.0
 10
5.46933024965563
 20
6.58533036135717
 30
0.0
  0
LINE
  5
16A
330
1F
100
AcDbEntity
  8
0
  6
Continuous
 62
     7
370
    25
100
AcDbLine
 10
5.7418302484
 20
6.5853303614
 30
0.0
 11
5.4693302497
 21
6.5853303614
 31
0.0
  0
SPLINE
  5
16B
330
1F
100
AcDbEntity
  8
0
  6
Continuous
 62
     7
370
    25
100
AcDbSpline
210
0.0
220
0.0
230
1.0
 70
     8
 71
     3
 72
    10
 73
     6
 74
     0
 42
0.000000001
 43
0.00000001
 40
0.0
 40
0.0
 40
0.0
 40
0.0
 40
0.0706209854546264
 40
0.5327007377709844
 40
1.0
 40
1.0
 40
1.0
 40
1.0
 10
5.449330207364492
 20
6.377352757265533
 30
0.0
 10
5.44965543118597
 20
6.37846782665427
 30
0.0
 10
5.452108625070569
 20
6.386878899966575
 30
0.0
 10
5.458094227247644
 20
6.402378564914021
 30
0.0
 10
5.465570912184035
 20
6.416067582232123
 30
0.0
 10
5.46933024965563
 20
6.422950530516165
 30
0.0
  0
LINE
  5
16C
330
1F
100
AcDbEntity
  8
0
  6
Continuous
 62
     7
370
    25
100
AcDbLine
 10
5.4493302074
 20
6.3773527573
 30
0.0
 11
5.4493302074
 21
6.4685483771
 31
0.0
  0
SPLINE
  5
16D
330
1F
100
AcDbEntity
  8
0
  6
Continuous
 62
     7
370
    25
100
AcDbSpline
210
0.0
220
0.0
230
1.0
 70
     8
 71
     3
 72
    10
 73
     6
 74
     0
 42
0.000000001
 43
0.00000001
 40
0.0
 40
0.0
 40
0.0
 40
0.0
 40
0.1689948098446965
 40
0.5826966278379511
 40
1.0
 40
1.0
 40
1.0
 40
1.0
 10
5.741830248379058
 20
6.422950530516165
 30
0.0
 10
5.743225298936316
 20
6.420477853568762
 30
0.0
 10
5.748035454089154
 20
6.411952026531184
 30
0.0
 10
5.755428764044173
 20
6.396931539732363
 30
0.0
 10
5.759690243194481
 20
6.383897847312073
 30
0.0
 10
5.761830217337709
 20
6.377352757265533
 30
0.0
  0
SPLINE
  5
16E
330
1F
100
AcDbEntity
  8
0
  6
Continuous
 62
     7
370
    25
100
AcDbSpline
210
0.0
220
0.0
230
1.0
 70
     8
 71
     3
 72
    10
 73
     6
 74
     0
 42
0.000000001
 43
0.00000001
 40
0.0
 40
0.0
 40
0.0
 40
0.0
 40
0.0706206927427279
 40
0.5326998537425279
 40
1.0
 40
1.0
 40
1.0
 40
1.0
 10
5.761830217337709
 20
6.30616854625828
 30
0.0
 10
5.761505019925605
 20
6.305053476282774
 30
0.0
 10
5.759052019152922
 20
6.296642377640222
 30
0.0
 10
5.753066132974165
 20
6.281142828881639
 30
0.0
 10
5.745589543685803
 20
6.267453758716745
 30
0.0
 10
5.741830248379058
 20
6.260570773007648
 30
0.0
  0
LINE
  5
16F
330
1F
100
AcDbEntity
  8
0
  6
Continuous
 62
     7
370
    25
100
AcDbLine
 10
5.7418302484
 20
6.260570773
 30
0.0
 11
5.4693302497
 21
6.260570773
 31
0.0
  0
SPLINE
  5
170
330
1F
100
AcDbEntity
  8
0
  6
Continuous
 62
     7
370
    25
100
AcDbSpline
210
0.0
220
0.0
230
1.0
 70
     8
 71
     3
 72
    10
 73
     6
 74
     0
 42
0.000000001
 43
0.00000001
 40
0.0
 40
0.0
 40
0.0
 40
0.0
 40
0.1689962338148745
 40
0.5826966386055212
 40
0.9999999999999999
 40
0.9999999999999999
 40
0.9999999999999999
 40
0.9999999999999999
 10
5.46933024965563
 20
6.260570773007648
 30
0.0
 10
5.467935172006782
 20
6.263043475116624
 30
0.0
 10
5.46312496388423
 20
6.271569317229486
 30
0.0
 10
5.455731710716511
 20
6.286589779172886
 30
0.0
 10
5.451470200646398
 20
6.299623453999986
 30
0.0
 10
5.449330207364492
 20
6.30616854625828
 30
0.0
  0
LINE
  5
171
330
1F
100
AcDbEntity
  8
0
  6
Continuous
 62
     7
370
    25
100
AcDbLine
 10
5.4493302074
 20
6.3061685463
 30
0.0
 11
5.4493302074
 21
6.3773527573
 31
0.0
  0
SPLINE
  5
172
330
1F
100
AcDbEntity
  8
0
  6
Continuous
 62
     7
370
    25
100
AcDbSpline
210
0.0
220
0.0
230
1.0
 70
    24
 71
     3
 72
    10
 73
     6
 74
     0
 42
0.000000001
 43
0.00000001
 40
0.0
 40
0.0
 40
0.0
 40
0.0
 40
0.4663135717830055
 40
0.9370837238021182
 40
1.0
 40
1.0
 40
1.0
 40
1.0
 10
5.46933024965563
 20
6.58533036135717
 30
0.0
 10
5.465578429268551
 20
6.58533036135717
 30
0.0
 10
5.458038932174531
 20
6.58533036135717
 30
0.0
 10
5.452069922223688
 20
6.585330361357169
 30
0.0
 10
5.449619131057779
 20
6.58533036135717
 30
0.0
 10
5.449330207364492
 20
6.58533036135717
 30
0.0
  0
LINE
  5
173
330
1F
100
AcDbEntity
  8
0
  6
Continuous
 62
     7
370
    25
100
AcDbLine
 10
5.4493302074
 20
6.5397325148
 30
0.0
 11
5.4493302074
 21
6.5853303614
 31
0.0
  0
SPLINE
  5
174
330
1F
100
AcDbEntity
  8
0
  6
Continuous
 62
     7
370
    25
100
AcDbSpline
210
0.0
220
0.0
230
1.0
 70
    24
 71
     3
 72
     9
 73
     5
 74
     0
 42
0.000000001
 43
0.00000001
 40
0.0
 40
0.0
 40
0.0
 40
0.0
 40
0.5135302884604823
 40
1.0
 40
1.0
 40
1.0
 40
1.0
 10
5.761830217337709
 20
6.58533036135717
 30
0.0
 10
5.759149505916883
 20
6.58533036135717
 30
0.0
 10
5.753929343677063
 20
6.58533036135717
 30
0.0
 10
5.745789860440991
 20
6.58533036135717
 30
0.0
 10
5.741830248379058
 20
6.58533036135717
 30
0.0
  0
SPLINE
  5
175
330
1F
100
AcDbEntity
  8
0
  6
Continuous
 62
     7
370
    25
100
AcDbSpline
210
0.0
220
0.0
230
1.0
 70
    24
 71
     3
 72
     9
 73
     5
 74
     0
 42
0.000000001
 43
0.00000001
 40
0.0
 40
0.0
 40
0.0
 40
0.0
 40
0.5135300162760006
 40
1.0
 40
1.0
 40
1.0
 40
1.0
 10
5.449330207364492
 20
6.260570773007648
 30
0.0
 10
5.452010913397131
 20
6.260570773007648
 30
0.0
 10
5.457231067911328
 20
6.260570773007648
 30
0.0
 10
5.465370607812423
 20
6.260570773007647
 30
0.0
 10
5.46933024965563
 20
6.260570773007648
 30
0.0
  0
LINE
  5
176
330
1F
100
AcDbEntity
  8
0
  6
Continuous
 62
     7
370
    25
100
AcDbLine
 10
5.4493302074
 20
6.260570773
 30
0.0
 11
5.4493302074
 21
6.3061685463
 31
0.0
  0
SPLINE
  5
177
330
1F
100
AcDbEntity
  8
0
  6
Continuous
 62
     7
370
    25
100
AcDbSpline
210
0.0
220
0.0
230
1.0
 70
    24
 71
     3
 72
    10
 73
     6
 74
     0
 42
0.000000001
 43
0.00000001
 40
0.0
 40
0.0
 40
0.0
 40
0.0
 40
0.4663137215399429
 40
0.9370840247472271
 40
1.0
 40
1.0
 40
1.0
 40
1.0
 10
5.741830248379058
 20
6.260570773007648
 30
0.0
 10
5.745582047740346
 20
6.260570773007647
 30
0.0
 10
5.753121502581839
 20
6.260570773007647
 30
0.0
 10
5.759090737355336
 20
6.260570773007647
 30
0.0
 10
5.761541319577596
 20
6.260570773007648
 30
0.0
 10
5.761830217337709
 20
6.260570773007648
 30
0.0
  0
SPLINE
  5
178
330
1F
100
AcDbEntity
  8
0
  6
Continuous
 62
     7
370
    25
100
AcDbSpline
210
0.0
220
0.0
230
1.0
 70
     8
 71
     3
 72
     9
 73
     5
 74
     0
 42
0.000000001
 43
0.00000001
 40
0.0
 40
0.0
 40
0.0
 40
0.0
 40
0.4164586142925048
 40
0.9999999999999999
 40
0.9999999999999999
 40
0.9999999999999999
 40
0.9999999999999999
 10
6.403303848646249
 20
6.17569663348095
 30
0.0
 10
6.403829445108987
 20
6.173023781494138
 30
0.0
 10
6.405091506799394
 20
6.166605732028764
 30
0.0
 10
6.403945762923438
 20
6.160164092770422
 30
0.0
 10
6.403277173954397
 20
6.156405129671382
 30
0.0
  0
LINE
  5
179
330
1F
100
AcDbEntity
  8
0
  6
Continuous
 62
     7
370
    25
100
AcDbLine
 10
6.403277174
 20
6.1564051297
 30
0.0
 11
6.4023302316
 21
6.1544218526
 31
0.0
  0
LINE
  5
17A
330
1F
100
AcDbEntity
  8
0
  6
Continuous
 62
     7
370
    25
100
AcDbLine
 10
6.4023302316
 20
6.2097133005
 30
0.0
 11
6.403277174
 21
6.2075443456
 31
0.0
  0
SPLINE
  5
17B
330
1F
100
AcDbEntity
  8
0
  6
Continuous
 62
     7
370
    25
100
AcDbSpline
210
0.0
220
0.0
230
1.0
 70
     8
 71
     3
 72
     9
 73
     5
 74
     0
 42
0.000000001
 43
0.00000001
 40
0.0
 40
0.0
 40
0.0
 40
0.0
 40
0.4100495042766701
 40
0.9999999999999999
 40
0.9999999999999999
 40
0.9999999999999999
 40
0.9999999999999999
 10
6.403277173954397
 20
6.207544345573462
 30
0.0
 10
6.403809482538767
 20
6.204898871063923
 30
0.0
 10
6.405107639416943
 20
6.198447273191113
 30
0.0
 10
6.403931253733044
 20
6.191970033646344
 30
0.0
 10
6.403237244415666
 20
6.18814878296599
 30
0.0
  0
LINE
  5
17C
330
1F
100
AcDbEntity
  8
0
  6
Continuous
 62
     7
370
    25
100
AcDbLine
 10
6.4023302316
 20
6.1756966335
 30
0.0
 11
6.4033038486
 21
6.1756966335
 31
0.0
  0
LINE
  5
17D
330
1F
100
AcDbEntity
  8
0
  6
Continuous
 62
     7
370
    25
100
AcDbLine
 10
6.4032372444
 20
6.188148783
 30
0.0
 11
6.4023302316
 21
6.188148783
 31
0.0
  0
SPLINE
  5
17E
330
1F
100
AcDbEntity
  8
0
  6
Continuous
 62
     7
370
    25
100
AcDbSpline
210
0.0
220
0.0
230
1.0
 70
     8
 71
     3
 72
     9
 73
     5
 74
     0
 42
0.000000001
 43
0.00000001
 40
0.0
 40
0.0
 40
0.0
 40
0.0
 40
0.4164575066495185
 40
1.0
 40
1.0
 40
1.0
 40
1.0
 10
6.403303848646249
 20
4.407696590901644
 30
0.0
 10
6.403829444471019
 20
4.405023765901124
 30
0.0
 10
6.405091507986215
 20
4.398605764165429
 30
0.0
 10
6.403945764162201
 20
4.392164128539166
 30
0.0
 10
6.403277173954397
 20
4.388405160424561
 30
0.0
  0
LINE
  5
17F
330
1F
100
AcDbEntity
  8
0
  6
Continuous
 62
     7
370
    25
100
AcDbLine
 10
6.403277174
 20
4.3884051604
 30
0.0
 11
6.4023302316
 21
4.38642181
 31
0.0
  0
LINE
  5
180
330
1F
100
AcDbEntity
  8
0
  6
Continuous
 62
     7
370
    25
100
AcDbLine
 10
6.4023302316
 20
4.4417132579
 30
0.0
 11
6.403277174
 21
4.4395443763
 31
0.0
  0
SPLINE
  5
181
330
1F
100
AcDbEntity
  8
0
  6
Continuous
 62
     7
370
    25
100
AcDbSpline
210
0.0
220
0.0
230
1.0
 70
     8
 71
     3
 72
     9
 73
     5
 74
     0
 42
0.000000001
 43
0.00000001
 40
0.0
 40
0.0
 40
0.0
 40
0.0
 40
0.4100487402440628
 40
1.0
 40
1.0
 40
1.0
 40
1.0
 10
6.403277173954397
 20
4.439544376326642
 30
0.0
 10
6.403809482097201
 20
4.436898903579286
 30
0.0
 10
6.405107640317335
 20
4.430447297982883
 30
0.0
 10
6.403931254632433
 20
4.423970019177632
 30
0.0
 10
6.403237244415666
 20
4.420148740386684
 30
0.0
  0
LINE
  5
182
330
1F
100
AcDbEntity
  8
0
  6
Continuous
 62
     7
370
    25
100
AcDbLine
 10
6.4023302316
 20
4.4076965909
 30
0.0
 11
6.4033038486
 21
4.4076965909
 31
0.0
  0
LINE
  5
183
330
1F
100
AcDbEntity
  8
0
  6
Continuous
 62
     7
370
    25
100
AcDbLine
 10
6.4032372444
 20
4.4201487404
 30
0.0
 11
6.4023302316
 21
4.4201487404
 31
0.0
  0
LINE
  5
184
330
1F
100
AcDbEntity
  8
0
  6
Continuous
 62
     7
370
    25
100
AcDbLine
 10
6.4023302316
 20
6.6529627134
 30
0.0
 11
6.3243302426
 21
6.6502388515
 31
0.0
  0
LINE
  5
185
330
1F
100
AcDbEntity
  8
0
  6
Continuous
 62
     7
370
    25
100
AcDbLine
 10
6.4023302316
 20
6.6529627134
 30
0.0
 11
6.4023302316
 21
3.9429383932
 31
0.0
  0
LINE
  5
186
330
1F
100
AcDbEntity
  8
0
  6
Continuous
 62
     7
370
    25
100
AcDbLine
 10
6.3243302426
 20
3.945662255
 30
0.0
 11
6.4023302316
 21
3.9429383932
 31
0.0
  0
LINE
  5
187
330
1F
100
AcDbEntity
  8
0
  6
Continuous
 62
     7
370
    25
100
AcDbLine
 10
6.3243302426
 20
6.670226794
 30
0.0
 11
6.4023302316
 21
6.6729505092
 31
0.0
  0
LINE
  5
188
330
1F
100
AcDbEntity
  8
0
  6
Continuous
 62
     7
370
    25
100
AcDbLine
 10
6.4023302316
 20
6.6729505092
 30
0.0
 11
6.4023302316
 21
6.6529627134
 31
0.0
  0
LINE
  5
189
330
1F
100
AcDbEntity
  8
0
  6
Continuous
 62
     7
370
    25
100
AcDbLine
 10
6.4023302316
 20
3.9229505974
 30
0.0
 11
6.3243302426
 21
3.9256743126
 31
0.0
  0
LINE
  5
18A
330
1F
100
AcDbEntity
  8
0
  6
Continuous
 62
     7
370
    25
100
AcDbLine
 10
6.4023302316
 20
3.9429383932
 30
0.0
 11
6.4023302316
 21
3.9229505974
 31
0.0
  0
LINE
  5
18B
330
1F
100
AcDbEntity
  8
0
  6
Continuous
 62
     7
370
    25
100
AcDbLine
 10
5.9838302394
 20
6.6854506181
 30
0.0
 11
6.1549876114
 21
6.6854506181
 31
0.0
  0
LINE
  5
18C
330
1F
100
AcDbEntity
  8
0
  6
Continuous
 62
     7
370
    25
100
AcDbLine
 10
6.1549876114
 20
6.6854506181
 30
0.0
 11
6.1549876114
 21
6.6729505092
 31
0.0
  0
LINE
  5
18D
330
1F
100
AcDbEntity
  8
0
  6
Continuous
 62
     7
370
    25
100
AcDbLine
 10
6.1713269876
 20
6.6854506181
 30
0.0
 11
6.1713269876
 21
6.6729505092
 31
0.0
  0
LINE
  5
18E
330
1F
100
AcDbEntity
  8
0
  6
Continuous
 62
     7
370
    25
100
AcDbLine
 10
6.1549876114
 20
6.6854506181
 30
0.0
 11
6.1713269876
 21
6.6854506181
 31
0.0
  0
LINE
  5
18F
330
1F
100
AcDbEntity
  8
0
  6
Continuous
 62
     7
370
    25
100
AcDbLine
 10
6.1454896107
 20
6.6879505225
 30
0.0
 11
5.9893302309
 21
6.6879505225
 31
0.0
  0
LINE
  5
190
330
1F
100
AcDbEntity
  8
0
  6
Continuous
 62
     7
370
    25
100
AcDbLine
 10
6.1593302329
 20
6.6879505225
 30
0.0
 11
6.1454896107
 21
6.6879505225
 31
0.0
  0
LINE
  5
191
330
1F
100
AcDbEntity
  8
0
  6
Continuous
 62
     7
370
    25
100
AcDbLine
 10
6.1454896107
 20
6.7029505359
 30
0.0
 11
5.9893302309
 21
6.7029505359
 31
0.0
  0
LINE
  5
192
330
1F
100
AcDbEntity
  8
0
  6
Continuous
 62
     7
370
    25
100
AcDbLine
 10
6.1593302329
 20
6.7029505359
 30
0.0
 11
6.1454896107
 21
6.7029505359
 31
0.0
  0
LINE
  5
193
330
1F
100
AcDbEntity
  8
0
  6
Continuous
 62
     7
370
    25
100
AcDbLine
 10
6.3243302426
 20
6.6729505092
 30
0.0
 11
6.3243302426
 21
3.9229505974
 31
0.0
  0
CIRCLE
  5
194
330
1F
100
AcDbEntity
  8
0
  6
Continuous
 62
     7
370
    25
100
AcDbCircle
 10
6.0743302349
 20
5.2979505529
 30
0.0
 40
0.0781250000000009
  0
LINE
  5
195
330
1F
100
AcDbEntity
  8
0
  6
Continuous
 62
     7
370
    25
100
AcDbLine
 10
5.7618302173
 20
6.6729505092
 30
0.0
 11
5.7618302173
 21
3.9229505974
 31
0.0
  0
LINE
  5
196
330
1F
100
AcDbEntity
  8
0
  6
Continuous
 62
     7
370
    25
100
AcDbLine
 10
5.7618302173
 20
3.9229505974
 30
0.0
 11
6.3243302426
 21
3.9229505974
 31
0.0
  0
LINE
  5
197
330
1F
100
AcDbEntity
  8
0
  6
Continuous
 62
     7
370
    25
100
AcDbLine
 10
5.7618302173
 20
6.6729505092
 30
0.0
 11
6.3243302426
 21
6.6729505092
 31
0.0
  0
LINE
  5
198
330
1F
100
AcDbEntity
  8
0
  6
Continuous
 62
     8
370
    25
100
AcDbLine
 10
6.0742546857
 20
5.3760755191
 30
0.0
 11
6.0742546857
 21
5.2198255895
 31
0.0
  0
LINE
  5
199
330
1F
100
AcDbEntity
  8
0
  6
Continuous
 62
     7
370
    25
100
AcDbLine
 10
8.510801824
 20
9.5046903641
 30
0.0
 11
8.4908018276
 21
9.4846903218
 31
0.0
  0
LINE
  5
19A
330
1F
100
AcDbEntity
  8
0
  6
Continuous
 62
     7
370
    25
100
AcDbLine
 10
8.4908018276
 20
9.212190323
 30
0.0
 11
8.510801824
 21
9.1921903541
 31
0.0
  0
LINE
  5
19B
330
1F
100
AcDbEntity
  8
0
  6
Continuous
 62
     7
370
    25
100
AcDbLine
 10
8.8658018322
 20
9.4846903218
 30
0.0
 11
8.8458018266
 21
9.5046903641
 31
0.0
  0
LINE
  5
19C
330
1F
100
AcDbEntity
  8
0
  6
Continuous
 62
     7
370
    25
100
AcDbLine
 10
8.8458018266
 20
9.1921903541
 30
0.0
 11
8.8658018322
 21
9.212190323
 31
0.0
  0
SPLINE
  5
19D
330
1F
100
AcDbEntity
  8
0
  6
Continuous
 62
     7
370
    25
100
AcDbSpline
210
0.0
220
0.0
230
1.0
 70
     8
 71
     3
 72
    10
 73
     6
 74
     0
 42
0.000000001
 43
0.00000001
 40
0.0
 40
0.0
 40
0.0
 40
0.0
 40
0.4663137974311985
 40
0.9370840638692378
 40
1.0
 40
1.0
 40
1.0
 40
1.0
 10
8.772051831042633
 20
9.212190323049521
 30
0.0
 10
8.764121236263174
 20
9.208438523732555
 30
0.0
 10
8.748184255573829
 20
9.200899069892387
 30
0.0
 10
8.730279220710697
 20
9.194929835361187
 30
0.0
 10
8.720547323681807
 20
9.19247925186286
 30
0.0
 10
8.719400036363991
 20
9.19219035409087
 30
0.0
  0
SPLINE
  5
19E
330
1F
100
AcDbEntity
  8
0
  6
Continuous
 62
     7
370
    25
100
AcDbSpline
210
0.0
220
0.0
230
1.0
 70
     8
 71
     3
 72
     9
 73
     5
 74
     0
 42
0.000000001
 43
0.00000001
 40
0.0
 40
0.0
 40
0.0
 40
0.0
 40
0.5135302884604823
 40
1.0
 40
1.0
 40
1.0
 40
1.0
 10
8.637203623403968
 20
9.19219035409087
 30
0.0
 10
8.627907420619145
 20
9.194871065511697
 30
0.0
 10
8.609804880236004
 20
9.200091227751518
 30
0.0
 10
8.592816272049348
 20
9.20823071098759
 30
0.0
 10
8.584551828725326
 20
9.212190323049523
 30
0.0
  0
LINE
  5
19F
330
1F
100
AcDbEntity
  8
0
  6
Continuous
 62
     7
370
    25
100
AcDbLine
 10
8.5845518287
 20
9.212190323
 30
0.0
 11
8.5845518287
 21
9.4846903218
 31
0.0
  0
SPLINE
  5
1A0
330
1F
100
AcDbEntity
  8
0
  6
Continuous
 62
     7
370
    25
100
AcDbSpline
210
0.0
220
0.0
230
1.0
 70
     8
 71
     3
 72
    10
 73
     6
 74
     0
 42
0.000000001
 43
0.00000001
 40
0.0
 40
0.0
 40
0.0
 40
0.0
 40
0.4663135717830055
 40
0.9370837238021182
 40
1.0
 40
1.0
 40
1.0
 40
1.0
 10
8.584551828725326
 20
9.48469032177295
 30
0.0
 10
8.592482416574965
 20
9.488442142160029
 30
0.0
 10
8.608419385266794
 20
9.49598163925405
 30
0.0
 10
8.626324483881724
 20
9.501950649204892
 30
0.0
 10
8.63605633569992
 20
9.5044014403708
 30
0.0
 10
8.637203623403968
 20
9.50469036406409
 30
0.0
  0
LINE
  5
1A1
330
1F
100
AcDbEntity
  8
0
  6
Continuous
 62
     7
370
    25
100
AcDbLine
 10
8.6372036234
 20
9.5046903641
 30
0.0
 11
8.7194000364
 21
9.5046903641
 31
0.0
  0
SPLINE
  5
1A2
330
1F
100
AcDbEntity
  8
0
  6
Continuous
 62
     7
370
    25
100
AcDbSpline
210
0.0
220
0.0
230
1.0
 70
     8
 71
     3
 72
     9
 73
     5
 74
     0
 42
0.000000001
 43
0.00000001
 40
0.0
 40
0.0
 40
0.0
 40
0.0
 40
0.5135299405236698
 40
1.0
 40
1.0
 40
1.0
 40
1.0
 10
8.719400036363991
 20
9.50469036406409
 30
0.0
 10
8.72869623990139
 20
9.50200965768708
 30
0.0
 10
8.746798794015215
 20
9.496789501732243
 30
0.0
 10
8.76378738848197
 20
9.488649963446786
 30
0.0
 10
8.772051831042633
 20
9.48469032177295
 30
0.0
  0
LINE
  5
1A3
330
1F
100
AcDbEntity
  8
0
  6
Continuous
 62
     7
370
    25
100
AcDbLine
 10
8.772051831
 20
9.212190323
 30
0.0
 11
8.772051831
 21
9.4846903218
 31
0.0
  0
SPLINE
  5
1A4
330
1F
100
AcDbEntity
  8
0
  6
Continuous
 62
     7
370
    25
100
AcDbSpline
210
0.0
220
0.0
230
1.0
 70
     8
 71
     3
 72
     9
 73
     5
 74
     0
 42
0.000000001
 43
0.00000001
 40
0.0
 40
0.0
 40
0.0
 40
0.0
 40
0.5135302493975022
 40
0.9999999999999999
 40
0.9999999999999999
 40
0.9999999999999999
 40
0.9999999999999999
 10
8.558225933677646
 20
9.50469036406409
 30
0.0
 10
8.562874035450378
 20
9.502009659091224
 30
0.0
 10
8.571925307071059
 20
9.496789509010467
 30
0.0
 10
8.58041960818223
 20
9.488649964137378
 30
0.0
 10
8.584551828725326
 20
9.48469032177295
 30
0.0
  0
LINE
  5
1A5
330
1F
100
AcDbEntity
  8
0
  6
Continuous
 62
     7
370
    25
100
AcDbLine
 10
8.5582259337
 20
9.5046903641
 30
0.0
 11
8.6372036234
 21
9.5046903641
 31
0.0
  0
SPLINE
  5
1A6
330
1F
100
AcDbEntity
  8
0
  6
Continuous
 62
     7
370
    25
100
AcDbSpline
210
0.0
220
0.0
230
1.0
 70
     8
 71
     3
 72
    10
 73
     6
 74
     0
 42
0.000000001
 43
0.00000001
 40
0.0
 40
0.0
 40
0.0
 40
0.0
 40
0.1689970758439833
 40
0.5826969851107624
 40
1.0
 40
1.0
 40
1.0
 40
1.0
 10
8.772051831042633
 20
9.48469032177295
 30
0.0
 10
8.773479437448495
 20
9.486085398198828
 30
0.0
 10
8.778401782669361
 20
9.490895580998135
 30
0.0
 10
8.787073909124844
 20
9.498288868728945
 30
0.0
 10
8.794598911336733
 20
9.502550373201593
 30
0.0
 10
8.798377726090314
 20
9.50469036406409
 30
0.0
  0
LINE
  5
1A7
330
1F
100
AcDbEntity
  8
0
  6
Continuous
 62
     7
370
    25
100
AcDbLine
 10
8.7194000364
 20
9.5046903641
 30
0.0
 11
8.7983777261
 21
9.5046903641
 31
0.0
  0
SPLINE
  5
1A8
330
1F
100
AcDbEntity
  8
0
  6
Continuous
 62
     7
370
    25
100
AcDbSpline
210
0.0
220
0.0
230
1.0
 70
     8
 71
     3
 72
    10
 73
     6
 74
     0
 42
0.000000001
 43
0.00000001
 40
0.0
 40
0.0
 40
0.0
 40
0.0
 40
0.0706206172980475
 40
0.5327003529632074
 40
1.0
 40
1.0
 40
1.0
 40
1.0
 10
8.798377726090314
 20
9.19219035409087
 30
0.0
 10
8.797733936857425
 20
9.192515551603321
 30
0.0
 10
8.792877752293833
 20
9.194968558052338
 30
0.0
 10
8.78392910274446
 20
9.200954422661567
 30
0.0
 10
8.776025718210583
 20
9.208431025334274
 30
0.0
 10
8.772051831042633
 20
9.212190323049521
 30
0.0
  0
SPLINE
  5
1A9
330
1F
100
AcDbEntity
  8
0
  6
Continuous
 62
     7
370
    25
100
AcDbSpline
210
0.0
220
0.0
230
1.0
 70
     8
 71
     3
 72
    10
 73
     6
 74
     0
 42
0.000000001
 43
0.00000001
 40
0.0
 40
0.0
 40
0.0
 40
0.0
 40
0.466313584876656
 40
0.9370841504813255
 40
1.0
 40
1.0
 40
1.0
 40
1.0
 10
8.584551828725326
 20
9.212190323049521
 30
0.0
 10
8.580586533271008
 20
9.208438522362977
 30
0.0
 10
8.572618042446962
 20
9.200899061637092
 30
0.0
 10
8.56366551956868
 20
9.19492984029275
 30
0.0
 10
8.558799575763247
 20
9.192479251924237
 30
0.0
 10
8.558225933677646
 20
9.19219035409087
 30
0.0
  0
SPLINE
  5
1AA
330
1F
100
AcDbEntity
  8
0
  6
Continuous
 62
     7
370
    25
100
AcDbSpline
210
0.0
220
0.0
230
1.0
 70
     8
 71
     3
 72
     9
 73
     5
 74
     0
 42
0.000000001
 43
0.00000001
 40
0.0
 40
0.0
 40
0.0
 40
0.0
 40
0.5135305215818154
 40
1.0
 40
1.0
 40
1.0
 40
1.0
 10
8.517127722614354
 20
9.19219035409087
 30
0.0
 10
8.512479622048959
 20
9.19487106445193
 30
0.0
 10
8.50342835757674
 20
9.200091222258326
 30
0.0
 10
8.494934049288956
 20
9.208230710466367
 30
0.0
 10
8.490801827566672
 20
9.212190323049521
 30
0.0
  0
LINE
  5
1AB
330
1F
100
AcDbEntity
  8
0
  6
Continuous
 62
     7
370
    25
100
AcDbLine
 10
8.4908018276
 20
9.212190323
 30
0.0
 11
8.4908018276
 21
9.4846903218
 31
0.0
  0
SPLINE
  5
1AC
330
1F
100
AcDbEntity
  8
0
  6
Continuous
 62
     7
370
    25
100
AcDbSpline
210
0.0
220
0.0
230
1.0
 70
     8
 71
     3
 72
    10
 73
     6
 74
     0
 42
0.000000001
 43
0.00000001
 40
0.0
 40
0.0
 40
0.0
 40
0.0
 40
0.4663135106375905
 40
0.9370838493469212
 40
0.9999999999999999
 40
0.9999999999999999
 40
0.9999999999999999
 40
0.9999999999999999
 10
8.490801827566672
 20
9.48469032177295
 30
0.0
 10
8.494767125008224
 20
9.488442143192882
 30
0.0
 10
8.502735618533647
 20
9.495981644361196
 30
0.0
 10
8.511688160837206
 20
9.501950643406015
 30
0.0
 10
8.51655408068704
 20
9.504401440304605
 30
0.0
 10
8.517127722614354
 20
9.50469036406409
 30
0.0
  0
LINE
  5
1AD
330
1F
100
AcDbEntity
  8
0
  6
Continuous
 62
     7
370
    25
100
AcDbLine
 10
8.5171277226
 20
9.5046903641
 30
0.0
 11
8.5582259337
 21
9.5046903641
 31
0.0
  0
SPLINE
  5
1AE
330
1F
100
AcDbEntity
  8
0
  6
Continuous
 62
     7
370
    25
100
AcDbSpline
210
0.0
220
0.0
230
1.0
 70
     8
 71
     3
 72
    10
 73
     6
 74
     0
 42
0.000000001
 43
0.00000001
 40
0.0
 40
0.0
 40
0.0
 40
0.0
 40
0.1689956325052103
 40
0.5826958682235587
 40
1.0
 40
1.0
 40
1.0
 40
1.0
 10
8.865801832201287
 20
9.212190323049521
 30
0.0
 10
8.86437421989041
 20
9.210795274375327
 30
0.0
 10
8.859451821703892
 20
9.2059851554014
 30
0.0
 10
8.850779759166347
 20
9.19859177200178
 30
0.0
 10
8.843254749855822
 20
9.194330320409302
 30
0.0
 10
8.839475927987046
 20
9.19219035409087
 30
0.0
  0
SPLINE
  5
1AF
330
1F
100
AcDbEntity
  8
0
  6
Continuous
 62
     7
370
    25
100
AcDbSpline
210
0.0
220
0.0
230
1.0
 70
     8
 71
     3
 72
    10
 73
     6
 74
     0
 42
0.000000001
 43
0.00000001
 40
0.0
 40
0.0
 40
0.0
 40
0.0
 40
0.0706209074810724
 40
0.5327002267075437
 40
1.0
 40
1.0
 40
1.0
 40
1.0
 10
8.839475927987046
 20
9.50469036406409
 30
0.0
 10
8.840119716980979
 20
9.50436514025942
 30
0.0
 10
8.844975878636971
 20
9.50191194614656
 30
0.0
 10
8.853924565329438
 20
9.495926332012633
 30
0.0
 10
8.861827945109264
 20
9.488449657699228
 30
0.0
 10
8.865801832201287
 20
9.48469032177295
 30
0.0
  0
LINE
  5
1B0
330
1F
100
AcDbEntity
  8
0
  6
Continuous
 62
     7
370
    25
100
AcDbLine
 10
8.8658018322
 20
9.212190323
 30
0.0
 11
8.8658018322
 21
9.4846903218
 31
0.0
  0
LINE
  5
1B1
330
1F
100
AcDbEntity
  8
0
  6
Continuous
 62
     7
370
    25
100
AcDbLine
 10
8.7983777261
 20
9.5046903641
 30
0.0
 11
8.839475928
 21
9.5046903641
 31
0.0
  0
LINE
  5
1B2
330
1F
100
AcDbEntity
  8
0
  6
Continuous
 62
     7
370
    25
100
AcDbLine
 10
8.510801824
 20
9.5046903641
 30
0.0
 11
8.5171277226
 21
9.5046903641
 31
0.0
  0
LINE
  5
1B3
330
1F
100
AcDbEntity
  8
0
  6
Continuous
 62
     7
370
    25
100
AcDbLine
 10
8.839475928
 20
9.5046903641
 30
0.0
 11
8.8458018266
 21
9.5046903641
 31
0.0
  0
LINE
  5
1B4
330
1F
100
AcDbEntity
  8
0
  6
Continuous
 62
     7
370
    25
100
AcDbLine
 10
8.5124443801
 20
8.5516903399
 30
0.0
 11
8.5124527766
 21
8.5507433975
 31
0.0
  0
SPLINE
  5
1B5
330
1F
100
AcDbEntity
  8
0
  6
Continuous
 62
     7
370
    25
100
AcDbSpline
210
0.0
220
0.0
230
1.0
 70
     8
 71
     3
 72
     9
 73
     5
 74
     0
 42
0.000000001
 43
0.00000001
 40
0.0
 40
0.0
 40
0.0
 40
0.0
 40
0.8308270156808453
 40
1.0
 40
1.0
 40
1.0
 40
1.0
 10
8.512452776619728
 20
8.550743397474184
 30
0.0
 10
8.5151173185217
 20
8.550068759808422
 30
0.0
 10
8.518324414405297
 20
8.5492567524314
 30
0.0
 10
8.521544312241412
 20
8.549666084521508
 30
0.0
 10
8.522089031967552
 20
8.549735332452771
 30
0.0
  0
LINE
  5
1B6
330
1F
100
AcDbEntity
  8
0
  6
Continuous
 62
     7
370
    25
100
AcDbLine
 10
8.5341072181
 20
8.5516903399
 30
0.0
 11
8.5317449038
 21
8.5507041646
 31
0.0
  0
SPLINE
  5
1B7
330
1F
100
AcDbEntity
  8
0
  6
Continuous
 62
     7
370
    25
100
AcDbSpline
210
0.0
220
0.0
230
1.0
 70
     8
 71
     3
 72
     9
 73
     5
 74
     0
 42
0.000000001
 43
0.00000001
 40
0.0
 40
0.0
 40
0.0
 40
0.0
 40
0.4179756136713794
 40
1.0
 40
1.0
 40
1.0
 40
1.0
 10
8.53174490375543
 20
8.550704164594071
 30
0.0
 10
8.529089462461924
 20
8.550181731433904
 30
0.0
 10
8.522736361451603
 20
8.54893181841726
 30
0.0
 10
8.516361252420568
 20
8.55007692027067
 30
0.0
 10
8.512650783499003
 20
8.550743397474184
 30
0.0
  0
LINE
  5
1B8
330
1F
100
AcDbEntity
  8
0
  6
Continuous
 62
     7
370
    25
100
AcDbLine
 10
8.5001592728
 20
8.5516903399
 30
0.0
 11
8.5001508762
 21
8.5507433975
 31
0.0
  0
SPLINE
  5
1B9
330
1F
100
AcDbEntity
  8
0
  6
Continuous
 62
     7
370
    25
100
AcDbSpline
210
0.0
220
0.0
230
1.0
 70
     8
 71
     3
 72
     9
 73
     5
 74
     0
 42
0.000000001
 43
0.00000001
 40
0.0
 40
0.0
 40
0.0
 40
0.0
 40
0.4100495042766701
 40
0.9999999999999999
 40
0.9999999999999999
 40
0.9999999999999999
 40
0.9999999999999999
 10
8.500150876232333
 20
8.550743397474184
 30
0.0
 10
8.497484838734714
 20
8.550211088889814
 30
0.0
 10
8.490983093287367
 20
8.548912932011637
 30
0.0
 10
8.484455476265156
 20
8.550089317695535
 30
0.0
 10
8.48060450536701
 20
8.550783327012914
 30
0.0
  0
LINE
  5
1BA
330
1F
100
AcDbEntity
  8
0
  6
Continuous
 62
     7
370
    25
100
AcDbLine
 10
8.4806045054
 20
8.550783327
 30
0.0
 11
8.4787175688
 21
8.5516903399
 31
0.0
  0
LINE
  5
1BB
330
1F
100
AcDbEntity
  8
0
  6
Continuous
 62
     7
370
    25
100
AcDbLine
 10
8.5126507835
 20
8.5507433975
 30
0.0
 11
8.5126507835
 21
8.5516903399
 31
0.0
  0
LINE
  5
1BC
330
1F
100
AcDbEntity
  8
0
  6
Continuous
 62
     7
370
    25
100
AcDbLine
 10
8.5124527766
 20
8.5507433975
 30
0.0
 11
8.5124527766
 21
8.5516903399
 31
0.0
  0
LINE
  5
1BD
330
1F
100
AcDbEntity
  8
0
  6
Continuous
 62
     7
370
    25
100
AcDbLine
 10
8.856444387
 20
8.5516903399
 30
0.0
 11
8.8564527835
 21
8.5507433975
 31
0.0
  0
LINE
  5
1BE
330
1F
100
AcDbEntity
  8
0
  6
Continuous
 62
     7
370
    25
100
AcDbLine
 10
8.8781072067
 20
8.5516903399
 30
0.0
 11
8.8757449107
 21
8.5507041646
 31
0.0
  0
SPLINE
  5
1BF
330
1F
100
AcDbEntity
  8
0
  6
Continuous
 62
     7
370
    25
100
AcDbSpline
210
0.0
220
0.0
230
1.0
 70
     8
 71
     3
 72
     9
 73
     5
 74
     0
 42
0.000000001
 43
0.00000001
 40
0.0
 40
0.0
 40
0.0
 40
0.0
 40
0.4179757510666886
 40
0.9999999999999999
 40
0.9999999999999999
 40
0.9999999999999999
 40
0.9999999999999999
 10
8.875744910671328
 20
8.550704164594071
 30
0.0
 10
8.87308946599846
 20
8.550181731354487
 30
0.0
 10
8.866736358991435
 20
8.548931818558708
 30
0.0
 10
8.860361249539165
 20
8.550076920422157
 30
0.0
 10
8.85665078124834
 20
8.550743397474184
 30
0.0
  0
LINE
  5
1C0
330
1F
100
AcDbEntity
  8
0
  6
Continuous
 62
     7
370
    25
100
AcDbLine
 10
8.8441592706
 20
8.5516903399
 30
0.0
 11
8.844150874
 21
8.5507433975
 31
0.0
  0
SPLINE
  5
1C1
330
1F
100
AcDbEntity
  8
0
  6
Continuous
 62
     7
370
    25
100
AcDbSpline
210
0.0
220
0.0
230
1.0
 70
     8
 71
     3
 72
     9
 73
     5
 74
     0
 42
0.000000001
 43
0.00000001
 40
0.0
 40
0.0
 40
0.0
 40
0.0
 40
0.4100495042766701
 40
0.9999999999999999
 40
0.9999999999999999
 40
0.9999999999999999
 40
0.9999999999999999
 10
8.84415087398167
 20
8.550743397474184
 30
0.0
 10
8.841484836484051
 20
8.550211088889814
 30
0.0
 10
8.834983091036705
 20
8.548912932011637
 30
0.0
 10
8.828455474014493
 20
8.550089317695535
 30
0.0
 10
8.824604503116348
 20
8.550783327012914
 30
0.0
  0
LINE
  5
1C2
330
1F
100
AcDbEntity
  8
0
  6
Continuous
 62
     7
370
    25
100
AcDbLine
 10
8.8246045031
 20
8.550783327
 30
0.0
 11
8.8227175666
 21
8.5516903399
 31
0.0
  0
LINE
  5
1C3
330
1F
100
AcDbEntity
  8
0
  6
Continuous
 62
     7
370
    25
100
AcDbLine
 10
8.8566507812
 20
8.5507433975
 30
0.0
 11
8.8566507812
 21
8.5516903399
 31
0.0
  0
LINE
  5
1C4
330
1F
100
AcDbEntity
  8
0
  6
Continuous
 62
     7
370
    25
100
AcDbLine
 10
8.8564527835
 20
8.5507433975
 30
0.0
 11
8.8564527835
 21
8.5516903399
 31
0.0
  0
LINE
  5
1C5
330
1F
100
AcDbEntity
  8
0
  6
Continuous
 62
     7
370
    25
100
AcDbLine
 10
8.3885134592
 20
8.6296903288
 30
0.0
 11
8.3857896523
 21
8.5516903399
 31
0.0
  0
LINE
  5
1C6
330
1F
100
AcDbEntity
  8
0
  6
Continuous
 62
     7
370
    25
100
AcDbLine
 10
8.3857896523
 20
8.5516903399
 30
0.0
 11
8.3658018199
 21
8.5516903399
 31
0.0
  0
LINE
  5
1C7
330
1F
100
AcDbEntity
  8
0
  6
Continuous
 62
     7
370
    25
100
AcDbLine
 10
8.3658018199
 20
8.5516903399
 30
0.0
 11
8.3685256451
 21
8.6296903288
 31
0.0
  0
LINE
  5
1C8
330
1F
100
AcDbEntity
  8
0
  6
Continuous
 62
     7
370
    25
100
AcDbLine
 10
8.9880780147
 20
8.6296903288
 30
0.0
 11
8.9908018399
 21
8.5516903399
 31
0.0
  0
LINE
  5
1C9
330
1F
100
AcDbEntity
  8
0
  6
Continuous
 62
     7
370
    25
100
AcDbLine
 10
8.9908018399
 20
8.5516903399
 30
0.0
 11
8.9708140074
 21
8.5516903399
 31
0.0
  0
LINE
  5
1CA
330
1F
100
AcDbEntity
  8
0
  6
Continuous
 62
     7
370
    25
100
AcDbLine
 10
8.9708140074
 20
8.5516903399
 30
0.0
 11
8.9680901822
 21
8.6296903288
 31
0.0
  0
LINE
  5
1CB
330
1F
100
AcDbEntity
  8
0
  6
Continuous
 62
     7
370
    25
100
AcDbLine
 10
8.9708140074
 20
8.5516903399
 30
0.0
 11
8.3857896523
 21
8.5516903399
 31
0.0
  0
LINE
  5
1CC
330
1F
100
AcDbEntity
  8
0
  6
Continuous
 62
     7
370
    25
100
AcDbLine
 10
8.9319482664
 20
8.8797044308
 30
0.0
 11
8.9370510708
 21
8.6721903362
 31
0.0
  0
LINE
  5
1CD
330
1F
100
AcDbEntity
  8
0
  6
Continuous
 62
     7
370
    25
100
AcDbLine
 10
8.419552589
 20
8.6721903362
 30
0.0
 11
8.4246553934
 21
8.8797044308
 31
0.0
  0
LWPOLYLINE
  5
1CE
330
1F
100
AcDbEntity
  8
0
  6
Continuous
 62
     7
370
    25
100
AcDbPolyline
 90
        3
 70
   128
 43
0.0
 10
8.4246553934
 20
8.8797044308
 10
8.4262703397
 20
8.9027169098
 10
8.4283018329
 20
8.9167733266
  0
LWPOLYLINE
  5
1CF
330
1F
100
AcDbEntity
  8
0
  6
Continuous
 62
     7
370
    25
100
AcDbPolyline
 90
        3
 70
   128
 43
0.0
 10
8.9283018269
 20
8.9167733266
 10
8.9303333201
 20
8.9027169098
 10
8.9319482664
 20
8.8797044308
  0
ARC
  5
1D0
330
1F
100
AcDbEntity
  8
0
  6
Continuous
 62
     7
370
    25
100
AcDbCircle
 10
8.6783018286
 20
8.8734672225
 30
0.0
 40
0.2562231140813106
100
AcDbArc
 50
1.4086287353
 51
12.6536351113
  0
ARC
  5
1D1
330
1F
100
AcDbEntity
  8
0
  6
Continuous
 62
     7
370
    25
100
AcDbCircle
 10
8.6783018286
 20
8.8734672225
 30
0.0
 40
0.2562231140813106
100
AcDbArc
 50
167.3463648887
 51
178.5913712647
  0
ARC
  5
1D2
330
1F
100
AcDbEntity
  8
0
  6
Continuous
 62
     7
370
    25
100
AcDbCircle
 10
8.6975518286
 20
8.7926935834
 30
0.0
 40
0.0062500000000004
100
AcDbArc
 50
149.9341924024
 51
55.019707179
  0
LINE
  5
1D3
330
1F
100
AcDbEntity
  8
0
  6
Continuous
 62
     7
370
    25
100
AcDbLine
 10
8.6845518294
 20
8.7949204284
 30
0.0
 11
8.6845518294
 21
8.7826935838
 31
0.0
  0
LINE
  5
1D4
330
1F
100
AcDbEntity
  8
0
  6
Continuous
 62
     7
370
    25
100
AcDbLine
 10
8.6720518281
 20
8.7826935838
 30
0.0
 11
8.6720518281
 21
8.7949204284
 31
0.0
  0
LINE
  5
1D5
330
1F
100
AcDbEntity
  8
0
  6
Continuous
 62
     7
370
    25
100
AcDbLine
 10
8.6505518288
 20
8.7826935838
 30
0.0
 11
8.6720518281
 21
8.7826935838
 31
0.0
  0
ARC
  5
1D6
330
1F
100
AcDbEntity
  8
0
  6
Continuous
 62
     7
370
    25
100
AcDbCircle
 10
8.6254657497
 20
8.7758606743
 30
0.0
 40
0.0260000000000011
100
AcDbArc
 50
15.2365185131
 51
63.0297000083
  0
ARC
  5
1D7
330
1F
100
AcDbEntity
  8
0
  6
Continuous
 62
     7
370
    25
100
AcDbCircle
 10
8.6783018286
 20
8.8796903366
 30
0.0
 40
0.090500000000001
100
AcDbArc
 50
296.9702999917
 51
243.0297000083
  0
ARC
  5
1D8
330
1F
100
AcDbEntity
  8
0
  6
Continuous
 62
     7
370
    25
100
AcDbCircle
 10
8.7311379074
 20
8.7758606743
 30
0.0
 40
0.0260000000000011
100
AcDbArc
 50
116.9702999917
 51
164.7634814869
  0
LINE
  5
1D9
330
1F
100
AcDbEntity
  8
0
  6
Continuous
 62
     7
370
    25
100
AcDbLine
 10
8.6845518294
 20
8.7826935838
 30
0.0
 11
8.7060518281
 21
8.7826935838
 31
0.0
  0
ARC
  5
1DA
330
1F
100
AcDbEntity
  8
0
  6
Continuous
 62
     7
370
    25
100
AcDbCircle
 10
8.6590518286
 20
8.7926935834
 30
0.0
 40
0.0062500000000005
100
AcDbArc
 50
270.0
 51
30.0658075976
  0
ARC
  5
1DB
330
1F
100
AcDbEntity
  8
0
  6
Continuous
 62
     7
370
    25
100
AcDbCircle
 10
8.6590518286
 20
8.7926935834
 30
0.0
 40
0.0062500000000004
100
AcDbArc
 50
124.980292821
 51
270.0
  0
CIRCLE
  5
1DC
330
1F
100
AcDbEntity
  8
0
  6
Continuous
 62
     7
370
    25
100
AcDbCircle
 10
8.6783018286
 20
8.8796903366
 30
0.0
 40
0.0475000000000006
  0
SPLINE
  5
1DD
330
1F
100
AcDbEntity
  8
0
  6
Continuous
 62
     7
370
    25
100
AcDbSpline
210
0.0
220
0.0
230
1.0
 70
     8
 71
     3
 72
    11
 73
     7
 74
     0
 42
0.000000001
 43
0.00000001
 40
0.0
 40
0.0
 40
0.0
 40
0.0
 40
0.1261045066948542
 40
0.4790252644494917
 40
0.8148249330159841
 40
1.0
 40
1.0
 40
1.0
 40
1.0
 10
8.718547294131609
 20
8.900057163421751
 30
0.0
 10
8.717055898909937
 20
8.90103153041997
 30
0.0
 10
8.711390629609227
 20
8.904732797101282
 30
0.0
 10
8.700747494867196
 20
8.911686231059203
 30
0.0
 10
8.689178658047078
 20
8.919244449561639
 30
0.0
 10
8.682987098946674
 20
8.923289556956089
 30
0.0
 10
8.680786373473987
 20
8.924727348429668
 30
0.0
  0
SPLINE
  5
1DE
330
1F
100
AcDbEntity
  8
0
  6
Continuous
 62
     7
370
    25
100
AcDbSpline
210
0.0
220
0.0
230
1.0
 70
     8
 71
     3
 72
    11
 73
     7
 74
     0
 42
0.000000001
 43
0.00000001
 40
0.0
 40
0.0
 40
0.0
 40
0.0
 40
0.1851750580809291
 40
0.5209747782852743
 40
0.8738955262244019
 40
1.0
 40
1.0
 40
1.0
 40
1.0
 10
8.638056361053069
 20
8.85932350991789
 30
0.0
 10
8.640257086986567
 20
8.857885719325852
 30
0.0
 10
8.646448648188986
 20
8.853840613885238
 30
0.0
 10
8.658017485188228
 20
8.846282394107794
 30
0.0
 10
8.668660620324575
 20
8.839328959612873
 30
0.0
 10
8.674325889159544
 20
8.835627693802996
 30
0.0
 10
8.675817284002333
 20
8.834653327201615
 30
0.0
  0
SPLINE
  5
1DF
330
1F
100
AcDbEntity
  8
0
  6
Continuous
 62
     7
370
    25
100
AcDbSpline
210
0.0
220
0.0
230
1.0
 70
     8
 71
     3
 72
    11
 73
     7
 74
     0
 42
0.000000001
 43
0.00000001
 40
0.0
 40
0.0
 40
0.0
 40
0.0
 40
0.2164524080549857
 40
0.4403053918008509
 40
0.7518956624041311
 40
1.0
 40
1.0
 40
1.0
 40
1.0
 10
8.675817284002333
 20
8.834653327201615
 30
0.0
 10
8.678574103910236
 20
8.836048457240908
 30
0.0
 10
8.68418200026298
 20
8.83888641725292
 30
0.0
 10
8.694588775016003
 20
8.8441529238548
 30
0.0
 10
8.705752100311505
 20
8.84980229386864
 30
0.0
 10
8.712895977700143
 20
8.85341755958594
 30
0.0
 10
8.716062752833242
 20
8.855020153380634
 30
0.0
  0
SPLINE
  5
1E0
330
1F
100
AcDbEntity
  8
0
  6
Continuous
 62
     7
370
    25
100
AcDbSpline
210
0.0
220
0.0
230
1.0
 70
     8
 71
     3
 72
    11
 73
     7
 74
     0
 42
0.000000001
 43
0.00000001
 40
0.0
 40
0.0
 40
0.0
 40
0.0
 40
0.2164524280201826
 40
0.4403054381065383
 40
0.7518957111097265
 40
1.0
 40
1.0
 40
1.0
 40
1.0
 10
8.680786373473987
 20
8.924727348429668
 30
0.0
 10
8.678029553629477
 20
8.923332217486303
 30
0.0
 10
8.672421657333187
 20
8.920494255598543
 30
0.0
 10
8.662014881731544
 20
8.915227748967244
 30
0.0
 10
8.650851555708549
 20
8.909578380696896
 30
0.0
 10
8.643707679873595
 20
8.905963114004106
 30
0.0
 10
8.640540905788898
 20
8.904360519959008
 30
0.0
  0
SPLINE
  5
1E1
330
1F
100
AcDbEntity
  8
0
  6
Continuous
 62
     7
370
    25
100
AcDbSpline
210
0.0
220
0.0
230
1.0
 70
     8
 71
     3
 72
    11
 73
     7
 74
     0
 42
0.000000001
 43
0.00000001
 40
0.0
 40
0.0
 40
0.0
 40
0.0
 40
0.2164523956767117
 40
0.4403054145075403
 40
0.7518956968435149
 40
1.0
 40
1.0
 40
1.0
 40
1.0
 10
8.716062752833242
 20
8.855020153380634
 30
0.0
 10
8.716232944065231
 20
8.85810519417807
 30
0.0
 10
8.71657914545844
 20
8.864380754967504
 30
0.0
 10
8.717221604455261
 20
8.876026539872461
 30
0.0
 10
8.717910771647047
 20
8.888518947932253
 30
0.0
 10
8.718351795017046
 20
8.896513359445393
 30
0.0
 10
8.718547294131609
 20
8.900057163421751
 30
0.0
  0
SPLINE
  5
1E2
330
1F
100
AcDbEntity
  8
0
  6
Continuous
 62
     7
370
    25
100
AcDbSpline
210
0.0
220
0.0
230
1.0
 70
     8
 71
     3
 72
    11
 73
     7
 74
     0
 42
0.000000001
 43
0.00000001
 40
0.0
 40
0.0
 40
0.0
 40
0.0
 40
0.2164523958539366
 40
0.440305437459202
 40
0.7518957169293246
 40
0.9999999999999999
 40
0.9999999999999999
 40
0.9999999999999999
 40
0.9999999999999999
 10
8.640540905788898
 20
8.904360519959008
 30
0.0
 10
8.640370714106002
 20
8.901275479166243
 30
0.0
 10
8.640024511777801
 20
8.894999918064322
 30
0.0
 10
8.639382052657375
 20
8.88335413272735
 30
0.0
 10
8.638692888482442
 20
8.87086172441137
 30
0.0
 10
8.638251861680953
 20
8.862867313490245
 30
0.0
 10
8.638056361053069
 20
8.85932350991789
 30
0.0
  0
CIRCLE
  5
1E3
330
1F
100
AcDbEntity
  8
0
  6
Continuous
 62
     7
370
    25
100
AcDbCircle
 10
8.6783018286
 20
8.8796903366
 30
0.0
 40
0.0850000000000015
  0
LINE
  5
1E4
330
1F
100
AcDbEntity
  8
0
  6
Continuous
 62
     7
370
    25
100
AcDbLine
 10
8.4283018329
 20
8.6296903288
 30
0.0
 11
8.9283018269
 21
8.6296903288
 31
0.0
  0
LINE
  5
1E5
330
1F
100
AcDbEntity
  8
0
  6
Continuous
 62
     7
370
    25
100
AcDbLine
 10
8.4283018329
 20
9.1296903411
 30
0.0
 11
8.4283018329
 21
8.6296903288
 31
0.0
  0
LINE
  5
1E6
330
1F
100
AcDbEntity
  8
0
  6
Continuous
 62
     7
370
    25
100
AcDbLine
 10
8.9283018269
 20
9.1296903411
 30
0.0
 11
8.4283018329
 21
9.1296903411
 31
0.0
  0
LINE
  5
1E7
330
1F
100
AcDbEntity
  8
0
  6
Continuous
 62
     7
370
    25
100
AcDbLine
 10
8.9283018269
 20
8.6296903288
 30
0.0
 11
8.9283018269
 21
9.1296903411
 31
0.0
  0
LINE
  5
1E8
330
1F
100
AcDbEntity
  8
0
  6
Continuous
 62
     7
370
    25
100
AcDbLine
 10
8.9908018399
 20
9.1921903541
 30
0.0
 11
8.3658018199
 21
9.1921903541
 31
0.0
  0
LINE
  5
1E9
330
1F
100
AcDbEntity
  8
0
  6
Continuous
 62
     7
370
    25
100
AcDbLine
 10
8.9908018399
 20
8.6296903288
 30
0.0
 11
8.9908018399
 21
9.1921903541
 31
0.0
  0
LINE
  5
1EA
330
1F
100
AcDbEntity
  8
0
  6
Continuous
 62
     7
370
    25
100
AcDbLine
 10
8.9279518292
 20
8.6296903288
 30
0.0
 11
8.9908018399
 21
8.6296903288
 31
0.0
  0
LINE
  5
1EB
330
1F
100
AcDbEntity
  8
0
  6
Continuous
 62
     7
370
    25
100
AcDbLine
 10
8.9279518292
 20
8.6721903362
 30
0.0
 11
8.9279518292
 21
8.6296903288
 31
0.0
  0
LINE
  5
1EC
330
1F
100
AcDbEntity
  8
0
  6
Continuous
 62
     7
370
    25
100
AcDbLine
 10
8.9395518369
 20
8.6721903362
 30
0.0
 11
8.9279518292
 21
8.6721903362
 31
0.0
  0
LINE
  5
1ED
330
1F
100
AcDbEntity
  8
0
  6
Continuous
 62
     7
370
    25
100
AcDbLine
 10
8.4286518305
 20
8.6721903362
 30
0.0
 11
8.4170518229
 21
8.6721903362
 31
0.0
  0
LINE
  5
1EE
330
1F
100
AcDbEntity
  8
0
  6
Continuous
 62
     7
370
    25
100
AcDbLine
 10
8.4286518305
 20
8.6296903288
 30
0.0
 11
8.4286518305
 21
8.6721903362
 31
0.0
  0
LINE
  5
1EF
330
1F
100
AcDbEntity
  8
0
  6
Continuous
 62
     7
370
    25
100
AcDbLine
 10
8.3658018199
 20
8.6296903288
 30
0.0
 11
8.4286518305
 21
8.6296903288
 31
0.0
  0
LINE
  5
1F0
330
1F
100
AcDbEntity
  8
0
  6
Continuous
 62
     7
370
    25
100
AcDbLine
 10
8.3658018199
 20
9.1921903541
 30
0.0
 11
8.3658018199
 21
8.6296903288
 31
0.0
  0
LINE
  5
1F1
330
1F
100
AcDbEntity
  8
0
  6
Continuous
 62
     7
370
    25
100
AcDbLine
 10
8.4170518229
 20
8.6721903362
 30
0.0
 11
8.4283018329
 21
9.1296903411
 31
0.0
  0
LINE
  5
1F2
330
1F
100
AcDbEntity
  8
0
  6
Continuous
 62
     7
370
    25
100
AcDbLine
 10
8.9283018269
 20
9.1296903411
 30
0.0
 11
8.9395518369
 21
8.6721903362
 31
0.0
  0
LINE
  5
1F3
330
1F
100
AcDbEntity
  8
0
  6
Continuous
 62
     7
370
    25
100
AcDbLine
 10
8.4908018276
 20
1.5472385925
 30
0.0
 11
8.510801824
 21
1.5272385502
 31
0.0
  0
LINE
  5
1F4
330
1F
100
AcDbEntity
  8
0
  6
Continuous
 62
     7
370
    25
100
AcDbLine
 10
8.8458018266
 20
1.5272385502
 30
0.0
 11
8.8658018322
 21
1.5472385925
 31
0.0
  0
LINE
  5
1F5
330
1F
100
AcDbEntity
  8
0
  6
Continuous
 62
     7
370
    25
100
AcDbLine
 10
8.510801824
 20
1.8397385602
 30
0.0
 11
8.4908018276
 21
1.8197385912
 31
0.0
  0
LINE
  5
1F6
330
1F
100
AcDbEntity
  8
0
  6
Continuous
 62
     7
370
    25
100
AcDbLine
 10
8.8658018322
 20
1.8197385912
 30
0.0
 11
8.8458018266
 21
1.8397385602
 31
0.0
  0
LINE
  5
1F7
330
1F
100
AcDbEntity
  8
0
  6
Continuous
 62
     7
370
    25
100
AcDbLine
 10
8.6372036234
 20
1.5272385502
 30
0.0
 11
8.5582259337
 21
1.5272385502
 31
0.0
  0
SPLINE
  5
1F8
330
1F
100
AcDbEntity
  8
0
  6
Continuous
 62
     7
370
    25
100
AcDbSpline
210
0.0
220
0.0
230
1.0
 70
     8
 71
     3
 72
    10
 73
     6
 74
     0
 42
0.000000001
 43
0.00000001
 40
0.0
 40
0.0
 40
0.0
 40
0.0
 40
0.4663128870312283
 40
0.9370837849220517
 40
1.0
 40
1.0
 40
1.0
 40
1.0
 10
8.584551828725326
 20
1.547238592512772
 30
0.0
 10
8.580586533376074
 20
1.54348676909693
 30
0.0
 10
8.572618033946716
 20
1.535947254353387
 30
0.0
 10
8.563665496040988
 20
1.52997827148431
 30
0.0
 10
8.558799575592623
 20
1.527527474007528
 30
0.0
 10
8.558225933677646
 20
1.527238550221634
 30
0.0
  0
SPLINE
  5
1F9
330
1F
100
AcDbEntity
  8
0
  6
Continuous
 62
     7
370
    25
100
AcDbSpline
210
0.0
220
0.0
230
1.0
 70
     8
 71
     3
 72
    10
 73
     6
 74
     0
 42
0.000000001
 43
0.00000001
 40
0.0
 40
0.0
 40
0.0
 40
0.0
 40
0.0706212407270104
 40
0.5327004740314124
 40
0.9999999999999999
 40
0.9999999999999999
 40
0.9999999999999999
 40
0.9999999999999999
 10
8.637203623403968
 20
1.527238550221634
 30
0.0
 10
8.635916045075133
 20
1.527563773870857
 30
0.0
 10
8.62620376051228
 20
1.530016956374074
 30
0.0
 10
8.6083063298133
 20
1.536002583998677
 30
0.0
 10
8.592499591080713
 20
1.543479257590838
 30
0.0
 10
8.584551828725326
 20
1.547238592512772
 30
0.0
  0
SPLINE
  5
1FA
330
1F
100
AcDbEntity
  8
0
  6
Continuous
 62
     7
370
    25
100
AcDbSpline
210
0.0
220
0.0
230
1.0
 70
     8
 71
     3
 72
    10
 73
     6
 74
     0
 42
0.000000001
 43
0.00000001
 40
0.0
 40
0.0
 40
0.0
 40
0.0
 40
0.168995397274946
 40
0.5826962194202674
 40
1.0
 40
1.0
 40
1.0
 40
1.0
 10
8.584551828725326
 20
1.8197385912362
 30
0.0
 10
8.587407050776719
 20
1.821133640532814
 30
0.0
 10
8.597251857924013
 20
1.825943771247317
 30
0.0
 10
8.61459596313058
 20
1.833337128805071
 30
0.0
 10
8.629645986021792
 20
1.837598590972659
 30
0.0
 10
8.637203623403968
 20
1.839738560194852
 30
0.0
  0
SPLINE
  5
1FB
330
1F
100
AcDbEntity
  8
0
  6
Continuous
 62
     7
370
    25
100
AcDbSpline
210
0.0
220
0.0
230
1.0
 70
     8
 71
     3
 72
    10
 73
     6
 74
     0
 42
0.000000001
 43
0.00000001
 40
0.0
 40
0.0
 40
0.0
 40
0.0
 40
0.0706209060173419
 40
0.5327005604310612
 40
0.9999999999999999
 40
0.9999999999999999
 40
0.9999999999999999
 40
0.9999999999999999
 10
8.719400036363991
 20
1.839738560194852
 30
0.0
 10
8.720687614414672
 20
1.839413362817882
 30
0.0
 10
8.730399944486281
 20
1.836960366464084
 30
0.0
 10
8.748297298788044
 20
1.830974489940498
 30
0.0
 10
8.764104061142021
 20
1.823497888054646
 30
0.0
 10
8.772051831042633
 20
1.8197385912362
 30
0.0
  0
LINE
  5
1FC
330
1F
100
AcDbEntity
  8
0
  6
Continuous
 62
     7
370
    25
100
AcDbLine
 10
8.772051831
 20
1.8197385912
 30
0.0
 11
8.772051831
 21
1.5472385925
 31
0.0
  0
SPLINE
  5
1FD
330
1F
100
AcDbEntity
  8
0
  6
Continuous
 62
     7
370
    25
100
AcDbSpline
210
0.0
220
0.0
230
1.0
 70
     8
 71
     3
 72
    10
 73
     6
 74
     0
 42
0.000000001
 43
0.00000001
 40
0.0
 40
0.0
 40
0.0
 40
0.0
 40
0.1689958765990453
 40
0.582696240071104
 40
1.0
 40
1.0
 40
1.0
 40
1.0
 10
8.772051831042633
 20
1.547238592512772
 30
0.0
 10
8.76919661096549
 20
1.545843514502745
 30
0.0
 10
8.759351838199384
 20
1.541033298257189
 30
0.0
 10
8.742007674284604
 20
1.533640050664215
 30
0.0
 10
8.726957668926733
 20
1.529378543279075
 30
0.0
 10
8.719400036363991
 20
1.527238550221634
 30
0.0
  0
LINE
  5
1FE
330
1F
100
AcDbEntity
  8
0
  6
Continuous
 62
     7
370
    25
100
AcDbLine
 10
8.5845518287
 20
1.8197385912
 30
0.0
 11
8.5845518287
 21
1.5472385925
 31
0.0
  0
LINE
  5
1FF
330
1F
100
AcDbEntity
  8
0
  6
Continuous
 62
     7
370
    25
100
AcDbLine
 10
8.7194000364
 20
1.5272385502
 30
0.0
 11
8.6372036234
 21
1.5272385502
 31
0.0
  0
SPLINE
  5
200
330
1F
100
AcDbEntity
  8
0
  6
Continuous
 62
     7
370
    25
100
AcDbSpline
210
0.0
220
0.0
230
1.0
 70
     8
 71
     3
 72
    10
 73
     6
 74
     0
 42
0.000000001
 43
0.00000001
 40
0.0
 40
0.0
 40
0.0
 40
0.0
 40
0.4663136603945777
 40
0.9370841502922099
 40
1.0
 40
1.0
 40
1.0
 40
1.0
 10
8.490801827566672
 20
1.8197385912362
 30
0.0
 10
8.494767127688453
 20
1.823490391630304
 30
0.0
 10
8.502735626599952
 20
1.831029850546005
 30
0.0
 10
8.511688137125105
 20
1.836999074413983
 30
0.0
 10
8.516554080496968
 20
1.839449662368539
 30
0.0
 10
8.517127722614354
 20
1.839738560194852
 30
0.0
  0
SPLINE
  5
201
330
1F
100
AcDbEntity
  8
0
  6
Continuous
 62
     7
370
    25
100
AcDbSpline
210
0.0
220
0.0
230
1.0
 70
     8
 71
     3
 72
     9
 73
     5
 74
     0
 42
0.000000001
 43
0.00000001
 40
0.0
 40
0.0
 40
0.0
 40
0.0
 40
0.5135310495040708
 40
1.0
 40
1.0
 40
1.0
 40
1.0
 10
8.558225933677646
 20
1.839738560194852
 30
0.0
 10
8.562874031901307
 20
1.83705785223373
 30
0.0
 10
8.571925282508548
 20
1.831837704467181
 30
0.0
 10
8.580419604715928
 20
1.823698204999705
 30
0.0
 10
8.584551828725326
 20
1.8197385912362
 30
0.0
  0
SPLINE
  5
202
330
1F
100
AcDbEntity
  8
0
  6
Continuous
 62
     7
370
    25
100
AcDbSpline
210
0.0
220
0.0
230
1.0
 70
     8
 71
     3
 72
     9
 73
     5
 74
     0
 42
0.000000001
 43
0.00000001
 40
0.0
 40
0.0
 40
0.0
 40
0.0
 40
0.5135302493975022
 40
0.9999999999999999
 40
0.9999999999999999
 40
0.9999999999999999
 40
0.9999999999999999
 10
8.517127722614354
 20
1.527238550221634
 30
0.0
 10
8.51247962084162
 20
1.529919255194498
 30
0.0
 10
8.503428349220941
 20
1.535139405275256
 30
0.0
 10
8.494934048109767
 20
1.543278950148343
 30
0.0
 10
8.490801827566672
 20
1.547238592512772
 30
0.0
  0
LINE
  5
203
330
1F
100
AcDbEntity
  8
0
  6
Continuous
 62
     7
370
    25
100
AcDbLine
 10
8.4908018276
 20
1.8197385912
 30
0.0
 11
8.4908018276
 21
1.5472385925
 31
0.0
  0
LINE
  5
204
330
1F
100
AcDbEntity
  8
0
  6
Continuous
 62
     7
370
    25
100
AcDbLine
 10
8.5582259337
 20
1.5272385502
 30
0.0
 11
8.5171277226
 21
1.5272385502
 31
0.0
  0
SPLINE
  5
205
330
1F
100
AcDbEntity
  8
0
  6
Continuous
 62
     7
370
    25
100
AcDbSpline
210
0.0
220
0.0
230
1.0
 70
     8
 71
     3
 72
     9
 73
     5
 74
     0
 42
0.000000001
 43
0.00000001
 40
0.0
 40
0.0
 40
0.0
 40
0.0
 40
0.5135307773186227
 40
0.9999999999999999
 40
0.9999999999999999
 40
0.9999999999999999
 40
0.9999999999999999
 10
8.798377726090314
 20
1.527238550221634
 30
0.0
 10
8.793729626659303
 20
1.529919252794551
 30
0.0
 10
8.784678368903576
 20
1.535139392835454
 30
0.0
 10
8.776184053872845
 20
1.543278948968001
 30
0.0
 10
8.772051831042633
 20
1.547238592512772
 30
0.0
  0
LINE
  5
206
330
1F
100
AcDbEntity
  8
0
  6
Continuous
 62
     7
370
    25
100
AcDbLine
 10
8.7983777261
 20
1.5272385502
 30
0.0
 11
8.7194000364
 21
1.5272385502
 31
0.0
  0
SPLINE
  5
207
330
1F
100
AcDbEntity
  8
0
  6
Continuous
 62
     7
370
    25
100
AcDbSpline
210
0.0
220
0.0
230
1.0
 70
     8
 71
     3
 72
    10
 73
     6
 74
     0
 42
0.000000001
 43
0.00000001
 40
0.0
 40
0.0
 40
0.0
 40
0.0
 40
0.4663130360416918
 40
0.9370840072453548
 40
1.0
 40
1.0
 40
1.0
 40
1.0
 10
8.772051831042633
 20
1.8197385912362
 30
0.0
 10
8.776017132152774
 20
1.823490393130044
 30
0.0
 10
8.783985642503177
 20
1.83102986400334
 30
0.0
 10
8.792938115386221
 20
1.836999077227322
 30
0.0
 10
8.797804080747467
 20
1.839449662379987
 30
0.0
 10
8.798377726090314
 20
1.839738560194852
 30
0.0
  0
SPLINE
  5
208
330
1F
100
AcDbEntity
  8
0
  6
Continuous
 62
     7
370
    25
100
AcDbSpline
210
0.0
220
0.0
230
1.0
 70
     8
 71
     3
 72
     9
 73
     5
 74
     0
 42
0.000000001
 43
0.00000001
 40
0.0
 40
0.0
 40
0.0
 40
0.0
 40
0.5135305592346444
 40
1.0
 40
1.0
 40
1.0
 40
1.0
 10
8.839475927987046
 20
1.839738560194852
 30
0.0
 10
8.844124032225492
 20
1.837057850004963
 30
0.0
 10
8.85317530318661
 20
1.831837692914635
 30
0.0
 10
8.861669611019924
 20
1.823698203903542
 30
0.0
 10
8.865801832201287
 20
1.8197385912362
 30
0.0
  0
LINE
  5
209
330
1F
100
AcDbEntity
  8
0
  6
Continuous
 62
     7
370
    25
100
AcDbLine
 10
8.8658018322
 20
1.8197385912
 30
0.0
 11
8.8658018322
 21
1.5472385925
 31
0.0
  0
SPLINE
  5
20A
330
1F
100
AcDbEntity
  8
0
  6
Continuous
 62
     7
370
    25
100
AcDbSpline
210
0.0
220
0.0
230
1.0
 70
     8
 71
     3
 72
    10
 73
     6
 74
     0
 42
0.000000001
 43
0.00000001
 40
0.0
 40
0.0
 40
0.0
 40
0.0
 40
0.4663134746745257
 40
0.9370838541991452
 40
1.0
 40
1.0
 40
1.0
 40
1.0
 10
8.865801832201287
 20
1.547238592512772
 30
0.0
 10
8.861836535702556
 20
1.543486770923343
 30
0.0
 10
8.853868043415975
 20
1.535947268793915
 30
0.0
 10
8.844915490217758
 20
1.529978271287499
 30
0.0
 10
8.840049569888034
 20
1.527527473986773
 30
0.0
 10
8.839475927987046
 20
1.527238550221634
 30
0.0
  0
LINE
  5
20B
330
1F
100
AcDbEntity
  8
0
  6
Continuous
 62
     7
370
    25
100
AcDbLine
 10
8.839475928
 20
1.5272385502
 30
0.0
 11
8.7983777261
 21
1.5272385502
 31
0.0
  0
LINE
  5
20C
330
1F
100
AcDbEntity
  8
0
  6
Continuous
 62
     7
370
    25
100
AcDbLine
 10
8.5171277226
 20
1.5272385502
 30
0.0
 11
8.510801824
 21
1.5272385502
 31
0.0
  0
LINE
  5
20D
330
1F
100
AcDbEntity
  8
0
  6
Continuous
 62
     7
370
    25
100
AcDbLine
 10
8.8458018266
 20
1.5272385502
 30
0.0
 11
8.839475928
 21
1.5272385502
 31
0.0
  0
SPLINE
  5
20E
330
1F
100
AcDbEntity
  8
0
  6
Continuous
 62
     7
370
    25
100
AcDbSpline
210
0.0
220
0.0
230
1.0
 70
     8
 71
     3
 72
     9
 73
     5
 74
     0
 42
0.000000001
 43
0.00000001
 40
0.0
 40
0.0
 40
0.0
 40
0.0
 40
0.4164575066495185
 40
1.0
 40
1.0
 40
1.0
 40
1.0
 10
8.82481020074011
 20
2.481212191503391
 30
0.0
 10
8.827462418290137
 20
2.481737787328162
 30
0.0
 10
8.833830937305112
 20
2.482999850843357
 30
0.0
 10
8.84022289647662
 20
2.481854107019344
 30
0.0
 10
8.843952876268956
 20
2.481185516811539
 30
0.0
  0
LINE
  5
20F
330
1F
100
AcDbEntity
  8
0
  6
Continuous
 62
     7
370
    25
100
AcDbLine
 10
8.856444387
 20
2.4802385744
 30
0.0
 11
8.8564527835
 21
2.4811855168
 31
0.0
  0
SPLINE
  5
210
330
1F
100
AcDbEntity
  8
0
  6
Continuous
 62
     7
370
    25
100
AcDbSpline
210
0.0
220
0.0
230
1.0
 70
     8
 71
     3
 72
     9
 73
     5
 74
     0
 42
0.000000001
 43
0.00000001
 40
0.0
 40
0.0
 40
0.0
 40
0.0
 40
0.4100495042766701
 40
0.9999999999999999
 40
0.9999999999999999
 40
0.9999999999999999
 40
0.9999999999999999
 10
8.856452783535628
 20
2.481185516811539
 30
0.0
 10
8.859118821033245
 20
2.481717825395909
 30
0.0
 10
8.865620566480592
 20
2.483015982274085
 30
0.0
 10
8.872148183502803
 20
2.481839596590186
 30
0.0
 10
8.875999154400949
 20
2.481145587272808
 30
0.0
  0
LINE
  5
211
330
1F
100
AcDbEntity
  8
0
  6
Continuous
 62
     7
370
    25
100
AcDbLine
 10
8.8759991544
 20
2.4811455873
 30
0.0
 11
8.8778860909
 21
2.4802385744
 31
0.0
  0
LINE
  5
212
330
1F
100
AcDbEntity
  8
0
  6
Continuous
 62
     7
370
    25
100
AcDbLine
 10
8.8441592706
 20
2.4802385744
 30
0.0
 11
8.844150874
 21
2.4811855168
 31
0.0
  0
LINE
  5
213
330
1F
100
AcDbEntity
  8
0
  6
Continuous
 62
     7
370
    25
100
AcDbLine
 10
8.8224827193
 20
2.4802385744
 30
0.0
 11
8.8248102007
 21
2.4812121915
 31
0.0
  0
LINE
  5
214
330
1F
100
AcDbEntity
  8
0
  6
Continuous
 62
     7
370
    25
100
AcDbLine
 10
8.8439528763
 20
2.4811855168
 30
0.0
 11
8.8439528763
 21
2.4802385744
 31
0.0
  0
LINE
  5
215
330
1F
100
AcDbEntity
  8
0
  6
Continuous
 62
     7
370
    25
100
AcDbLine
 10
8.844150874
 20
2.4811855168
 30
0.0
 11
8.844150874
 21
2.4802385744
 31
0.0
  0
SPLINE
  5
216
330
1F
100
AcDbEntity
  8
0
  6
Continuous
 62
     7
370
    25
100
AcDbSpline
210
0.0
220
0.0
230
1.0
 70
     8
 71
     3
 72
     9
 73
     5
 74
     0
 42
0.000000001
 43
0.00000001
 40
0.0
 40
0.0
 40
0.0
 40
0.0
 40
0.4164575066495185
 40
1.0
 40
1.0
 40
1.0
 40
1.0
 10
8.480810202990773
 20
2.481212191503391
 30
0.0
 10
8.4834624205408
 20
2.481737787328162
 30
0.0
 10
8.489830939555775
 20
2.482999850843357
 30
0.0
 10
8.496222898727282
 20
2.481854107019344
 30
0.0
 10
8.499952878519618
 20
2.481185516811539
 30
0.0
  0
LINE
  5
217
330
1F
100
AcDbEntity
  8
0
  6
Continuous
 62
     7
370
    25
100
AcDbLine
 10
8.5124443801
 20
2.4802385744
 30
0.0
 11
8.5124527766
 21
2.4811855168
 31
0.0
  0
SPLINE
  5
218
330
1F
100
AcDbEntity
  8
0
  6
Continuous
 62
     7
370
    25
100
AcDbSpline
210
0.0
220
0.0
230
1.0
 70
     8
 71
     3
 72
     9
 73
     5
 74
     0
 42
0.000000001
 43
0.00000001
 40
0.0
 40
0.0
 40
0.0
 40
0.0
 40
0.4100495042766701
 40
0.9999999999999999
 40
0.9999999999999999
 40
0.9999999999999999
 40
0.9999999999999999
 10
8.512452776619728
 20
2.481185516811539
 30
0.0
 10
8.515118814117347
 20
2.481717825395909
 30
0.0
 10
8.521620559564694
 20
2.483015982274085
 30
0.0
 10
8.528148176586905
 20
2.481839596590186
 30
0.0
 10
8.53199914748505
 20
2.481145587272808
 30
0.0
  0
LINE
  5
219
330
1F
100
AcDbEntity
  8
0
  6
Continuous
 62
     7
370
    25
100
AcDbLine
 10
8.5319991475
 20
2.4811455873
 30
0.0
 11
8.5338860932
 21
2.4802385744
 31
0.0
  0
LINE
  5
21A
330
1F
100
AcDbEntity
  8
0
  6
Continuous
 62
     7
370
    25
100
AcDbLine
 10
8.5001592728
 20
2.4802385744
 30
0.0
 11
8.5001508762
 21
2.4811855168
 31
0.0
  0
SPLINE
  5
21B
330
1F
100
AcDbEntity
  8
0
  6
Continuous
 62
     7
370
    25
100
AcDbSpline
210
0.0
220
0.0
230
1.0
 70
     8
 71
     3
 72
     9
 73
     5
 74
     0
 42
0.000000001
 43
0.00000001
 40
0.0
 40
0.0
 40
0.0
 40
0.0
 40
0.8279404620525849
 40
1.0
 40
1.0
 40
1.0
 40
1.0
 10
8.500150876232333
 20
2.481185516811539
 30
0.0
 10
8.497486304851387
 20
2.481859175248535
 30
0.0
 10
8.494267992058292
 20
2.482672830901172
 30
0.0
 10
8.491036916904504
 20
2.482260901576621
 30
0.0
 10
8.490480979606469
 20
2.482190025207372
 30
0.0
  0
LINE
  5
21C
330
1F
100
AcDbEntity
  8
0
  6
Continuous
 62
     7
370
    25
100
AcDbLine
 10
8.4784827215
 20
2.4802385744
 30
0.0
 11
8.480810203
 21
2.4812121915
 31
0.0
  0
LINE
  5
21D
330
1F
100
AcDbEntity
  8
0
  6
Continuous
 62
     7
370
    25
100
AcDbLine
 10
8.4999528785
 20
2.4811855168
 30
0.0
 11
8.4999528785
 21
2.4802385744
 31
0.0
  0
LINE
  5
21E
330
1F
100
AcDbEntity
  8
0
  6
Continuous
 62
     7
370
    25
100
AcDbLine
 10
8.5001508762
 20
2.4811855168
 30
0.0
 11
8.5001508762
 21
2.4802385744
 31
0.0
  0
LINE
  5
21F
330
1F
100
AcDbEntity
  8
0
  6
Continuous
 62
     7
370
    25
100
AcDbLine
 10
8.3685256451
 20
2.4022385855
 30
0.0
 11
8.3658018199
 21
2.4802385744
 31
0.0
  0
LINE
  5
220
330
1F
100
AcDbEntity
  8
0
  6
Continuous
 62
     7
370
    25
100
AcDbLine
 10
8.3658018199
 20
2.4802385744
 30
0.0
 11
8.3857896523
 21
2.4802385744
 31
0.0
  0
LINE
  5
221
330
1F
100
AcDbEntity
  8
0
  6
Continuous
 62
     7
370
    25
100
AcDbLine
 10
8.3857896523
 20
2.4802385744
 30
0.0
 11
8.3885134592
 21
2.4022385855
 31
0.0
  0
LINE
  5
222
330
1F
100
AcDbEntity
  8
0
  6
Continuous
 62
     7
370
    25
100
AcDbLine
 10
8.9680901822
 20
2.4022385855
 30
0.0
 11
8.9708140074
 21
2.4802385744
 31
0.0
  0
LINE
  5
223
330
1F
100
AcDbEntity
  8
0
  6
Continuous
 62
     7
370
    25
100
AcDbLine
 10
8.3857896523
 20
2.4802385744
 30
0.0
 11
8.9708140074
 21
2.4802385744
 31
0.0
  0
LINE
  5
224
330
1F
100
AcDbEntity
  8
0
  6
Continuous
 62
     7
370
    25
100
AcDbLine
 10
8.9908018399
 20
2.4802385744
 30
0.0
 11
8.9880780147
 21
2.4022385855
 31
0.0
  0
LINE
  5
225
330
1F
100
AcDbEntity
  8
0
  6
Continuous
 62
     7
370
    25
100
AcDbLine
 10
8.9708140074
 20
2.4802385744
 30
0.0
 11
8.9908018399
 21
2.4802385744
 31
0.0
  0
ARC
  5
226
330
1F
100
AcDbEntity
  8
0
  6
Continuous
 62
     7
370
    25
100
AcDbCircle
 10
8.6783018286
 20
2.1584616918
 30
0.0
 40
0.2562231140813105
100
AcDbArc
 50
347.3463648887
 51
358.5913712647
  0
ARC
  5
227
330
1F
100
AcDbEntity
  8
0
  6
Continuous
 62
     7
370
    25
100
AcDbCircle
 10
8.6783018286
 20
2.1584616918
 30
0.0
 40
0.2562231140813105
100
AcDbArc
 50
181.4086287353
 51
192.6536351113
  0
LINE
  5
228
330
1F
100
AcDbEntity
  8
0
  6
Continuous
 62
     7
370
    25
100
AcDbLine
 10
8.419552589
 20
2.3597385781
 30
0.0
 11
8.4246553934
 21
2.1522244835
 31
0.0
  0
LINE
  5
229
330
1F
100
AcDbEntity
  8
0
  6
Continuous
 62
     7
370
    25
100
AcDbLine
 10
8.9319482664
 20
2.1522244835
 30
0.0
 11
8.9370510708
 21
2.3597385781
 31
0.0
  0
LWPOLYLINE
  5
22A
330
1F
100
AcDbEntity
  8
0
  6
Continuous
 62
     7
370
    25
100
AcDbPolyline
 90
        3
 70
   128
 43
0.0
 10
8.4246553934
 20
2.1522244835
 10
8.4262703397
 20
2.1292120045
 10
8.4283018329
 20
2.1151555877
  0
LWPOLYLINE
  5
22B
330
1F
100
AcDbEntity
  8
0
  6
Continuous
 62
     7
370
    25
100
AcDbPolyline
 90
        3
 70
   128
 43
0.0
 10
8.9283018269
 20
2.1151555877
 10
8.9303333201
 20
2.1292120045
 10
8.9319482664
 20
2.1522244835
  0
LINE
  5
22C
330
1F
100
AcDbEntity
  8
0
  6
Continuous
 62
     7
370
    25
100
AcDbLine
 10
8.4283018329
 20
2.4022385855
 30
0.0
 11
8.9283018269
 21
2.4022385855
 31
0.0
  0
LINE
  5
22D
330
1F
100
AcDbEntity
  8
0
  6
Continuous
 62
     7
370
    25
100
AcDbLine
 10
8.9283018269
 20
2.4022385855
 30
0.0
 11
8.9283018269
 21
1.9022385732
 31
0.0
  0
LINE
  5
22E
330
1F
100
AcDbEntity
  8
0
  6
Continuous
 62
     7
370
    25
100
AcDbLine
 10
8.4283018329
 20
1.9022385732
 30
0.0
 11
8.4283018329
 21
2.4022385855
 31
0.0
  0
LINE
  5
22F
330
1F
100
AcDbEntity
  8
0
  6
Continuous
 62
     7
370
    25
100
AcDbLine
 10
8.9283018269
 20
1.9022385732
 30
0.0
 11
8.4283018329
 21
1.9022385732
 31
0.0
  0
LINE
  5
230
330
1F
100
AcDbEntity
  8
0
  6
Continuous
 62
     7
370
    25
100
AcDbLine
 10
8.3658018199
 20
2.4022385855
 30
0.0
 11
8.4286518305
 21
2.4022385855
 31
0.0
  0
LINE
  5
231
330
1F
100
AcDbEntity
  8
0
  6
Continuous
 62
     7
370
    25
100
AcDbLine
 10
8.4286518305
 20
2.4022385855
 30
0.0
 11
8.4286518305
 21
2.3597385781
 31
0.0
  0
LINE
  5
232
330
1F
100
AcDbEntity
  8
0
  6
Continuous
 62
     7
370
    25
100
AcDbLine
 10
8.4286518305
 20
2.3597385781
 30
0.0
 11
8.4170518229
 21
2.3597385781
 31
0.0
  0
LINE
  5
233
330
1F
100
AcDbEntity
  8
0
  6
Continuous
 62
     7
370
    25
100
AcDbLine
 10
8.4170518229
 20
2.3597385781
 30
0.0
 11
8.4283018329
 21
1.9022385732
 31
0.0
  0
LINE
  5
234
330
1F
100
AcDbEntity
  8
0
  6
Continuous
 62
     7
370
    25
100
AcDbLine
 10
8.9283018269
 20
1.9022385732
 30
0.0
 11
8.9395518369
 21
2.3597385781
 31
0.0
  0
LINE
  5
235
330
1F
100
AcDbEntity
  8
0
  6
Continuous
 62
     7
370
    25
100
AcDbLine
 10
8.9395518369
 20
2.3597385781
 30
0.0
 11
8.9279518292
 21
2.3597385781
 31
0.0
  0
LINE
  5
236
330
1F
100
AcDbEntity
  8
0
  6
Continuous
 62
     7
370
    25
100
AcDbLine
 10
8.9279518292
 20
2.3597385781
 30
0.0
 11
8.9279518292
 21
2.4022385855
 31
0.0
  0
LINE
  5
237
330
1F
100
AcDbEntity
  8
0
  6
Continuous
 62
     7
370
    25
100
AcDbLine
 10
8.9279518292
 20
2.4022385855
 30
0.0
 11
8.9908018399
 21
2.4022385855
 31
0.0
  0
LINE
  5
238
330
1F
100
AcDbEntity
  8
0
  6
Continuous
 62
     7
370
    25
100
AcDbLine
 10
8.3658018199
 20
1.8397385602
 30
0.0
 11
8.3658018199
 21
2.4022385855
 31
0.0
  0
LINE
  5
239
330
1F
100
AcDbEntity
  8
0
  6
Continuous
 62
     7
370
    25
100
AcDbLine
 10
8.9908018399
 20
2.4022385855
 30
0.0
 11
8.9908018399
 21
1.8397385602
 31
0.0
  0
LINE
  5
23A
330
1F
100
AcDbEntity
  8
0
  6
Continuous
 62
     7
370
    25
100
AcDbLine
 10
8.9908018399
 20
1.8397385602
 30
0.0
 11
8.3658018199
 21
1.8397385602
 31
0.0
  0
LINE
  5
23B
330
1F
100
AcDbEntity
  8
0
  6
Continuous
 62
     7
370
    25
100
AcDbLine
 10
12.0587729319
 20
7.9233118178
 30
0.0
 11
12.0587729643
 21
7.9069836398
 31
0.0
  0
LINE
  5
23C
330
1F
100
AcDbEntity
  8
0
  6
Continuous
 62
     7
370
    25
100
AcDbLine
 10
12.0587729319
 20
9.7605286074
 30
0.0
 11
12.0587729643
 21
9.7442004294
 31
0.0
  0
SPLINE
  5
23D
330
1F
100
AcDbEntity
  8
0
  6
Continuous
 62
     7
370
    25
100
AcDbSpline
210
0.0
220
0.0
230
1.0
 70
     8
 71
     3
 72
    10
 73
     6
 74
     0
 42
0.000000001
 43
0.00000001
 40
0.0
 40
0.0
 40
0.0
 40
0.0
 40
0.2452100066380868
 40
0.5279709357323522
 40
1.0
 40
1.0
 40
1.0
 40
1.0
 10
12.97238454217124
 20
7.842737873905494
 30
0.0
 10
12.9739107481866
 20
7.843942642107341
 30
0.0
 10
12.97719688005822
 20
7.846536674070352
 30
0.0
 10
12.98271547142702
 20
7.852423119837572
 30
0.0
 10
12.98604342278994
 20
7.857555604992373
 30
0.0
 10
12.98812465039177
 20
7.860765348346545
 30
0.0
  0
SPLINE
  5
23E
330
1F
100
AcDbEntity
  8
0
  6
Continuous
 62
     7
370
    25
100
AcDbSpline
210
0.0
220
0.0
230
1.0
 70
     8
 71
     3
 72
    13
 73
     9
 74
     0
 42
0.000000001
 43
0.00000001
 40
0.0
 40
0.0
 40
0.0
 40
0.0
 40
0.0779641391851556
 40
0.3024690588659646
 40
0.5165367875510605
 40
0.7384760770235329
 40
0.9606023085514465
 40
1.0
 40
1.0
 40
1.0
 40
1.0
 10
12.93342699360016
 20
7.8356358672188
 30
0.0
 10
12.93437427787637
 20
7.835188728509231
 30
0.0
 10
12.93804935447565
 20
7.833454012701691
 30
0.0
 10
12.94515176340932
 20
7.832604672046651
 30
0.0
 10
12.95422772664427
 20
7.833465474340326
 30
0.0
 10
12.96295489917446
 20
7.836597345451636
 30
0.0
 10
12.96905533257857
 20
7.839924091019808
 30
0.0
 10
12.97194867061528
 20
7.842369483784548
 30
0.0
 10
12.97238454217124
 20
7.842737873905494
 30
0.0
  0
SPLINE
  5
23F
330
1F
100
AcDbEntity
  8
0
  6
Continuous
 62
     7
370
    25
100
AcDbSpline
210
0.0
220
0.0
230
1.0
 70
     8
 71
     3
 72
    14
 73
    10
 74
     0
 42
0.000000001
 43
0.00000001
 40
0.0
 40
0.0
 40
0.0
 40
0.0
 40
0.0271527510447627
 40
0.1982468946212906
 40
0.3788974548874031
 40
0.5629495694162343
 40
0.7480661893582745
 40
0.934751523990458
 40
1.0
 40
1.0
 40
1.0
 40
1.0
 10
12.99576481672581
 20
7.882604659723445
 30
0.0
 10
12.99585210067346
 20
7.88303205952645
 30
0.0
 10
12.99648937575263
 20
7.886152578827338
 30
0.0
 10
12.99654483138834
 20
7.892191880787805
 30
0.0
 10
12.99560943695542
 20
7.900515492533155
 30
0.0
 10
12.99289710827719
 20
7.908566872897408
 30
0.0
 10
12.98845325704306
 20
7.915742868682114
 30
0.0
 10
12.98369164987306
 20
7.920318960855057
 30
0.0
 10
12.98051073355068
 20
7.922283680356115
 30
0.0
 10
12.97968690628502
 20
7.922792524138946
 30
0.0
  0
SPLINE
  5
240
330
1F
100
AcDbEntity
  8
0
  6
Continuous
 62
     7
370
    25
100
AcDbSpline
210
0.0
220
0.0
230
1.0
 70
     8
 71
     3
 72
    10
 73
     6
 74
     0
 42
0.000000001
 43
0.00000001
 40
0.0
 40
0.0
 40
0.0
 40
0.0
 40
0.5023369792173529
 40
0.7115439858875036
 40
1.0
 40
1.0
 40
1.0
 40
1.0
 10
12.98812465039177
 20
7.860765348346545
 30
0.0
 10
12.98991287219677
 20
7.86426893183206
 30
0.0
 10
12.99244583019792
 20
7.869231643838765
 30
0.0
 10
12.99476751026344
 20
7.876654177718346
 30
0.0
 10
12.99539886826989
 20
7.880421208814553
 30
0.0
 10
12.99576481672581
 20
7.882604659723445
 30
0.0
  0
LINE
  5
241
330
1F
100
AcDbEntity
  8
0
  6
Continuous
 62
     7
370
    25
100
AcDbLine
 10
12.9796869063
 20
7.9227925241
 30
0.0
 11
12.9741457728
 21
7.9259913524
 31
0.0
  0
SPLINE
  5
242
330
1F
100
AcDbEntity
  8
0
  6
Continuous
 62
     7
370
    25
100
AcDbSpline
210
0.0
220
0.0
230
1.0
 70
     8
 71
     3
 72
    10
 73
     6
 74
     0
 42
0.000000001
 43
0.00000001
 40
0.0
 40
0.0
 40
0.0
 40
0.0
 40
0.2452111086411577
 40
0.5279715160309384
 40
1.0
 40
1.0
 40
1.0
 40
1.0
 10
12.72913980455278
 20
9.14595980615167
 30
0.0
 10
12.73066601121217
 20
9.1471645984482
 30
0.0
 10
12.73395213331404
 20
9.149758673483488
 30
0.0
 10
12.73947074485278
 20
9.155645111683652
 30
0.0
 10
12.74279869710118
 20
9.160777601158934
 30
0.0
 10
12.74487992573679
 20
9.163987347955343
 30
0.0
  0
SPLINE
  5
243
330
1F
100
AcDbEntity
  8
0
  6
Continuous
 62
     7
370
    25
100
AcDbSpline
210
0.0
220
0.0
230
1.0
 70
     8
 71
     3
 72
    13
 73
     9
 74
     0
 42
0.000000001
 43
0.00000001
 40
0.0
 40
0.0
 40
0.0
 40
0.0
 40
0.0647031903400088
 40
0.2924365440841134
 40
0.5095833986961759
 40
0.7347148073591134
 40
0.9600358468367653
 40
1.0
 40
1.0
 40
1.0
 40
1.0
 10
12.69070491086755
 20
9.1386287811615
 30
0.0
 10
12.69148112754139
 20
9.138266034144001
 30
0.0
 10
12.69498936446704
 20
9.136626540270253
 30
0.0
 10
12.70191077687349
 20
9.135836230090197
 30
0.0
 10
12.71098196656254
 20
9.136684771219342
 30
0.0
 10
12.71971045946789
 20
9.139820032360555
 30
0.0
 10
12.72581058974569
 20
9.143145997455402
 30
0.0
 10
12.72870393383826
 20
9.145591413939679
 30
0.0
 10
12.72913980455278
 20
9.14595980615167
 30
0.0
  0
SPLINE
  5
244
330
1F
100
AcDbEntity
  8
0
  6
Continuous
 62
     7
370
    25
100
AcDbSpline
210
0.0
220
0.0
230
1.0
 70
     8
 71
     3
 72
    14
 73
    10
 74
     0
 42
0.000000001
 43
0.00000001
 40
0.0
 40
0.0
 40
0.0
 40
0.0
 40
0.0271528237185798
 40
0.1982469242257139
 40
0.3788988548435818
 40
0.5629509321028916
 40
0.7480661686099349
 40
0.9347515404154055
 40
1.0
 40
1.0
 40
1.0
 40
1.0
 10
12.75252007910736
 20
9.18582659196962
 30
0.0
 10
12.75260736539767
 20
9.186253993012537
 30
0.0
 10
12.75324465597054
 20
9.18937451348022
 30
0.0
 10
12.75330009163599
 20
9.1954138409532
 30
0.0
 10
12.75236471560944
 20
9.203737466240765
 30
0.0
 10
12.74965238430697
 20
9.211788846383492
 30
0.0
 10
12.74520850460737
 20
9.21896482164867
 30
0.0
 10
12.74044691346304
 20
9.223540891807954
 30
0.0
 10
12.73726599596221
 20
9.225505612471272
 30
0.0
 10
12.73644216866657
 20
9.226014456385121
 30
0.0
  0
SPLINE
  5
245
330
1F
100
AcDbEntity
  8
0
  6
Continuous
 62
     7
370
    25
100
AcDbSpline
210
0.0
220
0.0
230
1.0
 70
     8
 71
     3
 72
    10
 73
     6
 74
     0
 42
0.000000001
 43
0.00000001
 40
0.0
 40
0.0
 40
0.0
 40
0.0
 40
0.5023355638803507
 40
0.7115462506062266
 40
1.0
 40
1.0
 40
1.0
 40
1.0
 10
12.74487992573679
 20
9.163987347955343
 30
0.0
 10
12.74666814594585
 20
9.167490909293463
 30
0.0
 10
12.749201116885
 20
9.1724536197069
 30
0.0
 10
12.75152276983213
 20
9.179876130503247
 30
0.0
 10
12.75215413209704
 20
9.1836431633806
 30
0.0
 10
12.75252007910736
 20
9.18582659196962
 30
0.0
  0
LINE
  5
246
330
1F
100
AcDbEntity
  8
0
  6
Continuous
 62
     7
370
    25
100
AcDbLine
 10
12.7364421687
 20
9.2260144564
 30
0.0
 11
12.7309010352
 21
9.2292132847
 31
0.0
  0
SPLINE
  5
247
330
1F
100
AcDbEntity
  8
0
  6
Continuous
 62
     7
370
    25
100
AcDbSpline
210
0.0
220
0.0
230
1.0
 70
     8
 71
     3
 72
    10
 73
     6
 74
     0
 42
0.000000001
 43
0.00000001
 40
0.0
 40
0.0
 40
0.0
 40
0.0
 40
0.2452101920412279
 40
0.5279709428093657
 40
1.0
 40
1.0
 40
1.0
 40
1.0
 10
12.72913980455278
 20
7.70231567584889
 30
0.0
 10
12.73066601282722
 20
7.703520445085888
 30
0.0
 10
12.73395214712234
 20
7.706114477351146
 30
0.0
 10
12.73947074146072
 20
7.712000927754163
 30
0.0
 10
12.74279869579606
 20
7.717133413382797
 30
0.0
 10
12.74487992573679
 20
7.720343157773597
 30
0.0
  0
SPLINE
  5
248
330
1F
100
AcDbEntity
  8
0
  6
Continuous
 62
     7
370
    25
100
AcDbSpline
210
0.0
220
0.0
230
1.0
 70
     8
 71
     3
 72
    13
 73
     9
 74
     0
 42
0.000000001
 43
0.00000001
 40
0.0
 40
0.0
 40
0.0
 40
0.0
 40
0.0647031667884011
 40
0.2924370238365182
 40
0.5095835772051391
 40
0.734714903921474
 40
0.9600358613834987
 40
1.0
 40
1.0
 40
1.0
 40
1.0
 10
12.69070491086755
 20
7.694984650858721
 30
0.0
 10
12.69148112793979
 20
7.694621904982684
 30
0.0
 10
12.69498937369842
 20
7.692982412981556
 30
0.0
 10
12.70191075326295
 20
7.692191993476087
 30
0.0
 10
12.71098197542899
 20
7.693040670949277
 30
0.0
 10
12.7197104577734
 20
7.696175893817585
 30
0.0
 10
12.72581058980335
 20
7.699501867433018
 30
0.0
 10
12.72870393384581
 20
7.70194728367361
 30
0.0
 10
12.72913980455278
 20
7.70231567584889
 30
0.0
  0
SPLINE
  5
249
330
1F
100
AcDbEntity
  8
0
  6
Continuous
 62
     7
370
    25
100
AcDbSpline
210
0.0
220
0.0
230
1.0
 70
     8
 71
     3
 72
    14
 73
    10
 74
     0
 42
0.000000001
 43
0.00000001
 40
0.0
 40
0.0
 40
0.0
 40
0.0
 40
0.0271528271134279
 40
0.1982469490120199
 40
0.3788974863893814
 40
0.5629495866602517
 40
0.748066137111292
 40
0.9347515322575574
 40
1.0
 40
1.0
 40
1.0
 40
1.0
 10
12.75252007910736
 20
7.742182461666841
 30
0.0
 10
12.75260736538669
 20
7.742609862717432
 30
0.0
 10
12.75324465587936
 20
7.745730383241135
 30
0.0
 10
12.75330009454157
 20
7.75176968590895
 30
0.0
 10
12.75236471007809
 20
7.760093300543907
 30
0.0
 10
12.7496523659062
 20
7.768144669858509
 30
0.0
 10
12.74520852903654
 20
7.775320680990547
 30
0.0
 10
12.74044691269988
 20
7.779896761272546
 30
0.0
 10
12.73726599580522
 20
7.781861482120638
 30
0.0
 10
12.73644216866657
 20
7.782370326082343
 30
0.0
  0
SPLINE
  5
24A
330
1F
100
AcDbEntity
  8
0
  6
Continuous
 62
     7
370
    25
100
AcDbSpline
210
0.0
220
0.0
230
1.0
 70
     8
 71
     3
 72
    10
 73
     6
 74
     0
 42
0.000000001
 43
0.00000001
 40
0.0
 40
0.0
 40
0.0
 40
0.0
 40
0.5023366932754167
 40
0.7115441966041846
 40
0.9999999999999999
 40
0.9999999999999999
 40
0.9999999999999999
 40
0.9999999999999999
 10
12.74487992573679
 20
7.720343157773597
 30
0.0
 10
12.74666813783647
 20
7.723846739801149
 30
0.0
 10
12.74920108428226
 20
7.728809454037248
 30
0.0
 10
12.75152279082372
 20
7.736231980858404
 30
0.0
 10
12.75215413762423
 20
7.739999013000995
 30
0.0
 10
12.75252007910736
 20
7.742182461666841
 30
0.0
  0
LINE
  5
24B
330
1F
100
AcDbEntity
  8
0
  6
Continuous
 62
     7
370
    25
100
AcDbLine
 10
12.7364421687
 20
7.7823703261
 30
0.0
 11
12.7309010352
 21
7.7855691544
 31
0.0
  0
SPLINE
  5
24C
330
1F
100
AcDbEntity
  8
0
  6
Continuous
 62
     7
370
    25
100
AcDbSpline
210
0.0
220
0.0
230
1.0
 70
     8
 71
     3
 72
    10
 73
     6
 74
     0
 42
0.000000001
 43
0.00000001
 40
0.0
 40
0.0
 40
0.0
 40
0.0
 40
0.2452109232400909
 40
0.5279715089550898
 40
1.0
 40
1.0
 40
1.0
 40
1.0
 10
12.97238454217124
 20
9.286382004208274
 30
0.0
 10
12.97391074657154
 20
9.287586795469648
 30
0.0
 10
12.97719686624988
 20
9.290180870202695
 30
0.0
 10
12.98271547481908
 20
9.296067303767057
 30
0.0
 10
12.98604342409507
 20
9.30119979276851
 30
0.0
 10
12.98812465039177
 20
9.304409538528292
 30
0.0
  0
SPLINE
  5
24D
330
1F
100
AcDbEntity
  8
0
  6
Continuous
 62
     7
370
    25
100
AcDbSpline
210
0.0
220
0.0
230
1.0
 70
     8
 71
     3
 72
    13
 73
     9
 74
     0
 42
0.000000001
 43
0.00000001
 40
0.0
 40
0.0
 40
0.0
 40
0.0
 40
0.0779641671613198
 40
0.3024685895155915
 40
0.516536614068144
 40
0.7384759831799234
 40
0.9606022944142252
 40
1.0
 40
1.0
 40
1.0
 40
1.0
 10
12.93342699360016
 20
9.279279997521579
 30
0.0
 10
12.93437427731321
 20
9.278832857198163
 30
0.0
 10
12.93804934470618
 20
9.277098138443852
 30
0.0
 10
12.94515178682171
 20
9.276248908093665
 30
0.0
 10
12.95422771783258
 20
9.277109574766959
 30
0.0
 10
12.96295490085351
 20
9.280241483950416
 30
0.0
 10
12.96905533252144
 20
9.283568221043693
 30
0.0
 10
12.9719486706078
 20
9.286013614050812
 30
0.0
 10
12.97238454217124
 20
9.286382004208274
 30
0.0
  0
SPLINE
  5
24E
330
1F
100
AcDbEntity
  8
0
  6
Continuous
 62
     7
370
    25
100
AcDbSpline
210
0.0
220
0.0
230
1.0
 70
     8
 71
     3
 72
    14
 73
    10
 74
     0
 42
0.000000001
 43
0.00000001
 40
0.0
 40
0.0
 40
0.0
 40
0.0
 40
0.027152747649915
 40
0.1982468698349246
 40
0.3788988233416592
 40
0.562950914858866
 40
0.7480662208569957
 40
0.9347515321483292
 40
1.0
 40
1.0
 40
1.0
 40
1.0
 10
12.99576481672581
 20
9.326248790026225
 30
0.0
 10
12.99585210068444
 20
9.326676189821557
 30
0.0
 10
12.99648937584381
 20
9.329796709066425
 30
0.0
 10
12.9965448284828
 20
9.33583603583206
 30
0.0
 10
12.99560944248674
 20
9.344159658229989
 30
0.0
 10
12.99289712667794
 20
9.352211049422397
 30
0.0
 10
12.98845323261392
 20
9.35938700934024
 30
0.0
 10
12.98369165063622
 20
9.363963091390467
 30
0.0
 10
12.98051073370767
 20
9.365927810706747
 30
0.0
 10
12.97968690628502
 20
9.366436654441724
 30
0.0
  0
SPLINE
  5
24F
330
1F
100
AcDbEntity
  8
0
  6
Continuous
 62
     7
370
    25
100
AcDbSpline
210
0.0
220
0.0
230
1.0
 70
     8
 71
     3
 72
    10
 73
     6
 74
     0
 42
0.000000001
 43
0.00000001
 40
0.0
 40
0.0
 40
0.0
 40
0.0
 40
0.5023358498204684
 40
0.7115460398880372
 40
1.0
 40
1.0
 40
1.0
 40
1.0
 10
12.98812465039177
 20
9.304409538528292
 30
0.0
 10
12.98991288030611
 20
9.307913101324417
 30
0.0
 10
12.99244586280063
 20
9.312875809508537
 30
0.0
 10
12.99476748927187
 20
9.320298327363126
 30
0.0
 10
12.99539886274274
 20
9.324065359194142
 30
0.0
 10
12.99576481672581
 20
9.326248790026225
 30
0.0
  0
LINE
  5
250
330
1F
100
AcDbEntity
  8
0
  6
Continuous
 62
     7
370
    25
100
AcDbLine
 10
12.9796869063
 20
9.3664366544
 30
0.0
 11
12.9741457728
 21
9.3696354827
 31
0.0
  0
LINE
  5
251
330
1F
100
AcDbEntity
  8
0
  6
Continuous
 62
     7
370
    25
100
AcDbLine
 10
13.067562878
 20
9.7646062212
 30
0.0
 11
13.0104825216
 21
9.7931102319
 31
0.0
  0
LINE
  5
252
330
1F
100
AcDbEntity
  8
0
  6
Continuous
 62
     7
370
    25
100
AcDbLine
 10
12.5806837726
 20
7.3135239197
 30
0.0
 11
12.6339120714
 21
7.2783481142
 31
0.0
  0
LINE
  5
253
330
1F
100
AcDbEntity
  8
0
  6
Continuous
 62
     7
370
    25
100
AcDbLine
 10
12.7096550784
 20
9.7779104288
 30
0.0
 11
12.7096550784
 21
9.7881172779
 31
0.0
  0
LINE
  5
254
330
1F
100
AcDbEntity
  8
0
  6
Continuous
 62
     7
370
    25
100
AcDbLine
 10
12.5286550813
 20
9.788117277
 30
0.0
 11
12.5286550813
 21
9.7779104279
 31
0.0
  0
LINE
  5
255
330
1F
100
AcDbEntity
  8
0
  6
Continuous
 62
     7
370
    25
100
AcDbLine
 10
12.5341550817
 20
9.8024066741
 30
0.0
 11
12.5341550817
 21
9.790158551
 31
0.0
  0
LINE
  5
256
330
1F
100
AcDbEntity
  8
0
  6
Continuous
 62
     7
370
    25
100
AcDbLine
 10
12.7041550796
 20
9.790158551
 30
0.0
 11
12.7041550796
 21
9.8024066741
 31
0.0
  0
LINE
  5
257
330
1F
100
AcDbEntity
  8
0
  6
Continuous
 62
     7
370
    25
100
AcDbLine
 10
12.1772133348
 20
7.8386094693
 30
0.0
 11
12.0587729643
 21
7.9069836398
 31
0.0
  0
SPLINE
  5
258
330
1F
100
AcDbEntity
  8
0
  6
Continuous
 62
     7
370
    25
100
AcDbSpline
210
0.0
220
0.0
230
1.0
 70
     8
 71
     3
 72
    10
 73
     6
 74
     0
 42
0.000000001
 43
0.00000001
 40
0.0
 40
0.0
 40
0.0
 40
0.0
 40
0.4663129625492884
 40
0.937083784732945
 40
1.0
 40
1.0
 40
1.0
 40
1.0
 10
12.05877296426089
 20
7.906983639790935
 30
0.0
 10
12.05892391521976
 20
7.915741858946234
 30
0.0
 10
12.05922726019882
 20
7.933342024098624
 30
0.0
 10
12.0613369416778
 20
7.952094562249271
 30
0.0
 10
12.06304469149456
 20
7.961963116949113
 30
0.0
 10
12.06324601764183
 20
7.963126518096789
 30
0.0
  0
LINE
  5
259
330
1F
100
AcDbEntity
  8
0
  6
Continuous
 62
     7
370
    25
100
AcDbLine
 10
12.0632460176
 20
7.9631265181
 30
0.0
 11
12.0923068414
 21
8.038027788
 31
0.0
  0
SPLINE
  5
25A
330
1F
100
AcDbEntity
  8
0
  6
Continuous
 62
     7
370
    25
100
AcDbSpline
210
0.0
220
0.0
230
1.0
 70
     8
 71
     3
 72
     9
 73
     5
 74
     0
 42
0.000000001
 43
0.00000001
 40
0.0
 40
0.0
 40
0.0
 40
0.0
 40
0.513529727663431
 40
1.0
 40
1.0
 40
1.0
 40
1.0
 10
12.09230684137932
 20
8.038027787992835
 30
0.0
 10
12.09748909364069
 20
8.045404643796145
 30
0.0
 10
12.10758052940811
 20
8.05976964626031
 30
0.0
 10
12.11934241710521
 20
8.071927859990806
 30
0.0
 10
12.12506422581642
 20
8.077842469535408
 30
0.0
  0
LINE
  5
25B
330
1F
100
AcDbEntity
  8
0
  6
Continuous
 62
     7
370
    25
100
AcDbLine
 10
12.1772133283
 20
8.0477374335
 30
0.0
 11
12.1250642258
 21
8.0778424695
 31
0.0
  0
SPLINE
  5
25C
330
1F
100
AcDbEntity
  8
0
  6
Continuous
 62
     7
370
    25
100
AcDbSpline
210
0.0
220
0.0
230
1.0
 70
     8
 71
     3
 72
    10
 73
     6
 74
     0
 42
0.000000001
 43
0.00000001
 40
0.0
 40
0.0
 40
0.0
 40
0.0
 40
0.1689958765990453
 40
0.582696240071104
 40
1.0
 40
1.0
 40
1.0
 40
1.0
 10
12.12506422581642
 20
8.077842469535408
 30
0.0
 10
12.12609670217357
 20
8.079577458453421
 30
0.0
 10
12.12965667122952
 20
8.085559684407318
 30
0.0
 10
12.13669303163969
 20
8.095657596117533
 30
0.0
 10
12.14432165171502
 20
8.103540633945013
 30
0.0
 10
12.14815250134724
 20
8.107499244055882
 30
0.0
  0
LINE
  5
25D
330
1F
100
AcDbEntity
  8
0
  6
Continuous
 62
     7
370
    25
100
AcDbLine
 10
12.1481525013
 20
8.1074992441
 30
0.0
 11
12.1772133202
 21
8.1242756977
 31
0.0
  0
LINE
  5
25E
330
1F
100
AcDbEntity
  8
0
  6
Continuous
 62
     7
370
    25
100
AcDbLine
 10
12.1772133283
 20
7.7825580354
 30
0.0
 11
12.1250642258
 21
7.8126630715
 31
0.0
  0
SPLINE
  5
25F
330
1F
100
AcDbEntity
  8
0
  6
Continuous
 62
     7
370
    25
100
AcDbSpline
210
0.0
220
0.0
230
1.0
 70
     8
 71
     3
 72
    10
 73
     6
 74
     0
 42
0.000000001
 43
0.00000001
 40
0.0
 40
0.0
 40
0.0
 40
0.0
 40
0.4663128870312283
 40
0.9370837849220517
 40
1.0
 40
1.0
 40
1.0
 40
1.0
 10
12.12506422581642
 20
7.812663071475774
 30
0.0
 10
12.1196073988064
 20
7.818183990211677
 30
0.0
 10
12.108641576822
 20
7.829278608372936
 30
0.0
 10
12.09809046829652
 20
7.840722221053994
 30
0.0
 10
12.09291676743562
 20
7.846618200276138
 30
0.0
 10
12.09230684137932
 20
7.84731327551371
 30
0.0
  0
LINE
  5
260
330
1F
100
AcDbEntity
  8
0
  6
Continuous
 62
     7
370
    25
100
AcDbLine
 10
12.0923068414
 20
7.8473132755
 30
0.0
 11
12.0632460176
 21
7.8886615726
 31
0.0
  0
SPLINE
  5
261
330
1F
100
AcDbEntity
  8
0
  6
Continuous
 62
     7
370
    25
100
AcDbSpline
210
0.0
220
0.0
230
1.0
 70
     8
 71
     3
 72
     9
 73
     5
 74
     0
 42
0.000000001
 43
0.00000001
 40
0.0
 40
0.0
 40
0.0
 40
0.0
 40
0.5135302493975022
 40
0.9999999999999999
 40
0.9999999999999999
 40
0.9999999999999999
 40
0.9999999999999999
 10
12.06324601764183
 20
7.888661572637314
 30
0.0
 10
12.06185485802335
 20
7.892243702283823
 30
0.0
 10
12.05914584600293
 20
7.899219201099542
 30
0.0
 10
12.05889499546131
 20
7.904442609573374
 30
0.0
 10
12.05877296426089
 20
7.906983639790935
 30
0.0
  0
ARC
  5
262
330
1F
100
AcDbEntity
  8
0
  6
Continuous
 62
     7
370
    25
100
AcDbCircle
 10
12.3253847909
 20
7.9078465315
 30
0.0
 40
0.2669690807654834
100
AcDbArc
 50
131.5955571067
 51
150.8152884022
  0
ARC
  5
263
330
1F
100
AcDbEntity
  8
0
  6
Continuous
 62
     7
370
    25
100
AcDbCircle
 10
12.2494422962
 20
7.9220491938
 30
0.0
 40
0.1906735448940449
100
AcDbArc
 50
167.559083537
 51
179.6205894338
  0
LINE
  5
264
330
1F
100
AcDbEntity
  8
0
  6
Continuous
 62
     7
370
    25
100
AcDbLine
 10
12.1772133348
 20
9.6758262588
 30
0.0
 11
12.0587729643
 21
9.7442004294
 31
0.0
  0
SPLINE
  5
265
330
1F
100
AcDbEntity
  8
0
  6
Continuous
 62
     7
370
    25
100
AcDbSpline
210
0.0
220
0.0
230
1.0
 70
     8
 71
     3
 72
    10
 73
     6
 74
     0
 42
0.000000001
 43
0.00000001
 40
0.0
 40
0.0
 40
0.0
 40
0.0
 40
0.4663135106375905
 40
0.9370838493469212
 40
0.9999999999999999
 40
0.9999999999999999
 40
0.9999999999999999
 40
0.9999999999999999
 10
12.05877296426089
 20
9.744200429361008
 30
0.0
 10
12.05892391460339
 20
9.752958668672296
 30
0.0
 10
12.05922725800818
 20
9.77055885485627
 30
0.0
 10
12.0613369416784
 20
9.789311411684125
 30
0.0
 10
12.06304469149463
 20
9.79917996639666
 30
0.0
 10
12.06324601764183
 20
9.800343367545832
 30
0.0
  0
LINE
  5
266
330
1F
100
AcDbEntity
  8
0
  6
Continuous
 62
     7
370
    25
100
AcDbLine
 10
12.0632460176
 20
9.8003433675
 30
0.0
 11
12.0923068414
 21
9.8752445776
 31
0.0
  0
SPLINE
  5
267
330
1F
100
AcDbEntity
  8
0
  6
Continuous
 62
     7
370
    25
100
AcDbSpline
210
0.0
220
0.0
230
1.0
 70
     8
 71
     3
 72
     9
 73
     5
 74
     0
 42
0.000000001
 43
0.00000001
 40
0.0
 40
0.0
 40
0.0
 40
0.0
 40
0.5135302493975022
 40
0.9999999999999999
 40
0.9999999999999999
 40
0.9999999999999999
 40
0.9999999999999999
 10
12.09230684137932
 20
9.87524457756291
 30
0.0
 10
12.09748909032713
 20
9.882621455201253
 30
0.0
 10
12.10758050938939
 20
9.896986485590407
 30
0.0
 10
12.11934241468207
 20
9.909144710395667
 30
0.0
 10
12.12506422581642
 20
9.91505931898445
 30
0.0
  0
LINE
  5
268
330
1F
100
AcDbEntity
  8
0
  6
Continuous
 62
     7
370
    25
100
AcDbLine
 10
12.2699260243
 20
9.8314323828
 30
0.0
 11
12.1250642258
 21
9.915059319
 31
0.0
  0
SPLINE
  5
269
330
1F
100
AcDbEntity
  8
0
  6
Continuous
 62
     7
370
    25
100
AcDbSpline
210
0.0
220
0.0
230
1.0
 70
     8
 71
     3
 72
    10
 73
     6
 74
     0
 42
0.000000001
 43
0.00000001
 40
0.0
 40
0.0
 40
0.0
 40
0.0
 40
0.4663135717830055
 40
0.9370837238021182
 40
1.0
 40
1.0
 40
1.0
 40
1.0
 10
12.12506422581642
 20
9.91505931898445
 30
0.0
 10
12.1280190606262
 20
9.91982812540949
 30
0.0
 10
12.13395696973783
 20
9.929411313961737
 30
0.0
 10
12.14239705897305
 20
9.939156821909554
 30
0.0
 10
12.14754554633451
 20
9.944129826187387
 30
0.0
 10
12.14815250134724
 20
9.944716093504924
 30
0.0
  0
LINE
  5
26A
330
1F
100
AcDbEntity
  8
0
  6
Continuous
 62
     7
370
    25
100
AcDbLine
 10
12.1481525013
 20
9.9447160935
 30
0.0
 11
12.2062741423
 21
9.9782690027
 31
0.0
  0
SPLINE
  5
26B
330
1F
100
AcDbEntity
  8
0
  6
Continuous
 62
     7
370
    25
100
AcDbSpline
210
0.0
220
0.0
230
1.0
 70
     8
 71
     3
 72
     9
 73
     5
 74
     0
 42
0.000000001
 43
0.00000001
 40
0.0
 40
0.0
 40
0.0
 40
0.0
 40
0.5135299405236698
 40
1.0
 40
1.0
 40
1.0
 40
1.0
 10
12.20627414234049
 20
9.978269002656571
 30
0.0
 10
12.21474309655863
 20
9.980969475429312
 30
0.0
 10
12.23123474300382
 20
9.986228122607676
 30
0.0
 10
12.24900301607147
 20
9.989840343231869
 30
0.0
 10
12.25764674892748
 20
9.991597580413764
 30
0.0
  0
LINE
  5
26C
330
1F
100
AcDbEntity
  8
0
  6
Continuous
 62
     7
370
    25
100
AcDbLine
 10
12.4025085474
 20
9.9079706442
 30
0.0
 11
12.2576467489
 21
9.9915975804
 31
0.0
  0
LINE
  5
26D
330
1F
100
AcDbEntity
  8
0
  6
Continuous
 62
     7
370
    25
100
AcDbLine
 10
12.1772133283
 20
9.619774825
 30
0.0
 11
12.1250642258
 21
9.649879861
 31
0.0
  0
SPLINE
  5
26E
330
1F
100
AcDbEntity
  8
0
  6
Continuous
 62
     7
370
    25
100
AcDbSpline
210
0.0
220
0.0
230
1.0
 70
     8
 71
     3
 72
    10
 73
     6
 74
     0
 42
0.000000001
 43
0.00000001
 40
0.0
 40
0.0
 40
0.0
 40
0.0
 40
0.1689962338148745
 40
0.5826966386055212
 40
0.9999999999999999
 40
0.9999999999999999
 40
0.9999999999999999
 40
0.9999999999999999
 10
12.12506422581642
 20
9.649879861045848
 30
0.0
 10
12.1230682859524
 20
9.651885644385045
 30
0.0
 10
12.11618631335828
 20
9.658801557143205
 30
0.0
 10
12.10482638900318
 20
9.670544344451832
 30
0.0
 10
12.09649206886953
 20
9.679854702665118
 30
0.0
 10
12.09230684137932
 20
9.684530065083784
 30
0.0
  0
LINE
  5
26F
330
1F
100
AcDbEntity
  8
0
  6
Continuous
 62
     7
370
    25
100
AcDbLine
 10
12.0923068414
 20
9.6845300651
 30
0.0
 11
12.0632460176
 21
9.7258784221
 31
0.0
  0
SPLINE
  5
270
330
1F
100
AcDbEntity
  8
0
  6
Continuous
 62
     7
370
    25
100
AcDbSpline
210
0.0
220
0.0
230
1.0
 70
     8
 71
     3
 72
    10
 73
     6
 74
     0
 42
0.000000001
 43
0.00000001
 40
0.0
 40
0.0
 40
0.0
 40
0.0
 40
0.0706209854546264
 40
0.5327007377709844
 40
1.0
 40
1.0
 40
1.0
 40
1.0
 10
12.06324601764183
 20
9.725878422086355
 30
0.0
 10
12.06302075800723
 20
9.726393366765254
 30
0.0
 10
12.0613216033896
 20
9.73027764292756
 30
0.0
 10
12.05922640573055
 20
9.736837525893238
 30
0.0
 10
12.0589246762677
 20
9.741736956265187
 30
0.0
 10
12.05877296426089
 20
9.744200429361008
 30
0.0
  0
ARC
  5
271
330
1F
100
AcDbEntity
  8
0
  6
Continuous
 62
     7
370
    25
100
AcDbCircle
 10
12.3253847138
 20
9.7450635551
 30
0.0
 40
0.2669688993318873
100
AcDbArc
 50
131.5955695498
 51
150.8153241896
  0
ARC
  5
272
330
1F
100
AcDbEntity
  8
0
  6
Continuous
 62
     7
370
    25
100
AcDbCircle
 10
12.2494417276
 20
9.759266109
 30
0.0
 40
0.1906729754533291
100
AcDbArc
 50
167.5590660297
 51
179.6206260617
  0
SPLINE
  5
273
330
1F
100
AcDbEntity
  8
0
  6
Continuous
 62
     7
370
    25
100
AcDbSpline
210
0.0
220
0.0
230
1.0
 70
     8
 71
     3
 72
     9
 73
     5
 74
     0
 42
0.000000001
 43
0.00000001
 40
0.0
 40
0.0
 40
0.0
 40
0.0
 40
0.7886406711612042
 40
1.0
 40
1.0
 40
1.0
 40
1.0
 10
12.72530611621921
 20
7.619261315162212
 30
0.0
 10
12.73155206599316
 20
7.635817224684609
 30
0.0
 10
12.73947195904756
 20
7.656810194141816
 30
0.0
 10
12.74570069861139
 20
7.678594758504079
 30
0.0
 10
12.74701720082511
 20
7.683199129406733
 30
0.0
  0
SPLINE
  5
274
330
1F
100
AcDbEntity
  8
0
  6
Continuous
 62
     7
370
    25
100
AcDbSpline
210
0.0
220
0.0
230
1.0
 70
     8
 71
     3
 72
     9
 73
     5
 74
     0
 42
0.000000001
 43
0.00000001
 40
0.0
 40
0.0
 40
0.0
 40
0.0
 40
0.2177792744258857
 40
1.0
 40
1.0
 40
1.0
 40
1.0
 10
12.69816673868198
 20
7.557485387429485
 30
0.0
 10
12.70034302390484
 20
7.561826643642057
 30
0.0
 10
12.7103361016603
 20
7.58176084639857
 30
0.0
 10
12.71873574281815
 20
7.602802274222591
 30
0.0
 10
12.72530611621921
 20
7.619261315162212
 30
0.0
  0
LWPOLYLINE
  5
275
330
1F
100
AcDbEntity
  8
0
  6
Continuous
 62
     7
370
    25
100
AcDbPolyline
 90
        9
 70
   128
 43
0.0
 10
12.8401259487
 20
7.7620960432
 10
12.8574314403
 20
7.7707764983
 10
12.8744408315
 20
7.7766888279
 10
12.8908630842
 20
7.7797318443
 10
12.9064172119
 20
7.7798535147
 10
12.9208370745
 20
7.7770516934
 10
12.9338759511
 20
7.7713744266
 10
12.9453107404
 20
7.7629187839
 10
12.954945778
 20
7.7518294701
  0
ARC
  5
276
330
1F
100
AcDbEntity
  8
0
  6
Continuous
 62
     7
370
    25
100
AcDbCircle
 10
12.8018345086
 20
7.6752787606
 30
0.0
 40
0.1711814007073224
100
AcDbArc
 50
333.4364232754
 51
26.5635767246
  0
ARC
  5
277
330
1F
100
AcDbEntity
  8
0
  6
Continuous
 62
     7
370
    25
100
AcDbCircle
 10
12.6849242006
 20
7.6982216489
 30
0.0
 40
0.2877683587473736
100
AcDbArc
 50
302.6379553845
 51
339.7729053515
  0
LWPOLYLINE
  5
278
330
1F
100
AcDbEntity
  8
0
  6
Continuous
 62
     7
370
    25
100
AcDbPolyline
 90
        9
 70
   128
 43
0.0
 10
12.8401259487
 20
7.4558932649
 10
12.8228204578
 20
7.4472128102
 10
12.8058110677
 20
7.4413004812
 10
12.7893888165
 20
7.4382574657
 10
12.7738346888
 20
7.4381358552
 10
12.7594148262
 20
7.4409376166
 10
12.7463759496
 20
7.4466148835
 10
12.7349411604
 20
7.4550705261
 10
12.7253061162
 20
7.4661598961
  0
ARC
  5
279
330
1F
100
AcDbEntity
  8
0
  6
Continuous
 62
     7
370
    25
100
AcDbCircle
 10
12.8784174628
 20
7.5427106056
 30
0.0
 40
0.1711814697738686
100
AcDbArc
 50
153.4364348332
 51
206.5635651668
  0
ARC
  5
27A
330
1F
100
AcDbEntity
  8
0
  6
Continuous
 62
     7
370
    25
100
AcDbCircle
 10
12.9953277145
 20
7.5197675986
 30
0.0
 40
0.2877684193998876
100
AcDbArc
 50
122.6379518234
 51
159.772884608
  0
SPLINE
  5
27B
330
1F
100
AcDbEntity
  8
0
  6
Continuous
 62
     7
370
    25
100
AcDbSpline
210
0.0
220
0.0
230
1.0
 70
     8
 71
     3
 72
     9
 73
     5
 74
     0
 42
0.000000001
 43
0.00000001
 40
0.0
 40
0.0
 40
0.0
 40
0.0
 40
0.2877203433927054
 40
1.0
 40
1.0
 40
1.0
 40
1.0
 10
12.78312686848602
 20
7.732769259540216
 30
0.0
 10
12.78887012108253
 20
7.735397454604094
 30
0.0
 10
12.80883135332906
 20
7.744532001827575
 30
0.0
 10
12.8271079212322
 20
7.75478969621318
 30
0.0
 10
12.84012594874221
 20
7.762096043247741
 30
0.0
  0
SPLINE
  5
27C
330
1F
100
AcDbEntity
  8
0
  6
Continuous
 62
     7
370
    25
100
AcDbSpline
210
0.0
220
0.0
230
1.0
 70
     8
 71
     3
 72
     9
 73
     5
 74
     0
 42
0.000000001
 43
0.00000001
 40
0.0
 40
0.0
 40
0.0
 40
0.0
 40
0.7191249520740931
 40
1.0
 40
1.0
 40
1.0
 40
1.0
 10
12.72530611621921
 20
7.466159896071717
 30
0.0
 10
12.71874126693671
 20
7.475352620584721
 30
0.0
 10
12.70961232590419
 20
7.488135829520097
 30
0.0
 10
12.69875716076042
 20
7.501861253011902
 30
0.0
 10
12.69570821573042
 20
7.505716381992966
 30
0.0
  0
LINE
  5
27D
330
1F
100
AcDbEntity
  8
0
  6
Continuous
 62
     7
370
    25
100
AcDbLine
 10
12.9111767062
 20
7.8094580884
 30
0.0
 11
12.9087373303
 21
7.8108663101
 31
0.0
  0
SPLINE
  5
27E
330
1F
100
AcDbEntity
  8
0
  6
Continuous
 62
     7
370
    25
100
AcDbSpline
210
0.0
220
0.0
230
1.0
 70
     8
 71
     3
 72
     9
 73
     5
 74
     0
 42
0.000000001
 43
0.00000001
 40
0.0
 40
0.0
 40
0.0
 40
0.0
 40
0.7750011556861742
 40
1.0
 40
1.0
 40
1.0
 40
1.0
 10
12.84012594874221
 20
7.762096043247741
 30
0.0
 10
12.85932780736877
 20
7.773922676716704
 30
0.0
 10
12.88410436219798
 20
7.789182826178663
 30
0.0
 10
12.90620425572916
 20
7.805734076225278
 30
0.0
 10
12.91117670623314
 20
7.809458088357715
 30
0.0
  0
SPLINE
  5
27F
330
1F
100
AcDbEntity
  8
0
  6
Continuous
 62
     7
370
    25
100
AcDbSpline
210
0.0
220
0.0
230
1.0
 70
     8
 71
     3
 72
     9
 73
     5
 74
     0
 42
0.000000001
 43
0.00000001
 40
0.0
 40
0.0
 40
0.0
 40
0.0
 40
0.4905065046706502
 40
1.0
 40
1.0
 40
1.0
 40
1.0
 10
12.7575840011773
 20
7.415700765036562
 30
0.0
 10
12.75295528020565
 20
7.423557384864939
 30
0.0
 10
12.74351866534411
 20
7.439574746008093
 30
0.0
 10
12.7314533274137
 20
7.457186713297705
 30
0.0
 10
12.72530611621921
 20
7.466159896071717
 30
0.0
  0
LINE
  5
280
330
1F
100
AcDbEntity
  8
0
  6
Continuous
 62
     7
370
    25
100
AcDbLine
 10
12.739704252
 20
7.4254867059
 30
0.0
 11
12.7193852242
 21
7.437216631
 31
0.0
  0
LINE
  5
281
330
1F
100
AcDbEntity
  8
0
  6
Continuous
 62
     7
370
    25
100
AcDbLine
 10
12.7193852242
 20
7.437216631
 30
0.0
 11
12.7066583395
 21
7.4553247048
 31
0.0
  0
SPLINE
  5
282
330
1F
100
AcDbEntity
  8
0
  6
Continuous
 62
     7
370
    25
100
AcDbSpline
210
0.0
220
0.0
230
1.0
 70
     8
 71
     3
 72
     9
 73
     5
 74
     0
 42
0.000000001
 43
0.00000001
 40
0.0
 40
0.0
 40
0.0
 40
0.0
 40
0.498962910130025
 40
1.0
 40
1.0
 40
1.0
 40
1.0
 10
12.91117670623314
 20
7.809458088357715
 30
0.0
 10
12.91907747591507
 20
7.799534293593405
 30
0.0
 10
12.93491185863475
 20
7.779645451030491
 30
0.0
 10
12.94825857706349
 20
7.761114276092567
 30
0.0
 10
12.95494577802435
 20
7.751829470129798
 30
0.0
  0
SPLINE
  5
283
330
1F
100
AcDbEntity
  8
0
  6
Continuous
 62
     7
370
    25
100
AcDbSpline
210
0.0
220
0.0
230
1.0
 70
     8
 71
     3
 72
     9
 73
     5
 74
     0
 42
0.000000001
 43
0.00000001
 40
0.0
 40
0.0
 40
0.0
 40
0.0
 40
0.507773182954494
 40
1.0
 40
1.0
 40
1.0
 40
1.0
 10
12.84012594874221
 20
7.455893264945718
 30
0.0
 10
12.82708694736291
 20
7.448672681359733
 30
0.0
 10
12.80140815648341
 20
7.434452585008892
 30
0.0
 10
12.77337557974774
 20
7.421801250501212
 30
0.0
 10
12.75957719372755
 20
7.41557392438512
 30
0.0
  0
SPLINE
  5
284
330
1F
100
AcDbEntity
  8
0
  6
Continuous
 62
     7
370
    25
100
AcDbSpline
210
0.0
220
0.0
230
1.0
 70
     8
 71
     3
 72
     9
 73
     5
 74
     0
 42
0.000000001
 43
0.00000001
 40
0.0
 40
0.0
 40
0.0
 40
0.0
 40
0.4989632435783661
 40
1.0
 40
1.0
 40
1.0
 40
1.0
 10
12.98772326232876
 20
7.700546115382659
 30
0.0
 10
12.98293902169184
 20
7.683299399372991
 30
0.0
 10
12.97335065882445
 20
7.648734296168231
 30
0.0
 10
12.96108921304615
 20
7.61541982540994
 30
0.0
 10
12.95494577802435
 20
7.598728051039302
 30
0.0
  0
SPLINE
  5
285
330
1F
100
AcDbEntity
  8
0
  6
Continuous
 62
     7
370
    25
100
AcDbSpline
210
0.0
220
0.0
230
1.0
 70
     8
 71
     3
 72
     9
 73
     5
 74
     0
 42
0.000000001
 43
0.00000001
 40
0.0
 40
0.0
 40
0.0
 40
0.0
 40
0.4987908249460077
 40
1.0
 40
1.0
 40
1.0
 40
1.0
 10
12.95494577802435
 20
7.751829470129798
 30
0.0
 10
12.96106286623439
 20
7.742898107353219
 30
0.0
 10
12.97332670090037
 20
7.724992078753866
 30
0.0
 10
12.98291667787868
 20
7.708707896790798
 30
0.0
 10
12.98772326232876
 20
7.700546115382659
 30
0.0
  0
SPLINE
  5
286
330
1F
100
AcDbEntity
  8
0
  6
Continuous
 62
     7
370
    25
100
AcDbSpline
210
0.0
220
0.0
230
1.0
 70
     8
 71
     3
 72
     9
 73
     5
 74
     0
 42
0.000000001
 43
0.00000001
 40
0.0
 40
0.0
 40
0.0
 40
0.0
 40
0.4987907826684673
 40
1.0
 40
1.0
 40
1.0
 40
1.0
 10
12.95494577802435
 20
7.598728051039302
 30
0.0
 10
12.9482897578473
 20
7.582422929297813
 30
0.0
 10
12.93494544514481
 20
7.54973362887759
 30
0.0
 10
12.91911238294584
 20
7.518773041715386
 30
0.0
 10
12.91117670623314
 20
7.503255310055692
 30
0.0
  0
SPLINE
  5
287
330
1F
100
AcDbEntity
  8
0
  6
Continuous
 62
     7
370
    25
100
AcDbSpline
210
0.0
220
0.0
230
1.0
 70
     8
 71
     3
 72
     9
 73
     5
 74
     0
 42
0.000000001
 43
0.00000001
 40
0.0
 40
0.0
 40
0.0
 40
0.0
 40
0.2249988443138257
 40
1.0
 40
1.0
 40
1.0
 40
1.0
 10
12.91117670623314
 20
7.503255310055692
 30
0.0
 10
12.90620425572916
 20
7.499531297923255
 30
0.0
 10
12.88410436219798
 20
7.48298004787664
 30
0.0
 10
12.85932780736877
 20
7.467719898414681
 30
0.0
 10
12.84012594874221
 20
7.455893264945718
 30
0.0
  0
SPLINE
  5
288
330
1F
100
AcDbEntity
  8
0
  6
Continuous
 62
     7
370
    25
100
AcDbSpline
210
0.0
220
0.0
230
1.0
 70
     8
 71
     3
 72
     9
 73
     5
 74
     0
 42
0.000000001
 43
0.00000001
 40
0.0
 40
0.0
 40
0.0
 40
0.0
 40
0.4164575066495185
 40
1.0
 40
1.0
 40
1.0
 40
1.0
 10
12.95537161520038
 20
7.853755102767868
 30
0.0
 10
12.95761866858705
 20
7.852440727685553
 30
0.0
 10
12.96301430523854
 20
7.849284643183945
 30
0.0
 10
12.96672393968631
 20
7.847101705734831
 30
0.0
 10
12.96888866902139
 20
7.845827868972947
 30
0.0
  0
SPLINE
  5
289
330
1F
100
AcDbEntity
  8
0
  6
Continuous
 62
     7
370
    25
100
AcDbSpline
210
0.0
220
0.0
230
1.0
 70
     8
 71
     3
 72
     9
 73
     5
 74
     0
 42
0.000000001
 43
0.00000001
 40
0.0
 40
0.0
 40
0.0
 40
0.0
 40
0.7446462724686069
 40
1.0
 40
1.0
 40
1.0
 40
1.0
 10
12.96888866902139
 20
7.845827868972947
 30
0.0
 10
12.96787605084109
 20
7.843504302525892
 30
0.0
 10
12.96651618614058
 20
7.840383939834285
 30
0.0
 10
12.96433604346006
 20
7.838300692700755
 30
0.0
 10
12.96377933590004
 20
7.837768727779838
 30
0.0
  0
SPLINE
  5
28A
330
1F
100
AcDbEntity
  8
0
  6
Continuous
 62
     7
370
    25
100
AcDbSpline
210
0.0
220
0.0
230
1.0
 70
     8
 71
     3
 72
     9
 73
     5
 74
     0
 42
0.000000001
 43
0.00000001
 40
0.0
 40
0.0
 40
0.0
 40
0.0
 40
0.5619035360695991
 40
1.0
 40
1.0
 40
1.0
 40
1.0
 10
12.96377933590004
 20
7.837768727779838
 30
0.0
 10
12.96558711546534
 20
7.838630495841871
 30
0.0
 10
12.9688043573036
 20
7.840164154213308
 30
0.0
 10
12.9714562988698
 20
7.842019082835589
 30
0.0
 10
12.9726181050925
 20
7.842831720505854
 30
0.0
  0
SPLINE
  5
28B
330
1F
100
AcDbEntity
  8
0
  6
Continuous
 62
     7
370
    25
100
AcDbSpline
210
0.0
220
0.0
230
1.0
 70
     8
 71
     3
 72
     9
 73
     5
 74
     0
 42
0.000000001
 43
0.00000001
 40
0.0
 40
0.0
 40
0.0
 40
0.0
 40
0.4613210333885968
 40
1.0
 40
1.0
 40
1.0
 40
1.0
 10
12.9726181050925
 20
7.842831720505854
 30
0.0
 10
12.97359544180808
 20
7.843839531965394
 30
0.0
 10
12.97571400273384
 20
7.846024152623458
 30
0.0
 10
12.97702255086097
 20
7.849187066513301
 30
0.0
 10
12.97772743821385
 20
7.850890861698963
 30
0.0
  0
SPLINE
  5
28C
330
1F
100
AcDbEntity
  8
0
  6
Continuous
 62
     7
370
    25
100
AcDbSpline
210
0.0
220
0.0
230
1.0
 70
     8
 71
     3
 72
     9
 73
     5
 74
     0
 42
0.000000001
 43
0.00000001
 40
0.0
 40
0.0
 40
0.0
 40
0.0
 40
0.4100495042766701
 40
0.9999999999999999
 40
0.9999999999999999
 40
0.9999999999999999
 40
0.9999999999999999
 10
12.97772743821385
 20
7.850890861698963
 30
0.0
 10
12.97998901041701
 20
7.853921996399407
 30
0.0
 10
12.98550437424398
 20
7.861314115323662
 30
0.0
 10
12.989288266211
 20
7.869747850911712
 30
0.0
 10
12.99152057515271
 20
7.874723337402682
 30
0.0
  0
SPLINE
  5
28D
330
1F
100
AcDbEntity
  8
0
  6
Continuous
 62
     7
370
    25
100
AcDbSpline
210
0.0
220
0.0
230
1.0
 70
     8
 71
     3
 72
     9
 73
     5
 74
     0
 42
0.000000001
 43
0.00000001
 40
0.0
 40
0.0
 40
0.0
 40
0.0
 40
0.8144134358950389
 40
1.0
 40
1.0
 40
1.0
 40
1.0
 10
12.99152057515271
 20
7.874723337402682
 30
0.0
 10
12.99300798254726
 20
7.876734027685552
 30
0.0
 10
12.99483433674158
 20
7.879202909207208
 30
0.0
 10
12.99558820863486
 20
7.881836618456723
 30
0.0
 10
12.99572811712931
 20
7.882325399507192
 30
0.0
  0
SPLINE
  5
28E
330
1F
100
AcDbEntity
  8
0
  6
Continuous
 62
     7
370
    25
100
AcDbSpline
210
0.0
220
0.0
230
1.0
 70
     8
 71
     3
 72
     9
 73
     5
 74
     0
 42
0.000000001
 43
0.00000001
 40
0.0
 40
0.0
 40
0.0
 40
0.0
 40
0.5854086876324145
 40
1.0
 40
1.0
 40
1.0
 40
1.0
 10
12.99572811712931
 20
7.882325399507192
 30
0.0
 10
12.9958779292387
 20
7.884240607756168
 30
0.0
 10
12.99613383953276
 20
7.887512182451656
 30
0.0
 10
12.99585262635337
 20
7.89108553091833
 30
0.0
 10
12.99573603781227
 20
7.892567010148675
 30
0.0
  0
SPLINE
  5
28F
330
1F
100
AcDbEntity
  8
0
  6
Continuous
 62
     7
370
    25
100
AcDbSpline
210
0.0
220
0.0
230
1.0
 70
     8
 71
     3
 72
     9
 73
     5
 74
     0
 42
0.000000001
 43
0.00000001
 40
0.0
 40
0.0
 40
0.0
 40
0.0
 40
0.5141200624977922
 40
1.0
 40
1.0
 40
1.0
 40
1.0
 10
12.99573603781227
 20
7.892567010148675
 30
0.0
 10
12.9952595994679
 20
7.891184842573684
 30
0.0
 10
12.99433289308329
 20
7.888496428571168
 30
0.0
 10
12.99235687938354
 20
7.886005270776138
 30
0.0
 10
12.9913967739706
 20
7.88479486718238
 30
0.0
  0
SPLINE
  5
290
330
1F
100
AcDbEntity
  8
0
  6
Continuous
 62
     7
370
    25
100
AcDbSpline
210
0.0
220
0.0
230
1.0
 70
     8
 71
     3
 72
     9
 73
     5
 74
     0
 42
0.000000001
 43
0.00000001
 40
0.0
 40
0.0
 40
0.0
 40
0.0
 40
0.417976858770282
 40
1.0
 40
1.0
 40
1.0
 40
1.0
 10
12.9913967739706
 20
7.88479486718238
 30
0.0
 10
12.9898885093687
 20
7.88568279309511
 30
0.0
 10
12.98628002107505
 20
7.887807135374109
 30
0.0
 10
12.98096241407131
 20
7.890918219237461
 30
0.0
 10
12.97786744373918
 20
7.89272894204024
 30
0.0
  0
SPLINE
  5
291
330
1F
100
AcDbEntity
  8
0
  6
Continuous
 62
     7
370
    25
100
AcDbSpline
210
0.0
220
0.0
230
1.0
 70
     8
 71
     3
 72
     9
 73
     5
 74
     0
 42
0.000000001
 43
0.00000001
 40
0.0
 40
0.0
 40
0.0
 40
0.0
 40
0.7446422611165153
 40
1.0
 40
1.0
 40
1.0
 40
1.0
 10
12.97786744373918
 20
7.89272894204024
 30
0.0
 10
12.9768742476557
 20
7.896210410617626
 30
0.0
 10
12.97554045808272
 20
7.900885767845091
 30
0.0
 10
12.97338267259552
 20
7.9054732757798
 30
0.0
 10
12.97283166537251
 20
7.906644731433117
 30
0.0
  0
SPLINE
  5
292
330
1F
100
AcDbEntity
  8
0
  6
Continuous
 62
     7
370
    25
100
AcDbSpline
210
0.0
220
0.0
230
1.0
 70
     8
 71
     3
 72
     9
 73
     5
 74
     0
 42
0.000000001
 43
0.00000001
 40
0.0
 40
0.0
 40
0.0
 40
0.0
 40
0.5619035360695991
 40
1.0
 40
1.0
 40
1.0
 40
1.0
 10
12.97283166537251
 20
7.906644731433117
 30
0.0
 10
12.97132604709043
 20
7.905608529375208
 30
0.0
 10
12.96864655108191
 20
7.903764436944047
 30
0.0
 10
12.96541056864361
 20
7.902246667940582
 30
0.0
 10
12.96399289618005
 20
7.901581738707102
 30
0.0
  0
SPLINE
  5
293
330
1F
100
AcDbEntity
  8
0
  6
Continuous
 62
     7
370
    25
100
AcDbSpline
210
0.0
220
0.0
230
1.0
 70
     8
 71
     3
 72
     9
 73
     5
 74
     0
 42
0.000000001
 43
0.00000001
 40
0.0
 40
0.0
 40
0.0
 40
0.0
 40
0.4613210333885968
 40
1.0
 40
1.0
 40
1.0
 40
1.0
 10
12.96399289618005
 20
7.901581738707102
 30
0.0
 10
12.96495973387728
 20
7.899451579248896
 30
0.0
 10
12.96705553620854
 20
7.894834058468283
 30
0.0
 10
12.96833789489478
 20
7.890175445911925
 30
0.0
 10
12.96902867454671
 20
7.887665949314224
 30
0.0
  0
SPLINE
  5
294
330
1F
100
AcDbEntity
  8
0
  6
Continuous
 62
     7
370
    25
100
AcDbSpline
210
0.0
220
0.0
230
1.0
 70
     8
 71
     3
 72
     9
 73
     5
 74
     0
 42
0.000000001
 43
0.00000001
 40
0.0
 40
0.0
 40
0.0
 40
0.0
 40
0.4100487402440628
 40
1.0
 40
1.0
 40
1.0
 40
1.0
 10
12.96902867454671
 20
7.887665949314224
 30
0.0
 10
12.96751989882417
 20
7.884200234478586
 30
0.0
 10
12.96384039545186
 20
7.875748276222175
 30
0.0
 10
12.9583928531539
 20
7.868274925313833
 30
0.0
 10
12.95517906871265
 20
7.863866012530858
 30
0.0
  0
SPLINE
  5
295
330
1F
100
AcDbEntity
  8
0
  6
Continuous
 62
     7
370
    25
100
AcDbSpline
210
0.0
220
0.0
230
1.0
 70
     8
 71
     3
 72
     9
 73
     5
 74
     0
 42
0.000000001
 43
0.00000001
 40
0.0
 40
0.0
 40
0.0
 40
0.0
 40
0.8144134393091841
 40
1.0
 40
1.0
 40
1.0
 40
1.0
 10
12.95517906871265
 20
7.863866012530858
 30
0.0
 10
12.95167676889481
 20
7.863018522995264
 30
0.0
 10
12.94737637348286
 20
7.861977909598324
 30
0.0
 10
12.94279348232116
 20
7.861554643783521
 30
0.0
 10
12.94194295931245
 20
7.861476091336693
 30
0.0
  0
SPLINE
  5
296
330
1F
100
AcDbEntity
  8
0
  6
Continuous
 62
     7
370
    25
100
AcDbSpline
210
0.0
220
0.0
230
1.0
 70
     8
 71
     3
 72
     9
 73
     5
 74
     0
 42
0.000000001
 43
0.00000001
 40
0.0
 40
0.0
 40
0.0
 40
0.0
 40
0.5854111127644602
 40
0.9999999999999999
 40
0.9999999999999999
 40
0.9999999999999999
 40
0.9999999999999999
 10
12.94194295931245
 20
7.861476091336693
 30
0.0
 10
12.94207940786904
 20
7.859395608359117
 30
0.0
 10
12.94231248946523
 20
7.855841724716983
 30
0.0
 10
12.94200847420015
 20
7.852606201469357
 30
0.0
 10
12.9418824328497
 20
7.851264789486499
 30
0.0
  0
SPLINE
  5
297
330
1F
100
AcDbEntity
  8
0
  6
Continuous
 62
     7
370
    25
100
AcDbSpline
210
0.0
220
0.0
230
1.0
 70
     8
 71
     3
 72
     9
 73
     5
 74
     0
 42
0.000000001
 43
0.00000001
 40
0.0
 40
0.0
 40
0.0
 40
0.0
 40
0.5159080930737155
 40
1.0
 40
1.0
 40
1.0
 40
1.0
 10
12.9418824328497
 20
7.8512647894865
 30
0.0
 10
12.94428800450301
 20
7.851539386852952
 30
0.0
 10
12.94895079558074
 20
7.852071647094923
 30
0.0
 10
12.95327722549366
 20
7.853205980935765
 30
0.0
 10
12.95537161520038
 20
7.853755102767868
 30
0.0
  0
LINE
  5
298
330
1F
100
AcDbEntity
  8
0
  6
Continuous
 62
     7
370
    25
100
AcDbLine
 10
12.980359568
 20
7.9223824772
 30
0.0
 11
12.9796869063
 21
7.9227925241
 31
0.0
  0
LINE
  5
299
330
1F
100
AcDbEntity
  8
0
  6
Continuous
 62
     7
370
    25
100
AcDbLine
 10
12.9659507049
 20
7.8994845702
 30
0.0
 11
12.9645321249
 21
7.9003165045
 31
0.0
  0
LINE
  5
29A
330
1F
100
AcDbEntity
  8
0
  6
Continuous
 62
     7
370
    25
100
AcDbLine
 10
12.968147262
 20
7.8905360062
 30
0.0
 11
12.9748254089
 21
7.8943613387
 31
0.0
  0
LINE
  5
29B
330
1F
100
AcDbEntity
  8
0
  6
Continuous
 62
     7
370
    25
100
AcDbLine
 10
12.9522755615
 20
7.8555424603
 30
0.0
 11
12.9523015014
 21
7.8632921211
 31
0.0
  0
LINE
  5
29C
330
1F
100
AcDbEntity
  8
0
  6
Continuous
 62
     7
370
    25
100
AcDbLine
 10
12.9553716152
 20
7.8537551028
 30
0.0
 11
12.9419890315
 21
7.8614807039
 31
0.0
  0
LINE
  5
29D
330
1F
100
AcDbEntity
  8
0
  6
Continuous
 62
     7
370
    25
100
AcDbLine
 10
12.9778674437
 20
7.892728942
 30
0.0
 11
12.9644695242
 21
7.9004633963
 31
0.0
  0
LINE
  5
29E
330
1F
100
AcDbEntity
  8
0
  6
Continuous
 62
     7
370
    25
100
AcDbLine
 10
12.991396774
 20
7.8847948672
 30
0.0
 11
12.9659507049
 21
7.8994845702
 31
0.0
  0
LINE
  5
29F
330
1F
100
AcDbEntity
  8
0
  6
Continuous
 62
     7
370
    25
100
AcDbLine
 10
12.9777274382
 20
7.8508908617
 30
0.0
 11
12.9551991102
 21
7.8638961886
 31
0.0
  0
LINE
  5
2A0
330
1F
100
AcDbEntity
  8
0
  6
Continuous
 62
     7
370
    25
100
AcDbLine
 10
12.9915205752
 20
7.8747233374
 30
0.0
 11
12.9690131184
 21
7.8877166156
 31
0.0
  0
LINE
  5
2A1
330
1F
100
AcDbEntity
  8
0
  6
Continuous
 62
     7
370
    25
100
AcDbLine
 10
12.9726181051
 20
7.8428317205
 30
0.0
 11
12.9685385774
 21
7.8451867817
 31
0.0
  0
LINE
  5
2A2
330
1F
100
AcDbEntity
  8
0
  6
Continuous
 62
     7
370
    25
100
AcDbLine
 10
12.9957281171
 20
7.8823253995
 30
0.0
 11
12.9914124338
 21
7.8848167904
 31
0.0
  0
SPLINE
  5
2A3
330
1F
100
AcDbEntity
  8
0
  6
Continuous
 62
     7
370
    25
100
AcDbSpline
210
0.0
220
0.0
230
1.0
 70
     8
 71
     3
 72
     9
 73
     5
 74
     0
 42
0.000000001
 43
0.00000001
 40
0.0
 40
0.0
 40
0.0
 40
0.0
 40
0.4164586142925048
 40
0.9999999999999999
 40
0.9999999999999999
 40
0.9999999999999999
 40
0.9999999999999999
 10
12.71212688406367
 20
9.156977098634837
 30
0.0
 10
12.71437393611373
 20
9.155662700224667
 30
0.0
 10
12.71976955520514
 20
9.152506568102384
 30
0.0
 10
12.72347920418088
 20
9.15032363611675
 30
0.0
 10
12.72564393788468
 20
9.14904980496095
 30
0.0
  0
SPLINE
  5
2A4
330
1F
100
AcDbEntity
  8
0
  6
Continuous
 62
     7
370
    25
100
AcDbSpline
210
0.0
220
0.0
230
1.0
 70
     8
 71
     3
 72
     9
 73
     5
 74
     0
 42
0.000000001
 43
0.00000001
 40
0.0
 40
0.0
 40
0.0
 40
0.0
 40
0.7446422611165153
 40
1.0
 40
1.0
 40
1.0
 40
1.0
 10
12.72564393788468
 20
9.14904980496095
 30
0.0
 10
12.724631306545
 20
9.146726275907513
 30
0.0
 10
12.72327141684688
 20
9.143605946623552
 30
0.0
 10
12.72109131152806
 20
9.141522649747525
 30
0.0
 10
12.72053460476332
 20
9.140990663767841
 30
0.0
  0
SPLINE
  5
2A5
330
1F
100
AcDbEntity
  8
0
  6
Continuous
 62
     7
370
    25
100
AcDbSpline
210
0.0
220
0.0
230
1.0
 70
     8
 71
     3
 72
     9
 73
     5
 74
     0
 42
0.000000001
 43
0.00000001
 40
0.0
 40
0.0
 40
0.0
 40
0.0
 40
0.5619028057368968
 40
1.0
 40
1.0
 40
1.0
 40
1.0
 10
12.72053460476332
 20
9.140990663767841
 30
0.0
 10
12.72234238198588
 20
9.141852430673472
 30
0.0
 10
12.72555962383642
 20
9.14338608898027
 30
0.0
 10
12.72821156567636
 20
9.145241017509598
 30
0.0
 10
12.72937337395579
 20
9.146053656493855
 30
0.0
  0
SPLINE
  5
2A6
330
1F
100
AcDbEntity
  8
0
  6
Continuous
 62
     7
370
    25
100
AcDbSpline
210
0.0
220
0.0
230
1.0
 70
     8
 71
     3
 72
     9
 73
     5
 74
     0
 42
0.000000001
 43
0.00000001
 40
0.0
 40
0.0
 40
0.0
 40
0.0
 40
0.4613210363973712
 40
1.0
 40
1.0
 40
1.0
 40
1.0
 10
12.72937337395579
 20
9.146053656493855
 30
0.0
 10
12.73035071418239
 20
9.147061469976832
 30
0.0
 10
12.73246928270514
 20
9.149246095006825
 30
0.0
 10
12.73377781940311
 20
9.15240900231461
 30
0.0
 10
12.7344827005954
 20
9.154112793945137
 30
0.0
  0
SPLINE
  5
2A7
330
1F
100
AcDbEntity
  8
0
  6
Continuous
 62
     7
370
    25
100
AcDbSpline
210
0.0
220
0.0
230
1.0
 70
     8
 71
     3
 72
     9
 73
     5
 74
     0
 42
0.000000001
 43
0.00000001
 40
0.0
 40
0.0
 40
0.0
 40
0.0
 40
0.4100487402440628
 40
1.0
 40
1.0
 40
1.0
 40
1.0
 10
12.7344827005954
 20
9.154112793945137
 30
0.0
 10
12.73674427371286
 20
9.157143928095001
 30
0.0
 10
12.74225965004619
 20
9.164536059450064
 30
0.0
 10
12.74604353175398
 20
9.172969821174194
 30
0.0
 10
12.74827583753426
 20
9.177945329527825
 30
0.0
  0
SPLINE
  5
2A8
330
1F
100
AcDbEntity
  8
0
  6
Continuous
 62
     7
370
    25
100
AcDbSpline
210
0.0
220
0.0
230
1.0
 70
     8
 71
     3
 72
     9
 73
     5
 74
     0
 42
0.000000001
 43
0.00000001
 40
0.0
 40
0.0
 40
0.0
 40
0.0
 40
0.8144134393091841
 40
1.0
 40
1.0
 40
1.0
 40
1.0
 10
12.74827583753426
 20
9.177945329527825
 30
0.0
 10
12.74976324492366
 20
9.179955991703526
 30
0.0
 10
12.75158959910399
 20
9.182424838702673
 30
0.0
 10
12.75234347101559
 20
9.185058550279898
 30
0.0
 10
12.75248337951086
 20
9.185547331753366
 30
0.0
  0
SPLINE
  5
2A9
330
1F
100
AcDbEntity
  8
0
  6
Continuous
 62
     7
370
    25
100
AcDbSpline
210
0.0
220
0.0
230
1.0
 70
     8
 71
     3
 72
     9
 73
     5
 74
     0
 42
0.000000001
 43
0.00000001
 40
0.0
 40
0.0
 40
0.0
 40
0.0
 40
0.58541111559309
 40
1.0
 40
1.0
 40
1.0
 40
1.0
 10
12.75248337951086
 20
9.185547331753366
 30
0.0
 10
12.75263319591552
 20
9.187462561735343
 30
0.0
 10
12.75288911248538
 20
9.190734159986489
 30
0.0
 10
12.75260789135043
 20
9.194307524900527
 30
0.0
 10
12.75249130019382
 20
9.195789002273818
 30
0.0
  0
SPLINE
  5
2AA
330
1F
100
AcDbEntity
  8
0
  6
Continuous
 62
     7
370
    25
100
AcDbSpline
210
0.0
220
0.0
230
1.0
 70
     8
 71
     3
 72
     9
 73
     5
 74
     0
 42
0.000000001
 43
0.00000001
 40
0.0
 40
0.0
 40
0.0
 40
0.0
 40
0.5141189019363421
 40
1.0
 40
1.0
 40
1.0
 40
1.0
 10
12.75249130019382
 20
9.195789002273818
 30
0.0
 10
12.75201486713912
 20
9.194406806483695
 30
0.0
 10
12.75108816895139
 20
9.191718331531856
 30
0.0
 10
12.74911214771855
 20
9.189227235690367
 30
0.0
 10
12.74815203635214
 20
9.188016859307522
 30
0.0
  0
SPLINE
  5
2AB
330
1F
100
AcDbEntity
  8
0
  6
Continuous
 62
     7
370
    25
100
AcDbSpline
210
0.0
220
0.0
230
1.0
 70
     8
 71
     3
 72
     9
 73
     5
 74
     0
 42
0.000000001
 43
0.00000001
 40
0.0
 40
0.0
 40
0.0
 40
0.0
 40
0.4179756136713794
 40
1.0
 40
1.0
 40
1.0
 40
1.0
 10
12.74815203635214
 20
9.188016859307522
 30
0.0
 10
12.74664377183673
 20
9.188904764073698
 30
0.0
 10
12.74303527300074
 20
9.191029062088065
 30
0.0
 10
12.73771768088839
 20
9.194140149365042
 30
0.0
 10
12.73462271260246
 20
9.19595087802824
 30
0.0
  0
SPLINE
  5
2AC
330
1F
100
AcDbEntity
  8
0
  6
Continuous
 62
     7
370
    25
100
AcDbSpline
210
0.0
220
0.0
230
1.0
 70
     8
 71
     3
 72
     9
 73
     5
 74
     0
 42
0.000000001
 43
0.00000001
 40
0.0
 40
0.0
 40
0.0
 40
0.0
 40
0.7446462719329603
 40
0.9999999999999999
 40
0.9999999999999999
 40
0.9999999999999999
 40
0.9999999999999999
 10
12.73462271260246
 20
9.19595087802824
 30
0.0
 10
12.73362952658295
 20
9.199432367171939
 30
0.0
 10
12.73229575770913
 20
9.204107726835876
 30
0.0
 10
12.73013793565905
 20
9.20869522812309
 30
0.0
 10
12.72958692775406
 20
9.209866663679293
 30
0.0
  0
SPLINE
  5
2AD
330
1F
100
AcDbEntity
  8
0
  6
Continuous
 62
     7
370
    25
100
AcDbSpline
210
0.0
220
0.0
230
1.0
 70
     8
 71
     3
 72
     9
 73
     5
 74
     0
 42
0.000000001
 43
0.00000001
 40
0.0
 40
0.0
 40
0.0
 40
0.0
 40
0.5619032159338926
 40
1.0
 40
1.0
 40
1.0
 40
1.0
 10
12.72958692775406
 20
9.209866663679293
 30
0.0
 10
12.72808131155854
 20
9.208830462917264
 30
0.0
 10
12.72540181773678
 20
9.206986371741692
 30
0.0
 10
12.72216583755449
 20
9.20546860390383
 30
0.0
 10
12.72074816504333
 20
9.204803674695103
 30
0.0
  0
SPLINE
  5
2AE
330
1F
100
AcDbEntity
  8
0
  6
Continuous
 62
     7
370
    25
100
AcDbSpline
210
0.0
220
0.0
230
1.0
 70
     8
 71
     3
 72
     9
 73
     5
 74
     0
 42
0.000000001
 43
0.00000001
 40
0.0
 40
0.0
 40
0.0
 40
0.0
 40
0.4613210374424854
 40
1.0
 40
1.0
 40
1.0
 40
1.0
 10
12.72074816504333
 20
9.204803674695103
 30
0.0
 10
12.72171499656713
 20
9.202673511682288
 30
0.0
 10
12.7238107854979
 20
9.198055983236966
 30
0.0
 10
12.72509315690877
 20
9.19339737795986
 30
0.0
 10
12.72578394341
 20
9.190887885302226
 30
0.0
  0
SPLINE
  5
2AF
330
1F
100
AcDbEntity
  8
0
  6
Continuous
 62
     7
370
    25
100
AcDbSpline
210
0.0
220
0.0
230
1.0
 70
     8
 71
     3
 72
     9
 73
     5
 74
     0
 42
0.000000001
 43
0.00000001
 40
0.0
 40
0.0
 40
0.0
 40
0.0
 40
0.4100495042766701
 40
0.9999999999999999
 40
0.9999999999999999
 40
0.9999999999999999
 40
0.9999999999999999
 10
12.72578394341
 20
9.190887885302226
 30
0.0
 10
12.72427516922622
 20
9.187422169555509
 30
0.0
 10
12.72059567646246
 20
9.178970224825493
 30
0.0
 10
12.71514812390669
 20
9.171496900052409
 30
0.0
 10
12.71193433757593
 20
9.167088008397828
 30
0.0
  0
SPLINE
  5
2B0
330
1F
100
AcDbEntity
  8
0
  6
Continuous
 62
     7
370
    25
100
AcDbSpline
210
0.0
220
0.0
230
1.0
 70
     8
 71
     3
 72
     9
 73
     5
 74
     0
 42
0.000000001
 43
0.00000001
 40
0.0
 40
0.0
 40
0.0
 40
0.0
 40
0.8144134358950389
 40
1.0
 40
1.0
 40
1.0
 40
1.0
 10
12.71193433757593
 20
9.167088008397828
 30
0.0
 10
12.70843203772363
 20
9.166240490771987
 30
0.0
 10
12.70413164225134
 20
9.1651998428793
 30
0.0
 10
12.69954875118281
 20
9.164776579348995
 30
0.0
 10
12.69869822817573
 20
9.164698027324695
 30
0.0
  0
SPLINE
  5
2B1
330
1F
100
AcDbEntity
  8
0
  6
Continuous
 62
     7
370
    25
100
AcDbSpline
210
0.0
220
0.0
230
1.0
 70
     8
 71
     3
 72
     9
 73
     5
 74
     0
 42
0.000000001
 43
0.00000001
 40
0.0
 40
0.0
 40
0.0
 40
0.0
 40
0.5854086876324145
 40
1.0
 40
1.0
 40
1.0
 40
1.0
 10
12.69869822817573
 20
9.164698027324695
 30
0.0
 10
12.69883467608471
 20
9.162617564684648
 30
0.0
 10
12.69906775754022
 20
9.159063701060825
 30
0.0
 10
12.69876374335359
 20
9.15582819716133
 30
0.0
 10
12.69863770171298
 20
9.15448678535347
 30
0.0
  0
SPLINE
  5
2B2
330
1F
100
AcDbEntity
  8
0
  6
Continuous
 62
     7
370
    25
100
AcDbSpline
210
0.0
220
0.0
230
1.0
 70
     8
 71
     3
 72
     9
 73
     5
 74
     0
 42
0.000000001
 43
0.00000001
 40
0.0
 40
0.0
 40
0.0
 40
0.0
 40
0.5159080930737155
 40
1.0
 40
1.0
 40
1.0
 40
1.0
 10
12.69863770171298
 20
9.154486785353468
 30
0.0
 10
12.70104327336629
 20
9.154761382719922
 30
0.0
 10
12.70570606444402
 20
9.155293642961892
 30
0.0
 10
12.71003249435694
 20
9.156427976802734
 30
0.0
 10
12.71212688406367
 20
9.156977098634837
 30
0.0
  0
LINE
  5
2B3
330
1F
100
AcDbEntity
  8
0
  6
Continuous
 62
     7
370
    25
100
AcDbLine
 10
12.7371148369
 20
9.2256044132
 30
0.0
 11
12.7364421687
 21
9.2260144564
 31
0.0
  0
LINE
  5
2B4
330
1F
100
AcDbEntity
  8
0
  6
Continuous
 62
     7
370
    25
100
AcDbLine
 10
12.7227059673
 20
9.2027065623
 30
0.0
 11
12.7212873937
 21
9.2035385003
 31
0.0
  0
LINE
  5
2B5
330
1F
100
AcDbEntity
  8
0
  6
Continuous
 62
     7
370
    25
100
AcDbLine
 10
12.7249025373
 20
9.1937579459
 30
0.0
 11
12.7315806713
 21
9.197583271
 31
0.0
  0
LINE
  5
2B6
330
1F
100
AcDbEntity
  8
0
  6
Continuous
 62
     7
370
    25
100
AcDbLine
 10
12.7090308369
 20
9.1587644
 30
0.0
 11
12.7090567703
 21
9.1665140571
 31
0.0
  0
LINE
  5
2B7
330
1F
100
AcDbEntity
  8
0
  6
Continuous
 62
     7
370
    25
100
AcDbLine
 10
12.7121268841
 20
9.1569770986
 30
0.0
 11
12.6987443004
 21
9.1647026998
 31
0.0
  0
LINE
  5
2B8
330
1F
100
AcDbEntity
  8
0
  6
Continuous
 62
     7
370
    25
100
AcDbLine
 10
12.7346227126
 20
9.195950878
 30
0.0
 11
12.7212247931
 21
9.2036853323
 31
0.0
  0
LINE
  5
2B9
330
1F
100
AcDbEntity
  8
0
  6
Continuous
 62
     7
370
    25
100
AcDbLine
 10
12.7481520364
 20
9.1880168593
 30
0.0
 11
12.7227059673
 21
9.2027065623
 31
0.0
  0
LINE
  5
2BA
330
1F
100
AcDbEntity
  8
0
  6
Continuous
 62
     7
370
    25
100
AcDbLine
 10
12.7344827006
 20
9.1541127939
 30
0.0
 11
12.7119543726
 21
9.1671181209
 31
0.0
  0
LINE
  5
2BB
330
1F
100
AcDbEntity
  8
0
  6
Continuous
 62
     7
370
    25
100
AcDbLine
 10
12.7482758375
 20
9.1779453295
 30
0.0
 11
12.7257683808
 21
9.1909386078
 31
0.0
  0
LINE
  5
2BC
330
1F
100
AcDbEntity
  8
0
  6
Continuous
 62
     7
370
    25
100
AcDbLine
 10
12.729373374
 20
9.1460536565
 30
0.0
 11
12.7252938463
 21
9.1484087177
 31
0.0
  0
LINE
  5
2BD
330
1F
100
AcDbEntity
  8
0
  6
Continuous
 62
     7
370
    25
100
AcDbLine
 10
12.7524833795
 20
9.1855473318
 30
0.0
 11
12.7481676962
 21
9.1880387227
 31
0.0
  0
SPLINE
  5
2BE
330
1F
100
AcDbEntity
  8
0
  6
Continuous
 62
     7
370
    25
100
AcDbSpline
210
0.0
220
0.0
230
1.0
 70
     8
 71
     3
 72
     9
 73
     5
 74
     0
 42
0.000000001
 43
0.00000001
 40
0.0
 40
0.0
 40
0.0
 40
0.0
 40
0.4164575066495185
 40
1.0
 40
1.0
 40
1.0
 40
1.0
 10
12.71212688406367
 20
7.713332908453091
 30
0.0
 10
12.71437393745033
 20
7.712018533370776
 30
0.0
 10
12.71976957410182
 20
7.708862448869168
 30
0.0
 10
12.7234792085496
 20
7.706679511420054
 30
0.0
 10
12.72564393788468
 20
7.70540567465817
 30
0.0
  0
SPLINE
  5
2BF
330
1F
100
AcDbEntity
  8
0
  6
Continuous
 62
     7
370
    25
100
AcDbSpline
210
0.0
220
0.0
230
1.0
 70
     8
 71
     3
 72
     9
 73
     5
 74
     0
 42
0.000000001
 43
0.00000001
 40
0.0
 40
0.0
 40
0.0
 40
0.0
 40
0.7446462724686069
 40
1.0
 40
1.0
 40
1.0
 40
1.0
 10
12.72564393788468
 20
7.70540567465817
 30
0.0
 10
12.72463131970438
 20
7.703082108211115
 30
0.0
 10
12.72327145500386
 20
7.699961745519508
 30
0.0
 10
12.72109131232334
 20
7.697878498385977
 30
0.0
 10
12.72053460476332
 20
7.697346533465061
 30
0.0
  0
SPLINE
  5
2C0
330
1F
100
AcDbEntity
  8
0
  6
Continuous
 62
     7
370
    25
100
AcDbSpline
210
0.0
220
0.0
230
1.0
 70
     8
 71
     3
 72
     9
 73
     5
 74
     0
 42
0.000000001
 43
0.00000001
 40
0.0
 40
0.0
 40
0.0
 40
0.0
 40
0.5619028057368968
 40
1.0
 40
1.0
 40
1.0
 40
1.0
 10
12.72053460476332
 20
7.697346533465061
 30
0.0
 10
12.72234238198588
 20
7.698208300370693
 30
0.0
 10
12.72555962383642
 20
7.699741958677491
 30
0.0
 10
12.72821156567636
 20
7.701596887206819
 30
0.0
 10
12.72937337395579
 20
7.702409526191078
 30
0.0
  0
SPLINE
  5
2C1
330
1F
100
AcDbEntity
  8
0
  6
Continuous
 62
     7
370
    25
100
AcDbSpline
210
0.0
220
0.0
230
1.0
 70
     8
 71
     3
 72
     9
 73
     5
 74
     0
 42
0.000000001
 43
0.00000001
 40
0.0
 40
0.0
 40
0.0
 40
0.0
 40
0.4613210363973712
 40
1.0
 40
1.0
 40
1.0
 40
1.0
 10
12.72937337395579
 20
7.702409526191078
 30
0.0
 10
12.73035071418239
 20
7.703417339674053
 30
0.0
 10
12.73246928270514
 20
7.705601964704045
 30
0.0
 10
12.73377781940311
 20
7.70876487201183
 30
0.0
 10
12.7344827005954
 20
7.710468663642358
 30
0.0
  0
SPLINE
  5
2C2
330
1F
100
AcDbEntity
  8
0
  6
Continuous
 62
     7
370
    25
100
AcDbSpline
210
0.0
220
0.0
230
1.0
 70
     8
 71
     3
 72
     9
 73
     5
 74
     0
 42
0.000000001
 43
0.00000001
 40
0.0
 40
0.0
 40
0.0
 40
0.0
 40
0.4100495042766701
 40
0.9999999999999999
 40
0.9999999999999999
 40
0.9999999999999999
 40
0.9999999999999999
 10
12.7344827005954
 20
7.710468663642358
 30
0.0
 10
12.73674427279856
 20
7.713499798342804
 30
0.0
 10
12.74225963662553
 20
7.720891917267058
 30
0.0
 10
12.74604352859255
 20
7.729325652855108
 30
0.0
 10
12.74827583753426
 20
7.734301139346077
 30
0.0
  0
SPLINE
  5
2C3
330
1F
100
AcDbEntity
  8
0
  6
Continuous
 62
     7
370
    25
100
AcDbSpline
210
0.0
220
0.0
230
1.0
 70
     8
 71
     3
 72
     9
 73
     5
 74
     0
 42
0.000000001
 43
0.00000001
 40
0.0
 40
0.0
 40
0.0
 40
0.0
 40
0.8144134358950389
 40
1.0
 40
1.0
 40
1.0
 40
1.0
 10
12.74827583753426
 20
7.734301139346077
 30
0.0
 10
12.74976324492881
 20
7.736311829628947
 30
0.0
 10
12.75158959912313
 20
7.738780711150604
 30
0.0
 10
12.75234347101641
 20
7.741414420400119
 30
0.0
 10
12.75248337951086
 20
7.741903201450588
 30
0.0
  0
SPLINE
  5
2C4
330
1F
100
AcDbEntity
  8
0
  6
Continuous
 62
     7
370
    25
100
AcDbSpline
210
0.0
220
0.0
230
1.0
 70
     8
 71
     3
 72
     9
 73
     5
 74
     0
 42
0.000000001
 43
0.00000001
 40
0.0
 40
0.0
 40
0.0
 40
0.0
 40
0.5854086904610724
 40
1.0
 40
1.0
 40
1.0
 40
1.0
 10
12.75248337951086
 20
7.741903201450588
 30
0.0
 10
12.75263319530693
 20
7.743818411820206
 30
0.0
 10
12.75288911189735
 20
7.747089990122383
 30
0.0
 10
12.75260789166021
 20
7.75066333454745
 30
0.0
 10
12.75249130019382
 20
7.752144812092072
 30
0.0
  0
SPLINE
  5
2C5
330
1F
100
AcDbEntity
  8
0
  6
Continuous
 62
     7
370
    25
100
AcDbSpline
210
0.0
220
0.0
230
1.0
 70
     8
 71
     3
 72
     9
 73
     5
 74
     0
 42
0.000000001
 43
0.00000001
 40
0.0
 40
0.0
 40
0.0
 40
0.0
 40
0.5141189196309428
 40
1.0
 40
1.0
 40
1.0
 40
1.0
 10
12.75249130019382
 20
7.752144812092072
 30
0.0
 10
12.75201486715921
 20
7.75076264684445
 30
0.0
 10
12.75108816904245
 20
7.748074231392602
 30
0.0
 10
12.7491121477248
 20
7.745583074922727
 30
0.0
 10
12.74815203635214
 20
7.744372669125775
 30
0.0
  0
SPLINE
  5
2C6
330
1F
100
AcDbEntity
  8
0
  6
Continuous
 62
     7
370
    25
100
AcDbSpline
210
0.0
220
0.0
230
1.0
 70
     8
 71
     3
 72
     9
 73
     5
 74
     0
 42
0.000000001
 43
0.00000001
 40
0.0
 40
0.0
 40
0.0
 40
0.0
 40
0.4179767213761213
 40
1.0
 40
1.0
 40
1.0
 40
1.0
 10
12.74815203635214
 20
7.744372669125775
 30
0.0
 10
12.74664377408367
 20
7.745260596709375
 30
0.0
 10
12.7430352901865
 20
7.747384943684192
 30
0.0
 10
12.73771768348772
 20
7.750496025618177
 30
0.0
 10
12.73462271260246
 20
7.752306747725463
 30
0.0
  0
SPLINE
  5
2C7
330
1F
100
AcDbEntity
  8
0
  6
Continuous
 62
     7
370
    25
100
AcDbSpline
210
0.0
220
0.0
230
1.0
 70
     8
 71
     3
 72
     9
 73
     5
 74
     0
 42
0.000000001
 43
0.00000001
 40
0.0
 40
0.0
 40
0.0
 40
0.0
 40
0.7446422605808568
 40
0.9999999999999999
 40
0.9999999999999999
 40
0.9999999999999999
 40
0.9999999999999999
 10
12.73462271260246
 20
7.752306747725463
 30
0.0
 10
12.73362951355224
 20
7.755788214594763
 30
0.0
 10
12.73229571999418
 20
7.760463569531757
 30
0.0
 10
12.73013793488237
 20
7.765051077669016
 30
0.0
 10
12.72958692775406
 20
7.766222533376513
 30
0.0
  0
SPLINE
  5
2C8
330
1F
100
AcDbEntity
  8
0
  6
Continuous
 62
     7
370
    25
100
AcDbSpline
210
0.0
220
0.0
230
1.0
 70
     8
 71
     3
 72
     9
 73
     5
 74
     0
 42
0.000000001
 43
0.00000001
 40
0.0
 40
0.0
 40
0.0
 40
0.0
 40
0.5619032159338926
 40
1.0
 40
1.0
 40
1.0
 40
1.0
 10
12.72958692775406
 20
7.766222533376513
 30
0.0
 10
12.72808131155854
 20
7.765186332614485
 30
0.0
 10
12.72540181773678
 20
7.763342241438915
 30
0.0
 10
12.72216583755449
 20
7.761824473601052
 30
0.0
 10
12.72074816504333
 20
7.761159544392325
 30
0.0
  0
SPLINE
  5
2C9
330
1F
100
AcDbEntity
  8
0
  6
Continuous
 62
     7
370
    25
100
AcDbSpline
210
0.0
220
0.0
230
1.0
 70
     8
 71
     3
 72
     9
 73
     5
 74
     0
 42
0.000000001
 43
0.00000001
 40
0.0
 40
0.0
 40
0.0
 40
0.0
 40
0.4613210374424854
 40
1.0
 40
1.0
 40
1.0
 40
1.0
 10
12.72074816504333
 20
7.761159544392325
 30
0.0
 10
12.72171499656713
 20
7.759029381379509
 30
0.0
 10
12.7238107854979
 20
7.754411852934187
 30
0.0
 10
12.72509315690877
 20
7.749753247657083
 30
0.0
 10
12.72578394341
 20
7.747243754999446
 30
0.0
  0
SPLINE
  5
2CA
330
1F
100
AcDbEntity
  8
0
  6
Continuous
 62
     7
370
    25
100
AcDbSpline
210
0.0
220
0.0
230
1.0
 70
     8
 71
     3
 72
     9
 73
     5
 74
     0
 42
0.000000001
 43
0.00000001
 40
0.0
 40
0.0
 40
0.0
 40
0.0
 40
0.4100487402440628
 40
1.0
 40
1.0
 40
1.0
 40
1.0
 10
12.72578394341
 20
7.747243754999446
 30
0.0
 10
12.72427516768746
 20
7.743778040163809
 30
0.0
 10
12.72059566431515
 20
7.735326081907398
 30
0.0
 10
12.71514812201719
 20
7.727852730999056
 30
0.0
 10
12.71193433757593
 20
7.723443818216081
 30
0.0
  0
SPLINE
  5
2CB
330
1F
100
AcDbEntity
  8
0
  6
Continuous
 62
     7
370
    25
100
AcDbSpline
210
0.0
220
0.0
230
1.0
 70
     8
 71
     3
 72
     9
 73
     5
 74
     0
 42
0.000000001
 43
0.00000001
 40
0.0
 40
0.0
 40
0.0
 40
0.0
 40
0.8144134393091841
 40
1.0
 40
1.0
 40
1.0
 40
1.0
 10
12.71193433757593
 20
7.723443818216081
 30
0.0
 10
12.7084320377581
 20
7.722596328680488
 30
0.0
 10
12.70413164234614
 20
7.721555715283547
 30
0.0
 10
12.69954875118445
 20
7.721132449468744
 30
0.0
 10
12.69869822817573
 20
7.721053897021917
 30
0.0
  0
SPLINE
  5
2CC
330
1F
100
AcDbEntity
  8
0
  6
Continuous
 62
     7
370
    25
100
AcDbSpline
210
0.0
220
0.0
230
1.0
 70
     8
 71
     3
 72
     9
 73
     5
 74
     0
 42
0.000000001
 43
0.00000001
 40
0.0
 40
0.0
 40
0.0
 40
0.0
 40
0.5854111127644602
 40
0.9999999999999999
 40
0.9999999999999999
 40
0.9999999999999999
 40
0.9999999999999999
 10
12.69869822817573
 20
7.721053897021917
 30
0.0
 10
12.69883467673233
 20
7.71897341404434
 30
0.0
 10
12.69906775832851
 20
7.715419530402206
 30
0.0
 10
12.69876374306343
 20
7.71218400715458
 30
0.0
 10
12.69863770171298
 20
7.710842595171722
 30
0.0
  0
SPLINE
  5
2CD
330
1F
100
AcDbEntity
  8
0
  6
Continuous
 62
     7
370
    25
100
AcDbSpline
210
0.0
220
0.0
230
1.0
 70
     8
 71
     3
 72
     9
 73
     5
 74
     0
 42
0.000000001
 43
0.00000001
 40
0.0
 40
0.0
 40
0.0
 40
0.0
 40
0.5159080930737155
 40
1.0
 40
1.0
 40
1.0
 40
1.0
 10
12.69863770171298
 20
7.710842595171722
 30
0.0
 10
12.70104327336629
 20
7.711117192538175
 30
0.0
 10
12.70570606444402
 20
7.711649452780146
 30
0.0
 10
12.71003249435694
 20
7.712783786620988
 30
0.0
 10
12.71212688406367
 20
7.713332908453091
 30
0.0
  0
LINE
  5
2CE
330
1F
100
AcDbEntity
  8
0
  6
Continuous
 62
     7
370
    25
100
AcDbLine
 10
12.7371148369
 20
7.7819602829
 30
0.0
 11
12.7364421687
 21
7.7823703261
 31
0.0
  0
LINE
  5
2CF
330
1F
100
AcDbEntity
  8
0
  6
Continuous
 62
     7
370
    25
100
AcDbLine
 10
12.7227059673
 20
7.7590623721
 30
0.0
 11
12.7212873937
 21
7.7598943102
 31
0.0
  0
LINE
  5
2D0
330
1F
100
AcDbEntity
  8
0
  6
Continuous
 62
     7
370
    25
100
AcDbLine
 10
12.7249025373
 20
7.7501138156
 30
0.0
 11
12.7315806713
 21
7.7539391407
 31
0.0
  0
LINE
  5
2D1
330
1F
100
AcDbEntity
  8
0
  6
Continuous
 62
     7
370
    25
100
AcDbLine
 10
12.7090308369
 20
7.7151202697
 30
0.0
 11
12.7090567703
 21
7.7228699268
 31
0.0
  0
LINE
  5
2D2
330
1F
100
AcDbEntity
  8
0
  6
Continuous
 62
     7
370
    25
100
AcDbLine
 10
12.7121268841
 20
7.7133329085
 30
0.0
 11
12.6987443004
 21
7.7210585096
 31
0.0
  0
LINE
  5
2D3
330
1F
100
AcDbEntity
  8
0
  6
Continuous
 62
     7
370
    25
100
AcDbLine
 10
12.7346227126
 20
7.7523067477
 30
0.0
 11
12.7212247931
 21
7.760041202
 31
0.0
  0
LINE
  5
2D4
330
1F
100
AcDbEntity
  8
0
  6
Continuous
 62
     7
370
    25
100
AcDbLine
 10
12.7481520364
 20
7.7443726691
 30
0.0
 11
12.7227059673
 21
7.7590623721
 31
0.0
  0
LINE
  5
2D5
330
1F
100
AcDbEntity
  8
0
  6
Continuous
 62
     7
370
    25
100
AcDbLine
 10
12.7344827006
 20
7.7104686636
 30
0.0
 11
12.7119543726
 21
7.7234739906
 31
0.0
  0
LINE
  5
2D6
330
1F
100
AcDbEntity
  8
0
  6
Continuous
 62
     7
370
    25
100
AcDbLine
 10
12.7482758375
 20
7.7343011393
 30
0.0
 11
12.7257683808
 21
7.7472944176
 31
0.0
  0
LINE
  5
2D7
330
1F
100
AcDbEntity
  8
0
  6
Continuous
 62
     7
370
    25
100
AcDbLine
 10
12.729373374
 20
7.7024095262
 30
0.0
 11
12.7252938463
 21
7.7047645874
 31
0.0
  0
LINE
  5
2D8
330
1F
100
AcDbEntity
  8
0
  6
Continuous
 62
     7
370
    25
100
AcDbLine
 10
12.7524833795
 20
7.7419032015
 30
0.0
 11
12.7481676962
 21
7.7443945924
 31
0.0
  0
SPLINE
  5
2D9
330
1F
100
AcDbEntity
  8
0
  6
Continuous
 62
     7
370
    25
100
AcDbSpline
210
0.0
220
0.0
230
1.0
 70
     8
 71
     3
 72
     9
 73
     5
 74
     0
 42
0.000000001
 43
0.00000001
 40
0.0
 40
0.0
 40
0.0
 40
0.0
 40
0.4164586142925048
 40
0.9999999999999999
 40
0.9999999999999999
 40
0.9999999999999999
 40
0.9999999999999999
 10
12.95537161520038
 20
9.297399292949613
 30
0.0
 10
12.95761866725044
 20
9.296084894539444
 30
0.0
 10
12.96301428634185
 20
9.29292876241716
 30
0.0
 10
12.9667239353176
 20
9.290745830431527
 30
0.0
 10
12.96888866902139
 20
9.289471999275726
 30
0.0
  0
SPLINE
  5
2DA
330
1F
100
AcDbEntity
  8
0
  6
Continuous
 62
     7
370
    25
100
AcDbSpline
210
0.0
220
0.0
230
1.0
 70
     8
 71
     3
 72
     9
 73
     5
 74
     0
 42
0.000000001
 43
0.00000001
 40
0.0
 40
0.0
 40
0.0
 40
0.0
 40
0.7446422611165153
 40
1.0
 40
1.0
 40
1.0
 40
1.0
 10
12.96888866902139
 20
9.289471999275726
 30
0.0
 10
12.96787603768171
 20
9.28714847022229
 30
0.0
 10
12.96651614798359
 20
9.284028140938329
 30
0.0
 10
12.96433604266478
 20
9.281944844062302
 30
0.0
 10
12.96377933590004
 20
9.281412858082618
 30
0.0
  0
SPLINE
  5
2DB
330
1F
100
AcDbEntity
  8
0
  6
Continuous
 62
     7
370
    25
100
AcDbSpline
210
0.0
220
0.0
230
1.0
 70
     8
 71
     3
 72
     9
 73
     5
 74
     0
 42
0.000000001
 43
0.00000001
 40
0.0
 40
0.0
 40
0.0
 40
0.0
 40
0.5619035360695991
 40
1.0
 40
1.0
 40
1.0
 40
1.0
 10
12.96377933590004
 20
9.281412858082618
 30
0.0
 10
12.96558711546534
 20
9.28227462614465
 30
0.0
 10
12.9688043573036
 20
9.283808284516086
 30
0.0
 10
12.9714562988698
 20
9.285663213138367
 30
0.0
 10
12.9726181050925
 20
9.286475850808632
 30
0.0
  0
SPLINE
  5
2DC
330
1F
100
AcDbEntity
  8
0
  6
Continuous
 62
     7
370
    25
100
AcDbSpline
210
0.0
220
0.0
230
1.0
 70
     8
 71
     3
 72
     9
 73
     5
 74
     0
 42
0.000000001
 43
0.00000001
 40
0.0
 40
0.0
 40
0.0
 40
0.0
 40
0.4613210333885968
 40
1.0
 40
1.0
 40
1.0
 40
1.0
 10
12.9726181050925
 20
9.286475850808632
 30
0.0
 10
12.97359544180808
 20
9.287483662268173
 30
0.0
 10
12.97571400273384
 20
9.289668282926238
 30
0.0
 10
12.97702255086097
 20
9.29283119681608
 30
0.0
 10
12.97772743821385
 20
9.294534992001742
 30
0.0
  0
SPLINE
  5
2DD
330
1F
100
AcDbEntity
  8
0
  6
Continuous
 62
     7
370
    25
100
AcDbSpline
210
0.0
220
0.0
230
1.0
 70
     8
 71
     3
 72
     9
 73
     5
 74
     0
 42
0.000000001
 43
0.00000001
 40
0.0
 40
0.0
 40
0.0
 40
0.0
 40
0.4100487402440628
 40
1.0
 40
1.0
 40
1.0
 40
1.0
 10
12.97772743821385
 20
9.294534992001742
 30
0.0
 10
12.97998901133131
 20
9.297566126151604
 30
0.0
 10
12.98550438766464
 20
9.30495825750667
 30
0.0
 10
12.98928826937243
 20
9.313392019230797
 30
0.0
 10
12.99152057515271
 20
9.318367527584428
 30
0.0
  0
SPLINE
  5
2DE
330
1F
100
AcDbEntity
  8
0
  6
Continuous
 62
     7
370
    25
100
AcDbSpline
210
0.0
220
0.0
230
1.0
 70
     8
 71
     3
 72
     9
 73
     5
 74
     0
 42
0.000000001
 43
0.00000001
 40
0.0
 40
0.0
 40
0.0
 40
0.0
 40
0.8144134393091841
 40
1.0
 40
1.0
 40
1.0
 40
1.0
 10
12.99152057515271
 20
9.318367527584428
 30
0.0
 10
12.99300798254211
 20
9.320378189760131
 30
0.0
 10
12.99483433672245
 20
9.322847036759276
 30
0.0
 10
12.99558820863404
 20
9.325480748336501
 30
0.0
 10
12.99572811712931
 20
9.325969529809969
 30
0.0
  0
SPLINE
  5
2DF
330
1F
100
AcDbEntity
  8
0
  6
Continuous
 62
     7
370
    25
100
AcDbSpline
210
0.0
220
0.0
230
1.0
 70
     8
 71
     3
 72
     9
 73
     5
 74
     0
 42
0.000000001
 43
0.00000001
 40
0.0
 40
0.0
 40
0.0
 40
0.0
 40
0.5854111127644602
 40
0.9999999999999999
 40
0.9999999999999999
 40
0.9999999999999999
 40
0.9999999999999999
 10
12.99572811712931
 20
9.325969529809969
 30
0.0
 10
12.99587792984728
 20
9.327884757671296
 30
0.0
 10
12.99613384012077
 20
9.331156352315753
 30
0.0
 10
12.9958526260436
 20
9.334729721271414
 30
0.0
 10
12.99573603781227
 20
9.336211200330423
 30
0.0
  0
SPLINE
  5
2E0
330
1F
100
AcDbEntity
  8
0
  6
Continuous
 62
     7
370
    25
100
AcDbSpline
210
0.0
220
0.0
230
1.0
 70
     8
 71
     3
 72
     9
 73
     5
 74
     0
 42
0.000000001
 43
0.00000001
 40
0.0
 40
0.0
 40
0.0
 40
0.0
 40
0.514120044803183
 40
1.0
 40
1.0
 40
1.0
 40
1.0
 10
12.99573603781227
 20
9.336211200330423
 30
0.0
 10
12.99525959944781
 20
9.334829002212881
 30
0.0
 10
12.99433289299223
 20
9.332140528710411
 30
0.0
 10
12.99235687937729
 20
9.329649431543821
 30
0.0
 10
12.9913967739706
 20
9.328439057364127
 30
0.0
  0
SPLINE
  5
2E1
330
1F
100
AcDbEntity
  8
0
  6
Continuous
 62
     7
370
    25
100
AcDbSpline
210
0.0
220
0.0
230
1.0
 70
     8
 71
     3
 72
     9
 73
     5
 74
     0
 42
0.000000001
 43
0.00000001
 40
0.0
 40
0.0
 40
0.0
 40
0.0
 40
0.4179757510666886
 40
0.9999999999999999
 40
0.9999999999999999
 40
0.9999999999999999
 40
0.9999999999999999
 10
12.9913967739706
 20
9.328439057364127
 30
0.0
 10
12.98988850712177
 20
9.329326960459431
 30
0.0
 10
12.98628000388929
 20
9.331451253777978
 30
0.0
 10
12.98096241147199
 20
9.334562342984327
 30
0.0
 10
12.97786744373918
 20
9.336373072343017
 30
0.0
  0
SPLINE
  5
2E2
330
1F
100
AcDbEntity
  8
0
  6
Continuous
 62
     7
370
    25
100
AcDbSpline
210
0.0
220
0.0
230
1.0
 70
     8
 71
     3
 72
     9
 73
     5
 74
     0
 42
0.000000001
 43
0.00000001
 40
0.0
 40
0.0
 40
0.0
 40
0.0
 40
0.7446462724686069
 40
1.0
 40
1.0
 40
1.0
 40
1.0
 10
12.97786744373918
 20
9.336373072343017
 30
0.0
 10
12.97687426068642
 20
9.339854563194804
 30
0.0
 10
12.97554049579766
 20
9.344529925149203
 30
0.0
 10
12.97338267337221
 20
9.349117426233871
 30
0.0
 10
12.97283166537251
 20
9.350288861735896
 30
0.0
  0
SPLINE
  5
2E3
330
1F
100
AcDbEntity
  8
0
  6
Continuous
 62
     7
370
    25
100
AcDbSpline
210
0.0
220
0.0
230
1.0
 70
     8
 71
     3
 72
     9
 73
     5
 74
     0
 42
0.000000001
 43
0.00000001
 40
0.0
 40
0.0
 40
0.0
 40
0.0
 40
0.5619035360695991
 40
1.0
 40
1.0
 40
1.0
 40
1.0
 10
12.97283166537251
 20
9.350288861735896
 30
0.0
 10
12.97132604709043
 20
9.349252659677987
 30
0.0
 10
12.96864655108191
 20
9.347408567246825
 30
0.0
 10
12.96541056864361
 20
9.345890798243362
 30
0.0
 10
12.96399289618005
 20
9.34522586900988
 30
0.0
  0
SPLINE
  5
2E4
330
1F
100
AcDbEntity
  8
0
  6
Continuous
 62
     7
370
    25
100
AcDbSpline
210
0.0
220
0.0
230
1.0
 70
     8
 71
     3
 72
     9
 73
     5
 74
     0
 42
0.000000001
 43
0.00000001
 40
0.0
 40
0.0
 40
0.0
 40
0.0
 40
0.4613210333885968
 40
1.0
 40
1.0
 40
1.0
 40
1.0
 10
12.96399289618005
 20
9.34522586900988
 30
0.0
 10
12.96495973387728
 20
9.343095709551676
 30
0.0
 10
12.96705553620854
 20
9.338478188771063
 30
0.0
 10
12.96833789489478
 20
9.333819576214704
 30
0.0
 10
12.96902867454671
 20
9.331310079617003
 30
0.0
  0
SPLINE
  5
2E5
330
1F
100
AcDbEntity
  8
0
  6
Continuous
 62
     7
370
    25
100
AcDbSpline
210
0.0
220
0.0
230
1.0
 70
     8
 71
     3
 72
     9
 73
     5
 74
     0
 42
0.000000001
 43
0.00000001
 40
0.0
 40
0.0
 40
0.0
 40
0.0
 40
0.4100495042766701
 40
0.9999999999999999
 40
0.9999999999999999
 40
0.9999999999999999
 40
0.9999999999999999
 10
12.96902867454671
 20
9.331310079617003
 30
0.0
 10
12.96751990036294
 20
9.327844363870286
 30
0.0
 10
12.96384040759917
 20
9.319392419140268
 30
0.0
 10
12.9583928550434
 20
9.311919094367186
 30
0.0
 10
12.95517906871265
 20
9.307510202712605
 30
0.0
  0
SPLINE
  5
2E6
330
1F
100
AcDbEntity
  8
0
  6
Continuous
 62
     7
370
    25
100
AcDbSpline
210
0.0
220
0.0
230
1.0
 70
     8
 71
     3
 72
     9
 73
     5
 74
     0
 42
0.000000001
 43
0.00000001
 40
0.0
 40
0.0
 40
0.0
 40
0.0
 40
0.8144134358950389
 40
1.0
 40
1.0
 40
1.0
 40
1.0
 10
12.95517906871265
 20
9.307510202712605
 30
0.0
 10
12.95167676886035
 20
9.306662685086764
 30
0.0
 10
12.94737637338805
 20
9.305622037194079
 30
0.0
 10
12.94279348231952
 20
9.305198773663772
 30
0.0
 10
12.94194295931245
 20
9.305120221639472
 30
0.0
  0
SPLINE
  5
2E7
330
1F
100
AcDbEntity
  8
0
  6
Continuous
 62
     7
370
    25
100
AcDbSpline
210
0.0
220
0.0
230
1.0
 70
     8
 71
     3
 72
     9
 73
     5
 74
     0
 42
0.000000001
 43
0.00000001
 40
0.0
 40
0.0
 40
0.0
 40
0.0
 40
0.5854086876324145
 40
1.0
 40
1.0
 40
1.0
 40
1.0
 10
12.94194295931245
 20
9.305120221639472
 30
0.0
 10
12.94207940722143
 20
9.303039758999425
 30
0.0
 10
12.94231248867694
 20
9.299485895375604
 30
0.0
 10
12.94200847449031
 20
9.296250391476107
 30
0.0
 10
12.9418824328497
 20
9.294908979668246
 30
0.0
  0
SPLINE
  5
2E8
330
1F
100
AcDbEntity
  8
0
  6
Continuous
 62
     7
370
    25
100
AcDbSpline
210
0.0
220
0.0
230
1.0
 70
     8
 71
     3
 72
     9
 73
     5
 74
     0
 42
0.000000001
 43
0.00000001
 40
0.0
 40
0.0
 40
0.0
 40
0.0
 40
0.5159080930737155
 40
1.0
 40
1.0
 40
1.0
 40
1.0
 10
12.9418824328497
 20
9.294908979668245
 30
0.0
 10
12.94428800450301
 20
9.295183577034699
 30
0.0
 10
12.94895079558074
 20
9.295715837276669
 30
0.0
 10
12.95327722549366
 20
9.29685017111751
 30
0.0
 10
12.95537161520038
 20
9.297399292949613
 30
0.0
  0
LINE
  5
2E9
330
1F
100
AcDbEntity
  8
0
  6
Continuous
 62
     7
370
    25
100
AcDbLine
 10
12.980359568
 20
9.3660266075
 30
0.0
 11
12.9796869063
 21
9.3664366544
 31
0.0
  0
LINE
  5
2EA
330
1F
100
AcDbEntity
  8
0
  6
Continuous
 62
     7
370
    25
100
AcDbLine
 10
12.9659507049
 20
9.3431287603
 30
0.0
 11
12.9645321249
 21
9.3439606947
 31
0.0
  0
LINE
  5
2EB
330
1F
100
AcDbEntity
  8
0
  6
Continuous
 62
     7
370
    25
100
AcDbLine
 10
12.968147262
 20
9.3341801365
 30
0.0
 11
12.9748254089
 21
9.338005469
 31
0.0
  0
LINE
  5
2EC
330
1F
100
AcDbEntity
  8
0
  6
Continuous
 62
     7
370
    25
100
AcDbLine
 10
12.9522755615
 20
9.2991865906
 30
0.0
 11
12.9523015014
 21
9.3069362514
 31
0.0
  0
LINE
  5
2ED
330
1F
100
AcDbEntity
  8
0
  6
Continuous
 62
     7
370
    25
100
AcDbLine
 10
12.9553716152
 20
9.2973992929
 30
0.0
 11
12.9419890315
 21
9.3051248941
 31
0.0
  0
LINE
  5
2EE
330
1F
100
AcDbEntity
  8
0
  6
Continuous
 62
     7
370
    25
100
AcDbLine
 10
12.9778674437
 20
9.3363730723
 30
0.0
 11
12.9644695242
 21
9.3441075266
 31
0.0
  0
LINE
  5
2EF
330
1F
100
AcDbEntity
  8
0
  6
Continuous
 62
     7
370
    25
100
AcDbLine
 10
12.991396774
 20
9.3284390574
 30
0.0
 11
12.9659507049
 21
9.3431287603
 31
0.0
  0
LINE
  5
2F0
330
1F
100
AcDbEntity
  8
0
  6
Continuous
 62
     7
370
    25
100
AcDbLine
 10
12.9777274382
 20
9.294534992
 30
0.0
 11
12.9551991102
 21
9.3075403189
 31
0.0
  0
LINE
  5
2F1
330
1F
100
AcDbEntity
  8
0
  6
Continuous
 62
     7
370
    25
100
AcDbLine
 10
12.9915205752
 20
9.3183675276
 30
0.0
 11
12.9690131184
 21
9.3313608058
 31
0.0
  0
LINE
  5
2F2
330
1F
100
AcDbEntity
  8
0
  6
Continuous
 62
     7
370
    25
100
AcDbLine
 10
12.9726181051
 20
9.2864758508
 30
0.0
 11
12.9685385774
 21
9.288830912
 31
0.0
  0
LINE
  5
2F3
330
1F
100
AcDbEntity
  8
0
  6
Continuous
 62
     7
370
    25
100
AcDbLine
 10
12.9957281171
 20
9.3259695298
 30
0.0
 11
12.9914124338
 21
9.3284609207
 31
0.0
  0
LINE
  5
2F4
330
1F
100
AcDbEntity
  8
0
  6
Continuous
 62
     7
370
    25
100
AcDbLine
 10
12.5910204583
 20
9.5553425985
 30
0.0
 11
12.6442487571
 21
9.5246148423
 31
0.0
  0
ELLIPSE
  5
2F5
330
1F
100
AcDbEntity
  8
0
  6
Continuous
 62
     7
370
    25
100
AcDbEllipse
 10
12.6442659896
 20
9.5082840528
 30
0.0
 11
0.009999184349458899
 21
0.01732097896632823
 31
0.0
210
0.0
220
0.0
230
1.0
 40
0.5780852102
 41
0.7859256885266463
 42
2.35550404015035
  0
LINE
  5
2F6
330
1F
100
AcDbEntity
  8
0
  6
Continuous
 62
     7
370
    25
100
AcDbLine
 10
12.6301152253
 20
9.500134877
 30
0.0
 11
12.5768869394
 21
9.530862521
 31
0.0
  0
ELLIPSE
  5
2F7
330
1F
100
AcDbEntity
  8
0
  6
Continuous
 62
     7
370
    25
100
AcDbEllipse
 10
12.5910376923
 20
9.5390117333
 30
0.0
 11
0.009999184349460675
 21
0.01732097896633
 31
0.0
210
0.0
220
0.0
230
1.0
 40
0.5780852102
 41
0.7859256885267447
 42
2.355504040150327
  0
LINE
  5
2F8
330
1F
100
AcDbEntity
  8
0
  6
Continuous
 62
     7
370
    25
100
AcDbLine
 10
13.0579234457
 20
9.7634241568
 30
0.0
 11
12.6442487571
 21
9.5246148423
 31
0.0
  0
ELLIPSE
  5
2F9
330
1F
100
AcDbEntity
  8
0
  6
Continuous
 62
     7
370
    25
100
AcDbEllipse
 10
13.0579062161
 20
9.7470734727
 30
0.0
 11
0.01001137647704198
 21
0.01734208491335387
 31
0.0
210
0.0
220
0.0
230
1.0
 40
0.5766787367
 41
5.498315064855858
 42
7.067893416479764
  0
LINE
  5
2FA
330
1F
100
AcDbEntity
  8
0
  6
Continuous
 62
     7
370
    25
100
AcDbLine
 10
13.0720569776
 20
7.5424169614
 30
0.0
 11
13.0720569776
 21
9.7552624201
 31
0.0
  0
ELLIPSE
  5
2FB
330
1F
100
AcDbEntity
  8
0
  6
Continuous
 62
     7
370
    25
100
AcDbEllipse
 10
13.0579062161
 20
7.5342677812
 30
0.0
 11
0.009999184349457124
 21
0.01732097896632734
 31
0.0
210
0.0
220
0.0
230
1.0
 40
0.5780852102
 41
3.927518342116351
 42
5.497096693740199
  0
LINE
  5
2FC
330
1F
100
AcDbEntity
  8
0
  6
Continuous
 62
     7
370
    25
100
AcDbLine
 10
12.6442487571
 20
7.2791276816
 30
0.0
 11
13.0579234457
 21
7.5179369962
 31
0.0
  0
ELLIPSE
  5
2FD
330
1F
100
AcDbEntity
  8
0
  6
Continuous
 62
     7
370
    25
100
AcDbEllipse
 10
12.6442659896
 20
7.2954783613
 30
0.0
 11
0.0100113764770402
 21
0.01734208491335476
 31
0.0
210
0.0
220
0.0
230
1.0
 40
0.5766787367
 41
2.356722411266141
 42
3.926300762889785
  0
LINE
  5
2FE
330
1F
100
AcDbEntity
  8
0
  6
Continuous
 62
     7
370
    25
100
AcDbLine
 10
12.6301152253
 20
9.500134877
 30
0.0
 11
12.6301152253
 21
7.2872894183
 31
0.0
  0
LWPOLYLINE
  5
2FF
330
1F
100
AcDbEntity
  8
0
  6
Continuous
 62
     7
370
    25
100
AcDbPolyline
 90
       57
 70
   128
 43
0.0
 10
13.0078870266
 20
7.6997190882
 10
13.0069011025
 20
7.7194230885
 10
13.0039556974
 20
7.7377409998
 10
12.9990878868
 20
7.7544423744
 10
12.9923588582
 20
7.7693172707
 10
12.9838532374
 20
7.782178619
 10
12.9736779988
 20
7.7928646463
 10
12.9619611049
 20
7.8012409645
 10
12.9488498856
 20
7.8072022703
 10
12.9345092233
 20
7.8106735722
 10
12.9191194725
 20
7.8116112052
 10
12.9028741647
 20
7.8100034224
 10
12.8859775881
 20
7.8058704344
 10
12.8686422336
 20
7.7992641924
 10
12.8510860998
 20
7.7902677309
 10
12.8335299666
 20
7.7789943121
 10
12.8161946115
 20
7.7655855795
 10
12.7992980382
 20
7.7502101973
 10
12.7830527271
 20
7.7330615451
 10
12.7676629795
 20
7.7143552858
 10
12.7533223237
 20
7.6943266115
 10
12.740211098
 20
7.6732274104
 10
12.7284941976
 20
7.6513230507
 10
12.7183189655
 20
7.6288889467
 10
12.7098133446
 20
7.6062072176
 10
12.7030843161
 20
7.5835631503
 10
12.6982164925
 20
7.5612415138
 10
12.6952711003
 20
7.5395229176
 10
12.6942851762
 20
7.5186805934
 10
12.6952711003
 20
7.4989765931
 10
12.6982164925
 20
7.4806586743
 10
12.7030843161
 20
7.4639572474
 10
12.7098133446
 20
7.449082351
 10
12.7183189655
 20
7.4362210626
 10
12.7284941976
 20
7.4255350316
 10
12.740211098
 20
7.417158717
 10
12.7533223237
 20
7.411197415
 10
12.7676629795
 20
7.4077261094
 10
12.7830527271
 20
7.4067884745
 10
12.7992980382
 20
7.4083961993
 10
12.8161946115
 20
7.4125291854
 10
12.8335299666
 20
7.4191354278
 10
12.8510860998
 20
7.4281319489
 10
12.8686422336
 20
7.4394053081
 10
12.8859775881
 20
7.4528140404
 10
12.9028741647
 20
7.4681894244
 10
12.9191194725
 20
7.4853381346
 10
12.9345092233
 20
7.5040443958
 10
12.9488498856
 20
7.5240730738
 10
12.9619611049
 20
7.5451722712
 10
12.9736779988
 20
7.5670766272
 10
12.9838532374
 20
7.5895107349
 10
12.9923588582
 20
7.6121924041
 10
12.9990878868
 20
7.6348364714
 10
13.0039556974
 20
7.6571581604
 10
13.0069011025
 20
7.678876764
 10
13.0078870266
 20
7.6997190882
  0
LWPOLYLINE
  5
300
330
1F
100
AcDbEntity
  8
0
  6
Continuous
 62
     7
370
    25
100
AcDbPolyline
 90
       30
 70
   128
 43
0.0
 10
12.7718901417
 20
7.7602672861
 10
12.770898235
 20
7.7702266025
 10
12.7679688981
 20
7.7785750197
 10
12.7632391031
 20
7.7849221588
 10
12.7569300068
 20
7.788971209
 10
12.7493366192
 20
7.7905328427
 10
12.7408140032
 20
7.7895341352
 10
12.7317606561
 20
7.7860216649
 10
12.7225999066
 20
7.7801596961
 10
12.7137601004
 20
7.7722223933
 10
12.7056545842
 20
7.7625808287
 10
12.6986623582
 20
7.7516858853
 10
12.6931103614
 20
7.7400469529
 10
12.689258213
 20
7.7282082694
 10
12.6872860278
 20
7.716723384
 10
12.6872860278
 20
7.7061293575
 10
12.689258213
 20
7.6969215686
 10
12.6931103614
 20
7.6895304809
 10
12.6986623582
 20
7.6843017476
 10
12.7056545842
 20
7.6814798565
 10
12.7137601004
 20
7.6811967217
 10
12.7225999066
 20
7.6834656419
 10
12.7317606561
 20
7.6881804494
 10
12.7408140032
 20
7.6951207511
 10
12.7493366192
 20
7.7039620466
 10
12.7569300068
 20
7.714290819
 10
12.7632391031
 20
7.7256241966
 10
12.7679688981
 20
7.7374322408
 10
12.770898235
 20
7.7491627984
 10
12.7718901417
 20
7.7602672861
  0
LWPOLYLINE
  5
301
330
1F
100
AcDbEntity
  8
0
  6
Continuous
 62
     7
370
    25
100
AcDbPolyline
 90
       30
 70
   128
 43
0.0
 10
12.7718901417
 20
9.2039114763
 10
12.770898235
 20
9.2138707927
 10
12.7679688981
 20
9.22221915
 10
12.7632391031
 20
9.2285662891
 10
12.7569300068
 20
9.2326153393
 10
12.7493366192
 20
9.2341770329
 10
12.7408140032
 20
9.2331782655
 10
12.7317606561
 20
9.2296657952
 10
12.7225999066
 20
9.2238038863
 10
12.7137601004
 20
9.2158665834
 10
12.7056545842
 20
9.2062250189
 10
12.6986623582
 20
9.1953300755
 10
12.6931103614
 20
9.1836911431
 10
12.689258213
 20
9.1718524596
 10
12.6872860278
 20
9.1603675742
 10
12.6872860278
 20
9.1497735477
 10
12.689258213
 20
9.1405656989
 10
12.6931103614
 20
9.1331746112
 10
12.6986623582
 20
9.1279458779
 10
12.7056545842
 20
9.1251239868
 10
12.7137601004
 20
9.124840852
 10
12.7225999066
 20
9.1271097722
 10
12.7317606561
 20
9.1318246396
 10
12.7408140032
 20
9.1387649413
 10
12.7493366192
 20
9.1476061769
 10
12.7569300068
 20
9.1579350092
 10
12.7632391031
 20
9.1692683868
 10
12.7679688981
 20
9.1810763711
 10
12.770898235
 20
9.1928069287
 10
12.7718901417
 20
9.2039114763
  0
LWPOLYLINE
  5
302
330
1F
100
AcDbEntity
  8
0
  6
Continuous
 62
     7
370
    25
100
AcDbPolyline
 90
       30
 70
   128
 43
0.0
 10
12.9302820612
 20
7.8517049949
 10
12.9312739679
 20
7.8417457383
 10
12.9342033048
 20
7.8333973211
 10
12.9389330998
 20
7.827050182
 10
12.945242196
 20
7.8230011319
 10
12.9528355836
 20
7.8214394982
 10
12.9613581996
 20
7.8224382057
 10
12.9704115532
 20
7.8259506797
 10
12.9795722962
 20
7.8318126448
 10
12.9884121025
 20
7.8397499476
 10
12.9965176187
 20
7.8493915122
 10
13.0035098446
 20
7.8602864555
 10
13.0090618415
 20
7.871925388
 10
13.0129139898
 20
7.8837640715
 10
13.0148861621
 20
7.8952488895
 10
13.0148861621
 20
7.905842916
 10
13.0129139898
 20
7.9150507723
 10
13.0090618415
 20
7.92244186
 10
13.0035098446
 20
7.9276705933
 10
12.9965176187
 20
7.9304924844
 10
12.9884121025
 20
7.9307756192
 10
12.9795722962
 20
7.928506699
 10
12.9704115532
 20
7.9237918952
 10
12.9613581996
 20
7.9168515897
 10
12.9528355836
 20
7.9080102943
 10
12.945242196
 20
7.8976815218
 10
12.9389330998
 20
7.8863481442
 10
12.9342033048
 20
7.8745401001
 10
12.9312739679
 20
7.8628095425
 10
12.9302820612
 20
7.8517049949
  0
LWPOLYLINE
  5
303
330
1F
100
AcDbEntity
  8
0
  6
Continuous
 62
     7
370
    25
100
AcDbPolyline
 90
       30
 70
   128
 43
0.0
 10
12.9302820612
 20
9.2953491851
 10
12.9312739679
 20
9.2853898686
 10
12.9342033048
 20
9.2770414515
 10
12.9389330998
 20
9.2706943722
 10
12.945242196
 20
9.266645322
 10
12.9528355836
 20
9.2650836285
 10
12.9613581996
 20
9.2660823958
 10
12.9704115532
 20
9.2695948699
 10
12.9795722962
 20
9.2754567751
 10
12.9884121025
 20
9.2833940779
 10
12.9965176187
 20
9.2930356425
 10
13.0035098446
 20
9.3039305858
 10
13.0090618415
 20
9.3155695183
 10
13.0129139898
 20
9.3274082018
 10
13.0148861621
 20
9.3388930797
 10
13.0148861621
 20
9.3494871062
 10
13.0129139898
 20
9.3586949625
 10
13.0090618415
 20
9.3660860502
 10
13.0035098446
 20
9.3713147835
 10
12.9965176187
 20
9.3741366746
 10
12.9884121025
 20
9.3744198094
 10
12.9795722962
 20
9.3721508891
 10
12.9704115532
 20
9.3674360255
 10
12.9613581996
 20
9.36049572
 10
12.9528355836
 20
9.3516544845
 10
12.945242196
 20
9.3413256521
 10
12.9389330998
 20
9.3299922745
 10
12.9342033048
 20
9.3181842304
 10
12.9312739679
 20
9.3064537327
 10
12.9302820612
 20
9.2953491851
  0
LINE
  5
304
330
1F
100
AcDbEntity
  8
0
  6
Continuous
 62
     7
370
    25
100
AcDbLine
 10
12.8510860998
 20
9.1912476775
 30
0.0
 11
12.675583653
 21
9.0899322715
 31
0.0
  0
LINE
  5
305
330
1F
100
AcDbEntity
  8
0
  6
Continuous
 62
     7
370
    25
100
AcDbLine
 10
12.675583653
 20
9.0899322715
 30
0.0
 11
12.675583653
 21
7.7630534457
 31
0.0
  0
LINE
  5
306
330
1F
100
AcDbEntity
  8
0
  6
Continuous
 62
     7
370
    25
100
AcDbLine
 10
12.8510860998
 20
7.8643688517
 30
0.0
 11
12.675583653
 21
7.7630534457
 31
0.0
  0
LINE
  5
307
330
1F
100
AcDbEntity
  8
0
  6
Continuous
 62
     7
370
    25
100
AcDbLine
 10
13.0265885499
 20
7.9656842596
 30
0.0
 11
12.8510860998
 21
7.8643688517
 31
0.0
  0
LINE
  5
308
330
1F
100
AcDbEntity
  8
0
  6
Continuous
 62
     7
370
    25
100
AcDbLine
 10
13.0265885499
 20
9.2925630853
 30
0.0
 11
13.0265885499
 21
7.9656842596
 31
0.0
  0
LINE
  5
309
330
1F
100
AcDbEntity
  8
0
  6
Continuous
 62
     7
370
    25
100
AcDbLine
 10
13.0265885499
 20
9.2925630853
 30
0.0
 11
12.8510860998
 21
9.1912476775
 31
0.0
  0
LINE
  5
30A
330
1F
100
AcDbEntity
  8
0
  6
Continuous
 62
     7
370
    25
100
AcDbLine
 10
12.5768869394
 20
7.3224653511
 30
0.0
 11
12.6301152253
 21
7.2872894183
 31
0.0
  0
LINE
  5
30B
330
1F
100
AcDbEntity
  8
0
  6
Continuous
 62
     7
370
    25
100
AcDbLine
 10
12.5768869394
 20
9.530862521
 30
0.0
 11
12.5768869394
 21
7.3224653511
 31
0.0
  0
LINE
  5
30C
330
1F
100
AcDbEntity
  8
0
  6
Continuous
 62
     7
370
    25
100
AcDbLine
 10
13.0008430894
 20
9.7919281676
 30
0.0
 11
12.5910204583
 21
9.5553425985
 31
0.0
  0
LINE
  5
30D
330
1F
100
AcDbEntity
  8
0
  6
Continuous
 62
     7
370
    25
100
AcDbLine
 10
13.0579234457
 20
9.7634241568
 30
0.0
 11
13.0008430894
 21
9.7919281676
 31
0.0
  0
LINE
  5
30E
330
1F
100
AcDbEntity
  8
0
  6
Continuous
 62
     7
370
    25
100
AcDbLine
 10
12.7365348057
 20
9.2243216773
 30
0.0
 11
12.7360235457
 21
9.2316094261
 31
0.0
  0
ELLIPSE
  5
30F
330
1F
100
AcDbEntity
  8
0
  6
Continuous
 62
     7
370
    25
100
AcDbEllipse
 10
13.0008258555
 20
9.7755774045
 30
0.0
 11
0.0100113764770402
 21
0.01734208491335565
 31
0.0
210
0.0
220
0.0
230
1.0
 40
0.5766787367
 41
0.0348669606757987
 42
0.7847081093000168
  0
LINE
  5
310
330
1F
100
AcDbEntity
  8
0
  6
Continuous
 62
     7
370
    25
100
AcDbLine
 10
12.6765743606
 20
7.7959264536
 30
0.0
 11
12.675583666
 21
7.7956672648
 31
0.0
  0
ARC
  5
311
330
1F
100
AcDbEntity
  8
0
  6
Continuous
 62
     7
370
    25
100
AcDbCircle
 10
12.6626727212
 20
8.2062342336
 30
0.0
 40
0.3903479736917864
100
AcDbArc
 50
298.8606204599
 51
321.8508918544
  0
ARC
  5
312
330
1F
100
AcDbEntity
  8
0
  6
Continuous
 62
     7
370
    25
100
AcDbCircle
 10
12.5181395148
 20
8.4566001916
 30
0.0
 40
0.6794051724789624
100
AcDbArc
 50
283.4853310119
 51
299.3442627234
  0
LWPOLYLINE
  5
313
330
1F
100
AcDbEntity
  8
0
  6
Continuous
 62
     7
370
    25
100
AcDbPolyline
 90
        3
 70
   128
 43
0.0
 10
12.9797549516
 20
9.3663971285
 10
12.9795308261
 20
9.3698973072
 10
12.9792682768
 20
9.3720316204
  0
ARC
  5
314
330
1F
100
AcDbEntity
  8
0
  6
Continuous
 62
     7
370
    25
100
AcDbCircle
 10
12.9984281738
 20
7.9343767507
 30
0.0
 40
0.0421089882497254
100
AcDbArc
 50
48.0293557144
 51
133.1215207536
  0
LINE
  5
315
330
1F
100
AcDbEntity
  8
0
  6
Continuous
 62
     7
370
    25
100
AcDbLine
 10
12.7365348057
 20
7.7806774871
 30
0.0
 11
12.7360235457
 21
7.7879652359
 31
0.0
  0
ARC
  5
316
330
1F
100
AcDbEntity
  8
0
  6
Continuous
 62
     7
370
    25
100
AcDbCircle
 10
12.8304815701
 20
7.744074294
 30
0.0
 40
0.1233731024003967
100
AcDbArc
 50
5.5605364525
 51
32.6870253081
  0
LINE
  5
317
330
1F
100
AcDbEntity
  8
0
  6
Continuous
 62
     7
370
    25
100
AcDbLine
 10
12.7182115631
 20
7.4363566995
 30
0.0
 11
12.7211565275
 21
7.4361940763
 31
0.0
  0
LWPOLYLINE
  5
318
330
1F
100
AcDbEntity
  8
0
  6
Continuous
 62
     7
370
    25
100
AcDbPolyline
 90
        3
 70
   128
 43
0.0
 10
12.9797549516
 20
7.9227529982
 10
12.9795308261
 20
7.9262531171
 10
12.9792682768
 20
7.9283874302
  0
ELLIPSE
  5
319
330
1F
100
AcDbEntity
  8
0
  6
Continuous
 62
     7
370
    25
100
AcDbEllipse
 10
12.5910376923
 20
7.3306542622
 30
0.0
 11
0.01001137647704198
 21
0.01734208491335565
 31
0.0
210
0.0
220
0.0
230
1.0
 40
0.5766787367
 41
2.356722411266249
 42
3.106725692914142
  0
LWPOLYLINE
  5
31A
330
1F
100
AcDbEntity
  8
0
  6
Continuous
 62
     7
370
    25
100
AcDbPolyline
 90
       16
 70
   128
 43
0.0
 10
12.6884250278
 20
9.7617206967
 10
12.6880328779
 20
9.7604627776
 10
12.6885086325
 20
9.7590820368
 10
12.6898634615
 20
9.7579115016
 10
12.6918911077
 20
9.7571293755
 10
12.6942828768
 20
9.75685473
 10
12.6966746492
 20
9.7571293755
 10
12.6987022955
 20
9.7579115016
 10
12.7000571244
 20
9.7590820368
 10
12.7005328774
 20
9.7604627786
 10
12.7000571276
 20
9.7618435184
 10
12.6987022955
 20
9.7630140518
 10
12.6966746525
 20
9.7637961798
 10
12.6942828785
 20
9.7640708262
 10
12.6918911044
 20
9.7637961798
 10
12.6901329235
 20
9.7631606547
  0
LINE
  5
31B
330
1F
100
AcDbEntity
  8
0
  6
Continuous
 62
     7
370
    25
100
AcDbLine
 10
12.6818520115
 20
9.7570256595
 30
0.0
 11
12.6921615582
 21
9.7510740849
 31
0.0
  0
LINE
  5
31C
330
1F
100
AcDbEntity
  8
0
  6
Continuous
 62
     7
370
    25
100
AcDbLine
 10
12.6833227225
 20
9.7459715337
 30
0.0
 11
12.6727523475
 21
9.7520736813
 31
0.0
  0
LINE
  5
31D
330
1F
100
AcDbEntity
  8
0
  6
Continuous
 62
     7
370
    25
100
AcDbLine
 10
12.6681199272
 20
9.7371951468
 30
0.0
 11
12.6833227225
 21
9.7459715337
 31
0.0
  0
ARC
  5
31E
330
1F
100
AcDbEntity
  8
0
  6
Continuous
 62
     7
370
    25
100
AcDbCircle
 10
12.6551680823
 20
9.6960979007
 30
0.0
 40
0.043089835457217
100
AcDbArc
 50
72.5076937835
 51
100.7027198894
  0
ARC
  5
31F
330
1F
100
AcDbEntity
  8
0
  6
Continuous
 62
     7
370
    25
100
AcDbCircle
 10
12.677400794
 20
9.7881690309
 30
0.0
 40
0.0321958032408737
100
AcDbArc
 50
329.7447468617
 51
34.7442164601
  0
LWPOLYLINE
  5
320
330
1F
100
AcDbEntity
  8
0
  6
Continuous
 62
     7
370
    25
100
AcDbPolyline
 90
       14
 70
   128
 43
0.0
 10
12.5344539295
 20
9.8065178628
 10
12.5314959668
 20
9.8011047208
 10
12.5288972066
 20
9.7919363693
 10
12.5291524801
 20
9.7826472587
 10
12.5322537354
 20
9.7735311141
 10
12.5381029005
 20
9.7648761965
 10
12.5465150158
 20
9.7569561887
 10
12.5572240854
 20
9.7500215266
 10
12.5698914766
 20
9.7442914892
 10
12.5841166333
 20
9.7399472695
 10
12.5994497413
 20
9.7371262342
 10
12.6154059531
 20
9.7359175889
 10
12.6314807166
 20
9.7363595493
 10
12.6471657285
 20
9.7384381446
  0
ARC
  5
321
330
1F
100
AcDbEntity
  8
0
  6
Continuous
 62
     7
370
    25
100
AcDbCircle
 10
12.7137312991
 20
9.7672237043
 30
0.0
 40
0.0097417946345791
100
AcDbArc
 50
150.9969523142
 51
229.1886813148
  0
LINE
  5
322
330
1F
100
AcDbEntity
  8
0
  6
Continuous
 62
     7
370
    25
100
AcDbLine
 10
12.6921615582
 20
9.7510740849
 30
0.0
 11
12.7073643531
 21
9.7598504716
 31
0.0
  0
LWPOLYLINE
  5
323
330
1F
100
AcDbEntity
  8
0
  6
Continuous
 62
     7
370
    25
100
AcDbPolyline
 90
       17
 70
   128
 43
0.0
 10
12.6714786851
 20
9.7421956458
 10
12.6728335143
 20
9.7433661812
 10
12.6733092661
 20
9.7447469222
 10
12.6728335151
 20
9.7461276614
 10
12.6714786853
 20
9.7472981962
 10
12.6694510399
 20
9.7480803228
 10
12.6670592671
 20
9.7483549698
 10
12.6646674943
 20
9.7480803242
 10
12.6626398511
 20
9.7472981961
 10
12.6612850187
 20
9.7461276626
 10
12.6608092671
 20
9.7447469217
 10
12.6612850214
 20
9.7433661806
 10
12.6626398509
 20
9.7421956457
 10
12.6646674965
 20
9.7414135193
 10
12.6670592661
 20
9.741138874
 10
12.6694510387
 20
9.7414135196
 10
12.6714786851
 20
9.7421956458
  0
LINE
  5
324
330
1F
100
AcDbEntity
  8
0
  6
Continuous
 62
     7
370
    25
100
AcDbLine
 10
12.6471657285
 20
9.7384381446
 30
0.0
 11
12.6471657285
 21
9.7282312955
 31
0.0
  0
LWPOLYLINE
  5
325
330
1F
100
AcDbEntity
  8
0
  6
Continuous
 62
     7
370
    25
100
AcDbPolyline
 90
        3
 70
   128
 43
0.0
 10
12.7052111847
 20
9.7617402242
 10
12.708811806
 20
9.7707949878
 10
12.7096550784
 20
9.7779104288
  0
LWPOLYLINE
  5
326
330
1F
100
AcDbEntity
  8
0
  6
Continuous
 62
     7
370
    25
100
AcDbPolyline
 90
       12
 70
   128
 43
0.0
 10
12.5286550813
 20
9.7779104279
 10
12.5291524801
 20
9.7724404096
 10
12.5322537354
 20
9.763324265
 10
12.5381029005
 20
9.7546693474
 10
12.5465150158
 20
9.7467493396
 10
12.5572240854
 20
9.7398146775
 10
12.5698914766
 20
9.7340846401
 10
12.5841166333
 20
9.7297404204
 10
12.5994497413
 20
9.7269193851
 10
12.6154059531
 20
9.7257107398
 10
12.6314807166
 20
9.7261527002
 10
12.6471657285
 20
9.7282312955
  0
LINE
  5
327
330
1F
100
AcDbEntity
  8
0
  6
Continuous
 62
     7
370
    25
100
AcDbLine
 10
12.6681199272
 20
9.7371951468
 30
0.0
 11
12.6681199272
 21
9.7269882977
 31
0.0
  0
ARC
  5
328
330
1F
100
AcDbEntity
  8
0
  6
Continuous
 62
     7
370
    25
100
AcDbCircle
 10
12.6551680823
 20
9.6858910516
 30
0.0
 40
0.043089835457211
100
AcDbArc
 50
72.5076937835
 51
100.7027198894
  0
LINE
  5
329
330
1F
100
AcDbEntity
  8
0
  6
Continuous
 62
     7
370
    25
100
AcDbLine
 10
12.6833227225
 20
9.7459715337
 30
0.0
 11
12.6833227225
 21
9.7357646846
 31
0.0
  0
LINE
  5
32A
330
1F
100
AcDbEntity
  8
0
  6
Continuous
 62
     7
370
    25
100
AcDbLine
 10
12.6681199272
 20
9.7269882977
 30
0.0
 11
12.6833227225
 21
9.7357646846
 31
0.0
  0
LINE
  5
32B
330
1F
100
AcDbEntity
  8
0
  6
Continuous
 62
     7
370
    25
100
AcDbLine
 10
12.6921615582
 20
9.7510740849
 30
0.0
 11
12.6921615582
 21
9.7408672358
 31
0.0
  0
LINE
  5
32C
330
1F
100
AcDbEntity
  8
0
  6
Continuous
 62
     7
370
    25
100
AcDbLine
 10
12.6833227242
 20
9.745969786
 30
0.0
 11
12.6921615582
 21
9.7408672358
 31
0.0
  0
LINE
  5
32D
330
1F
100
AcDbEntity
  8
0
  6
Continuous
 62
     7
370
    25
100
AcDbLine
 10
12.7073643531
 20
9.7598504716
 30
0.0
 11
12.7073643531
 21
9.7496436225
 31
0.0
  0
LINE
  5
32E
330
1F
100
AcDbEntity
  8
0
  6
Continuous
 62
     7
370
    25
100
AcDbLine
 10
12.6921615582
 20
9.7408672358
 30
0.0
 11
12.7073643531
 21
9.7496436225
 31
0.0
  0
LWPOLYLINE
  5
32F
330
1F
100
AcDbEntity
  8
0
  6
Continuous
 62
     7
370
    25
100
AcDbPolyline
 90
       35
 70
   128
 43
0.0
 10
12.6365987839
 20
9.7543816193
 10
12.6210154916
 20
9.7533489741
 10
12.6053688468
 20
9.7539869276
 10
12.5901916774
 20
9.7562737603
 10
12.5760008203
 20
9.7601315922
 10
12.5632795286
 20
9.765429051
 10
12.5524610148
 20
9.7719857399
 10
12.543913684
 20
9.7795783752
 10
12.5379286098
 20
9.7879484013
 10
12.5347096073
 20
9.7968107864
 10
12.5343662891
 20
9.8058637371
 10
12.5369103564
 20
9.8147989578
 10
12.5422551674
 20
9.823312174
 10
12.5502187161
 20
9.8311134772
 10
12.5605298087
 20
9.8379372063
 10
12.5728373071
 20
9.8435509884
 10
12.5867221072
 20
9.8477636489
 10
12.6017113742
 20
9.8504317308
 10
12.6172946665
 20
9.8514643722
 10
12.6329413081
 20
9.8508264206
 10
12.6481184774
 20
9.8485395879
 10
12.662309337
 20
9.8446817546
 10
12.6750306312
 20
9.8393842982
 10
12.6858491417
 20
9.8328276074
 10
12.6943964725
 20
9.8252349721
 10
12.7003815499
 20
9.8168649479
 10
12.7036005541
 20
9.8080025618
 10
12.7039438641
 20
9.798949612
 10
12.7013998001
 20
9.7900143913
 10
12.6960549887
 20
9.7815011748
 10
12.6880914436
 20
9.77369987
 10
12.6777803518
 20
9.7668761414
 10
12.6654728491
 20
9.7612623606
 10
12.6515880469
 20
9.7570497026
 10
12.6365987839
 20
9.7543816193
  0
LWPOLYLINE
  5
330
330
1F
100
AcDbEntity
  8
0
  6
Continuous
 62
     7
370
    25
100
AcDbPolyline
 90
       27
 70
   128
 43
0.0
 10
12.6289030306
 20
9.775569144
 10
12.6174942258
 20
9.775002275
 10
12.6061819447
 20
9.7760280511
 10
12.5956236139
 20
9.7785868559
 10
12.5864328467
 20
9.7825299828
 10
12.579143775
 20
9.7876282702
 10
12.5741800168
 20
9.7935854248
 10
12.5718300476
 20
9.8000552373
 10
12.5722304342
 20
9.8066617084
 10
12.5753579116
 20
9.8130208916
 10
12.5810307205
 20
9.8187632152
 10
12.5889191763
 20
9.8235549581
 10
12.5985648359
 20
9.8271176369
 10
12.6094071247
 20
9.8292442044
 10
12.6208159319
 20
9.8298110744
 10
12.632128213
 20
9.8287852992
 10
12.6426865417
 20
9.8262264918
 10
12.6518773114
 20
9.8222833673
 10
12.6591663815
 20
9.817185079
 10
12.664130138
 20
9.8112279234
 10
12.6664801101
 20
9.8047581102
 10
12.6660797227
 20
9.7981516395
 10
12.6629522459
 20
9.7917924562
 10
12.6572794376
 20
9.786050133
 10
12.6493909786
 20
9.781258392
 10
12.6397453194
 20
9.7776957124
 10
12.6289030306
 20
9.775569144
  0
LWPOLYLINE
  5
331
330
1F
100
AcDbEntity
  8
0
  6
Continuous
 62
     7
370
    25
100
AcDbPolyline
 90
       11
 70
   128
 43
0.0
 10
12.6365987839
 20
9.7421334962
 10
12.6210154916
 20
9.741100851
 10
12.6053688468
 20
9.7417388045
 10
12.5901916774
 20
9.7440256372
 10
12.5760008203
 20
9.7478834691
 10
12.5632795286
 20
9.7531809279
 10
12.5524610148
 20
9.7597376168
 10
12.543913684
 20
9.767330252
 10
12.5379286098
 20
9.7757002782
 10
12.5347096073
 20
9.7845626632
 10
12.5341550817
 20
9.790158551
  0
LWPOLYLINE
  5
332
330
1F
100
AcDbEntity
  8
0
  6
Continuous
 62
     7
370
    25
100
AcDbPolyline
 90
        9
 70
   128
 43
0.0
 10
12.7041550796
 20
9.790158551
 10
12.7039438641
 20
9.7867014889
 10
12.7013998001
 20
9.7777662682
 10
12.6960549887
 20
9.7692530517
 10
12.6880914436
 20
9.7614517469
 10
12.6777803518
 20
9.7546280183
 10
12.6654728491
 20
9.7490142375
 10
12.6515880469
 20
9.7448015795
 10
12.6365987839
 20
9.7421334962
  0
SPLINE
  5
333
330
1F
100
AcDbEntity
  8
0
  6
Continuous
 62
     7
370
    25
100
AcDbSpline
210
0.0
220
0.0
230
1.0
 70
     8
 71
     3
 72
    11
 73
     7
 74
     0
 42
0.000000001
 43
0.00000001
 40
0.0
 40
0.0
 40
0.0
 40
0.0
 40
0.1261045066948542
 40
0.4790252644494917
 40
0.8148249330159841
 40
1.0
 40
1.0
 40
1.0
 40
1.0
 10
12.63321139883009
 20
9.82519368976247
 30
0.0
 10
12.63146784164361
 20
9.82429253021125
 30
0.0
 10
12.62484470053449
 20
9.820869352058079
 30
0.0
 10
12.61240204748115
 20
9.816810411662967
 30
0.0
 10
12.59887717695844
 20
9.817237647962488
 30
0.0
 10
12.59163876066318
 20
9.81916495653164
 30
0.0
 10
12.58906594065701
 20
9.819849998375398
 30
0.0
  0
SPLINE
  5
334
330
1F
100
AcDbEntity
  8
0
  6
Continuous
 62
     7
370
    25
100
AcDbSpline
210
0.0
220
0.0
230
1.0
 70
     8
 71
     3
 72
    11
 73
     7
 74
     0
 42
0.000000001
 43
0.00000001
 40
0.0
 40
0.0
 40
0.0
 40
0.0
 40
0.2164524280201826
 40
0.4403054381065383
 40
0.7518957111097265
 40
1.0
 40
1.0
 40
1.0
 40
1.0
 10
12.58906594065701
 20
9.819849998375398
 30
0.0
 10
12.58810308120115
 20
9.81699992007462
 30
0.0
 10
12.58614444179743
 20
9.811202318327481
 30
0.0
 10
12.58250972275138
 20
9.802845482845763
 30
0.0
 10
12.57861076583331
 20
9.797163473520076
 30
0.0
 10
12.57611566238073
 20
9.795739180981045
 30
0.0
 10
12.57500962006773
 20
9.79510781324652
 30
0.0
  0
SPLINE
  5
335
330
1F
100
AcDbEntity
  8
0
  6
Continuous
 62
     7
370
    25
100
AcDbSpline
210
0.0
220
0.0
230
1.0
 70
     8
 71
     3
 72
     9
 73
     5
 74
     0
 42
0.000000001
 43
0.00000001
 40
0.0
 40
0.0
 40
0.0
 40
0.0
 40
0.5597287614630415
 40
1.0
 40
1.0
 40
1.0
 40
1.0
 10
12.57500962006773
 20
9.79510781324652
 30
0.0
 10
12.57706410573318
 20
9.792579902972486
 30
0.0
 10
12.58073460796017
 20
9.788063589986482
 30
0.0
 10
12.58474895953191
 20
9.784714450316859
 30
0.0
 10
12.58651636307032
 20
9.78323992044648
 30
0.0
  0
SPLINE
  5
336
330
1F
100
AcDbEntity
  8
0
  6
Continuous
 62
     7
370
    25
100
AcDbSpline
210
0.0
220
0.0
230
1.0
 70
     8
 71
     3
 72
    11
 73
     7
 74
     0
 42
0.000000001
 43
0.00000001
 40
0.0
 40
0.0
 40
0.0
 40
0.0
 40
0.1626952357378758
 40
0.4019061933255778
 40
0.7348738659416395
 40
1.0
 40
1.0
 40
1.0
 40
1.0
 10
12.65011317615979
 20
9.781640798531953
 30
0.0
 10
12.65079205558303
 20
9.78203464389555
 30
0.0
 10
12.65246909205853
 20
9.783007560466368
 30
0.0
 10
12.65580355083138
 20
9.787156804494256
 30
0.0
 10
12.65969871126368
 20
9.795167259707924
 30
0.0
 10
12.66219428647294
 20
9.802530974126928
 30
0.0
 10
12.66330053803432
 20
9.805795199762493
 30
0.0
  0
SPLINE
  5
337
330
1F
100
AcDbEntity
  8
0
  6
Continuous
 62
     7
370
    25
100
AcDbSpline
210
0.0
220
0.0
230
1.0
 70
     8
 71
     3
 72
    11
 73
     7
 74
     0
 42
0.000000001
 43
0.00000001
 40
0.0
 40
0.0
 40
0.0
 40
0.0
 40
0.2164523956767117
 40
0.4403054145075403
 40
0.7518956968435149
 40
1.0
 40
1.0
 40
1.0
 40
1.0
 10
12.66330053803432
 20
9.805795199762493
 30
0.0
 10
12.66123942814045
 20
9.805968763506366
 30
0.0
 10
12.65704673790328
 20
9.806321825231322
 30
0.0
 10
12.64926621153804
 20
9.80937899849837
 30
0.0
 10
12.64092005988029
 20
9.815940771616606
 30
0.0
 10
12.63557900790334
 20
9.822351783390722
 30
0.0
 10
12.63321139883009
 20
9.82519368976247
 30
0.0
  0
LINE
  5
338
330
1F
100
AcDbEntity
  8
0
  6
Continuous
 62
     7
370
    25
100
AcDbLine
 10
12.5890659407
 20
9.7973089202
 30
0.0
 11
12.5890659407
 21
9.8198499984
 31
0.0
  0
LINE
  5
339
330
1F
100
AcDbEntity
  8
0
  6
Continuous
 62
     7
370
    25
100
AcDbLine
 10
12.6332113988
 20
9.8026526116
 30
0.0
 11
12.6332113988
 21
9.8251936898
 31
0.0
  0
LINE
  5
33A
330
1F
100
AcDbEntity
  8
0
  6
Continuous
 62
     7
370
    25
100
AcDbLine
 10
12.6191550872
 20
9.5738083986
 30
0.0
 11
12.9727084735
 21
9.7779104241
 31
0.0
  0
LINE
  5
33B
330
1F
100
AcDbEntity
  8
0
  6
Continuous
 62
     7
370
    25
100
AcDbLine
 10
12.2656016879
 20
9.7779104316
 30
0.0
 11
12.6191550872
 21
9.5738083986
 31
0.0
  0
LINE
  5
33C
330
1F
100
AcDbEntity
  8
0
  6
Continuous
 62
     7
370
    25
100
AcDbLine
 10
12.6191550742
 20
9.9820124571
 30
0.0
 11
12.2656016879
 21
9.7779104316
 31
0.0
  0
LINE
  5
33D
330
1F
100
AcDbEntity
  8
0
  6
Continuous
 62
     7
370
    25
100
AcDbLine
 10
12.9727084735
 20
9.7779104241
 30
0.0
 11
12.6191550742
 21
9.9820124571
 31
0.0
  0
LINE
  5
33E
330
1F
100
AcDbEntity
  8
0
  6
Continuous
 62
     7
370
    25
100
AcDbLine
 10
12.6191550872
 20
9.5738083986
 30
0.0
 11
12.6191550872
 21
9.571584374
 31
0.0
  0
LINE
  5
33F
330
1F
100
AcDbEntity
  8
0
  6
Continuous
 62
     7
370
    25
100
AcDbLine
 10
12.9727084735
 20
9.7779104241
 30
0.0
 11
12.9727084735
 21
9.7756863995
 31
0.0
  0
LINE
  5
340
330
1F
100
AcDbEntity
  8
0
  6
Continuous
 62
     7
370
    25
100
AcDbLine
 10
12.5749609041
 20
9.5482956398
 30
0.0
 11
12.5749609041
 21
7.3028084792
 31
0.0
  0
LINE
  5
341
330
1F
100
AcDbEntity
  8
0
  6
Continuous
 62
     7
370
    25
100
AcDbLine
 10
12.5749609041
 20
9.5482956398
 30
0.0
 11
12.6194025728
 21
9.5739512691
 31
0.0
  0
LINE
  5
342
330
1F
100
AcDbEntity
  8
0
  6
Continuous
 62
     7
370
    25
100
AcDbLine
 10
12.6194025728
 20
9.5739512691
 30
0.0
 11
12.6194025728
 21
9.5717272445
 31
0.0
  0
LINE
  5
343
330
1F
100
AcDbEntity
  8
0
  6
Continuous
 62
     7
370
    25
100
AcDbLine
 10
12.5749609041
 20
7.3028084792
 30
0.0
 11
12.5866700199
 21
7.3095680079
 31
0.0
  0
LINE
  5
344
330
1F
100
AcDbEntity
  8
0
  6
Continuous
 62
     7
370
    25
100
AcDbLine
 10
12.1772133218
 20
9.7779104316
 30
0.0
 11
12.1772133218
 21
7.532423271
 31
0.0
  0
LINE
  5
345
330
1F
100
AcDbEntity
  8
0
  6
Continuous
 62
     7
370
    25
100
AcDbLine
 10
12.1772133218
 20
9.7779104316
 30
0.0
 11
12.5749609041
 21
9.5482956398
 31
0.0
  0
LINE
  5
346
330
1F
100
AcDbEntity
  8
0
  6
Continuous
 62
     7
370
    25
100
AcDbLine
 10
12.1772133218
 20
7.532423271
 30
0.0
 11
12.5749609041
 21
7.3028084792
 31
0.0
  0
LWPOLYLINE
  5
347
330
1F
100
AcDbEntity
  8
0
  6
Continuous
 62
     7
370
    25
100
AcDbPolyline
 90
       34
 70
   128
 43
0.0
 10
12.3429414855
 20
8.5594940189
 10
12.3439397961
 20
8.5709904665
 10
12.3468986379
 20
8.5809187855
 10
12.3517110751
 20
8.5889201338
 10
12.3582031702
 20
8.5947053282
 10
12.3661402843
 20
8.5980652718
 10
12.3752355488
 20
8.5988785256
 10
12.3851602391
 20
8.5971157013
 10
12.3955556494
 20
8.5928405026
 10
12.4060460616
 20
8.5862074629
 10
12.4162523263
 20
8.5774562985
 10
12.425805562
 20
8.5669033187
 10
12.4343604898
 20
8.5549299181
 10
12.4416079115
 20
8.5419688544
 10
12.4472858891
 20
8.5284885797
 10
12.451189201
 20
8.5149762932
 10
12.4531767771
 20
8.5019203779
 10
12.4531767771
 20
8.4897927013
 10
12.451189201
 20
8.4790315888
 10
12.4472858891
 20
8.4700259759
 10
12.4416079115
 20
8.4631013508
 10
12.4343604898
 20
8.4585079839
 10
12.425805562
 20
8.4564118956
 10
12.4162523263
 20
8.4568888416
 10
12.4060460616
 20
8.4599215844
 10
12.3955556494
 20
8.4654005122
 10
12.3851602391
 20
8.4731276034
 10
12.3752355488
 20
8.48282358
 10
12.3661402843
 20
8.4941380039
 10
12.3582031702
 20
8.5066619417
 10
12.3517110751
 20
8.5199427477
 10
12.3468986379
 20
8.5335004176
 10
12.3439397961
 20
8.5468449426
 10
12.3429414855
 20
8.5594940189
  0
LINE
  5
348
330
1F
100
AcDbEntity
  8
0
  6
Continuous
 62
     7
370
    25
100
AcDbLine
 10
12.6191550742
 20
10.0330379747
 30
0.0
 11
12.1772133218
 21
9.7779104316
 31
0.0
  0
LINE
  5
349
330
1F
100
AcDbEntity
  8
0
  6
Continuous
 62
     7
370
    25
100
AcDbLine
 10
13.0169026565
 20
9.8034231829
 30
0.0
 11
12.6191550742
 21
10.0330379747
 31
0.0
  0
LINE
  5
34A
330
1F
100
AcDbEntity
  8
0
  6
Continuous
 62
     7
370
    25
100
AcDbLine
 10
12.9724609878
 20
9.7777675537
 30
0.0
 11
13.0169026565
 21
9.8034231829
 31
0.0
  0
LINE
  5
34B
330
1F
100
AcDbEntity
  8
0
  6
Continuous
 62
     7
370
    25
100
AcDbLine
 10
12.9424089444
 20
9.7951162291
 30
0.0
 11
12.9724609878
 21
9.7777675537
 31
0.0
  0
LINE
  5
34C
330
1F
100
AcDbEntity
  8
0
  6
Continuous
 62
     7
370
    25
100
AcDbLine
 10
12.9506113884
 20
9.7998513992
 30
0.0
 11
12.9424089444
 21
9.7951162291
 31
0.0
  0
LINE
  5
34D
330
1F
100
AcDbEntity
  8
0
  6
Continuous
 62
     7
370
    25
100
AcDbLine
 10
12.6191550742
 20
9.9820124571
 30
0.0
 11
12.9506113884
 21
9.7998513992
 31
0.0
  0
LINE
  5
34E
330
1F
100
AcDbEntity
  8
0
  6
Continuous
 62
     7
370
    25
100
AcDbLine
 10
12.5811480854
 20
9.5865647743
 30
0.0
 11
12.2656016879
 21
9.7779104316
 31
0.0
  0
LINE
  5
34F
330
1F
100
AcDbEntity
  8
0
  6
Continuous
 62
     7
370
    25
100
AcDbLine
 10
12.5893505294
 20
9.5912999445
 30
0.0
 11
12.5811480854
 21
9.5865647743
 31
0.0
  0
LINE
  5
350
330
1F
100
AcDbEntity
  8
0
  6
Continuous
 62
     7
370
    25
100
AcDbLine
 10
12.6194025728
 20
9.5739512691
 30
0.0
 11
12.5893505294
 21
9.5912999445
 31
0.0
  0
LINE
  5
351
330
1F
100
AcDbEntity
  8
0
  6
Continuous
 62
     7
370
    25
100
AcDbLine
 10
12.9724609878
 20
9.7777675537
 30
0.0
 11
12.9724609878
 21
9.7755435291
 31
0.0
  0
LINE
  5
352
330
1F
100
AcDbEntity
  8
0
  6
Continuous
 62
     7
370
    25
100
AcDbLine
 10
13.0169026565
 20
9.8034231829
 30
0.0
 11
13.0169026565
 21
9.7899041886
 31
0.0
  0
ELLIPSE
  5
353
330
1F
100
AcDbEntity
  8
0
  6
Continuous
 62
     7
370
    25
100
AcDbEllipse
 10
12.4380314154
 20
8.5506063822
 30
0.0
 11
-0.0376503183360537
 21
0.06846729275112295
 31
0.0
210
0.0
220
0.0
230
1.0
 40
0.5630175034
 41
0.7971821633527347
 42
2.623202636454659
  0
ELLIPSE
  5
354
330
1F
100
AcDbEntity
  8
0
  6
Continuous
 62
     7
370
    25
100
AcDbEllipse
 10
12.4380314154
 20
8.5506063822
 30
0.0
 11
-0.0376503183360537
 21
0.06846729275112295
 31
0.0
210
0.0
220
0.0
230
1.0
 40
0.5630175034
 41
0.5666864232715857
 42
0.7971821633527627
  0
LWPOLYLINE
  5
355
330
1F
100
AcDbEntity
  8
0
  6
Continuous
 62
     8
370
    25
100
AcDbPolyline
 90
        3
 70
   128
 43
0.0
 10
12.9796869063
 20
7.9227925241
 10
12.978250657
 20
7.9235305474
 10
12.9724341404
 20
7.9250303054
  0
LWPOLYLINE
  5
356
330
1F
100
AcDbEntity
  8
0
  6
Continuous
 62
     8
370
    25
100
AcDbPolyline
 90
        3
 70
   128
 43
0.0
 10
12.7364421687
 20
9.2260144564
 10
12.7350059259
 20
9.2267524834
 10
12.7291894093
 20
9.2282523012
  0
LWPOLYLINE
  5
357
330
1F
100
AcDbEntity
  8
0
  6
Continuous
 62
     8
370
    25
100
AcDbPolyline
 90
        3
 70
   128
 43
0.0
 10
12.7364421687
 20
7.7823703261
 10
12.7350059259
 20
7.7831083531
 10
12.7291894093
 20
7.7846081111
  0
LWPOLYLINE
  5
358
330
1F
100
AcDbEntity
  8
0
  6
Continuous
 62
     8
370
    25
100
AcDbPolyline
 90
        3
 70
   128
 43
0.0
 10
12.9796869063
 20
9.3664366544
 10
12.978250657
 20
9.3671746777
 10
12.9724341404
 20
9.3686744956
  0
LINE
  5
359
330
1F
100
AcDbEntity
  8
0
  6
Continuous
 62
     8
370
    25
100
AcDbLine
 10
12.6765743606
 20
9.090504169
 30
0.0
 11
12.6765743606
 21
7.7959264536
 31
0.0
  0
LINE
  5
35A
330
1F
100
AcDbEntity
  8
0
  6
Continuous
 62
     8
370
    25
100
AcDbLine
 10
12.96964466
 20
9.2596900516
 30
0.0
 11
12.96964466
 21
7.9651123362
 31
0.0
  0
LINE
  5
35B
330
1F
100
AcDbEntity
  8
0
  6
Continuous
 62
     8
370
    25
100
AcDbLine
 10
12.4379793102
 20
8.5488756465
 30
0.0
 11
12.4379793102
 21
8.4868457604
 31
0.0
  0
LINE
  5
35C
330
1F
100
AcDbEntity
  8
0
  6
Continuous
 62
     8
370
    25
100
AcDbLine
 10
12.7052111847
 20
9.7719470733
 30
0.0
 11
12.7052111847
 21
9.7626558933
 31
0.0
  0
ENDSEC
  0
SECTION
  2
OBJECTS
  0
DICTIONARY
  5
C
330
0
100
AcDbDictionary
281
     1
  3
ACAD_GROUP
350
D
  3
ACAD_LAYOUT
350
1A
  3
ACAD_MLINESTYLE
350
17
  3
ACAD_PLOTSETTINGS
350
19
  3
ACAD_PLOTSTYLENAME
350
E
  3
ACAD_SCALELIST
350
47
  0
DICTIONARY
  5
D
102
{ACAD_REACTORS
330
C
102
}
330
C
100
AcDbDictionary
281
     1
  0
DICTIONARY
  5
1A
102
{ACAD_REACTORS
330
C
102
}
330
C
100
AcDbDictionary
281
     1
  3
Layout1
350
1E
  3
Layout2
350
26
  3
Model
350
22
  0
DICTIONARY
  5
17
102
{ACAD_REACTORS
330
C
102
}
330
C
100
AcDbDictionary
281
     1
  3
Standard
350
18
  0
DICTIONARY
  5
19
102
{ACAD_REACTORS
330
C
102
}
330
C
100
AcDbDictionary
281
     1
  0
ACDBDICTIONARYWDFLT
  5
E
102
{ACAD_REACTORS
330
C
102
}
330
C
100
AcDbDictionary
281
     1
  3
Normal
350
F
100
AcDbDictionaryWithDefault
340
F
  0
DICTIONARY
  5
47
102
{ACAD_REACTORS
330
C
102
}
330
C
100
AcDbDictionary
281
     1
  3
A0
350
48
  3
A1
350
49
  3
A2
350
4A
  3
A3
350
4B
  3
A4
350
4C
  3
A5
350
4D
  3
A6
350
4E
  3
A7
350
4F
  3
A8
350
50
  3
A9
350
51
  3
B0
350
52
  3
B1
350
53
  3
B2
350
54
  3
B3
350
55
  3
B4
350
56
  3
B5
350
57
  3
B6
350
58
  3
B7
350
59
  3
B8
350
5A
  3
B9
350
5B
  3
C0
350
5C
  3
C1
350
5D
  3
C2
350
5E
  3
C3
350
5F
  3
C4
350
60
  3
C5
350
61
  3
C6
350
62
  3
C7
350
63
  3
C8
350
64
  3
C9
350
65
  3
D0
350
66
  3
D1
350
67
  3
D2
350
68
  0
LAYOUT
  5
1E
102
{ACAD_REACTORS
330
1A
102
}
330
1A
100
AcDbPlotSettings
  1

  2
none_device
  4

  6

 40
0.0
 41
0.0
 42
0.0
 43
0.0
 44
0.0
 45
0.0
 46
0.0
 47
0.0
 48
0.0
 49
0.0
140
0.0
141
0.0
142
1.0
143
1.0
 70
   688
 72
     0
 73
     0
 74
     5
  7

 75
    16
147
1.0
148
0.0
149
0.0
100
AcDbLayout
  1
Layout1
 70
     1
 71
     1
 10
0.0
 20
0.0
 11
12.0
 21
9.0
 12
0.0
 22
0.0
 32
0.0
 14
1.0000000000E+20
 24
1.0000000000E+20
 34
1.0000000000E+20
 15
-1.0000000000E+20
 25
-1.0000000000E+20
 35
-1.0000000000E+20
146
0.0
 13
0.0
 23
0.0
 33
0.0
 16
1.0
 26
0.0
 36
0.0
 17
0.0
 27
1.0
 37
0.0
 76
     0
330
1B
  0
LAYOUT
  5
26
102
{ACAD_REACTORS
330
1A
102
}
330
1A
100
AcDbPlotSettings
  1

  2
none_device
  4

  6

 40
0.0
 41
0.0
 42
0.0
 43
0.0
 44
0.0
 45
0.0
 46
0.0
 47
0.0
 48
0.0
 49
0.0
140
0.0
141
0.0
142
1.0
143
1.0
 70
   688
 72
     0
 73
     0
 74
     5
  7

 75
    16
147
1.0
148
0.0
149
0.0
100
AcDbLayout
  1
Layout2
 70
     1
 71
     2
 10
0.0
 20
0.0
 11
0.0
 21
0.0
 12
0.0
 22
0.0
 32
0.0
 14
0.0
 24
0.0
 34
0.0
 15
0.0
 25
0.0
 35
0.0
146
0.0
 13
0.0
 23
0.0
 33
0.0
 16
1.0
 26
0.0
 36
0.0
 17
0.0
 27
1.0
 37
0.0
 76
     0
330
23
  0
LAYOUT
  5
22
102
{ACAD_REACTORS
330
1A
102
}
330
1A
100
AcDbPlotSettings
  1

  2
none_device
  4
Letter_(8.50_x_11.00_Inches)
  6

 40
6.35
 41
6.35
 42
6.35000508
 43
6.35000508
 44
215.9
 45
279.4
 46
0.0
 47
0.0
 48
0.0
 49
0.0
140
0.0
141
0.0
142
1.0
143
1.0
 70
  1712
 72
     0
 73
     0
 74
     0
  7

 75
     0
147
1.0
148
0.0
149
0.0
100
AcDbLayout
  1
Model
 70
     1
 71
     0
 10
0.0
 20
0.0
 11
17.0
 21
11.0
 12
0.0
 22
0.0
 32
0.0
 14
0.0
 24
0.0
 34
0.0
 15
17.0
 25
11.0
 35
0.0
146
0.0
 13
0.0
 23
0.0
 33
0.0
 16
1.0
 26
0.0
 36
0.0
 17
0.0
 27
1.0
 37
0.0
 76
     0
330
1F
331
29
  0
MLINESTYLE
  5
18
102
{ACAD_REACTORS
330
17
102
}
330
17
100
AcDbMlineStyle
  2
Standard
 70
     0
  3

 62
   256
 51
90.0
 52
90.0
 71
     2
 49
0.5
 62
   256
  6
BYLAYER
 49
-0.5
 62
   256
  6
BYLAYER
  0
ACDBPLACEHOLDER
  5
F
102
{ACAD_REACTORS
330
E
102
}
330
E
  0
SCALE
  5
48
102
{ACAD_REACTORS
330
47
102
}
330
47
100
AcDbScale
 70
     0
300
1:1
140
1.0
141
1.0
290
     1
  0
SCALE
  5
49
102
{ACAD_REACTORS
330
47
102
}
330
47
100
AcDbScale
 70
     0
300
1:2
140
1.0
141
2.0
290
     0
  0
SCALE
  5
4A
102
{ACAD_REACTORS
330
47
102
}
330
47
100
AcDbScale
 70
     0
300
1:4
140
1.0
141
4.0
290
     0
  0
SCALE
  5
4B
102
{ACAD_REACTORS
330
47
102
}
330
47
100
AcDbScale
 70
     0
300
1:5
140
1.0
141
5.0
290
     0
  0
SCALE
  5
4C
102
{ACAD_REACTORS
330
47
102
}
330
47
100
AcDbScale
 70
     0
300
1:8
140
1.0
141
8.0
290
     0
  0
SCALE
  5
4D
102
{ACAD_REACTORS
330
47
102
}
330
47
100
AcDbScale
 70
     0
300
1:10
140
1.0
141
10.0
290
     0
  0
SCALE
  5
4E
102
{ACAD_REACTORS
330
47
102
}
330
47
100
AcDbScale
 70
     0
300
1:16
140
1.0
141
16.0
290
     0
  0
SCALE
  5
4F
102
{ACAD_REACTORS
330
47
102
}
330
47
100
AcDbScale
 70
     0
300
1:20
140
1.0
141
20.0
290
     0
  0
SCALE
  5
50
102
{ACAD_REACTORS
330
47
102
}
330
47
100
AcDbScale
 70
     0
300
1:30
140
1.0
141
30.0
290
     0
  0
SCALE
  5
51
102
{ACAD_REACTORS
330
47
102
}
330
47
100
AcDbScale
 70
     0
300
1:40
140
1.0
141
40.0
290
     0
  0
SCALE
  5
52
102
{ACAD_REACTORS
330
47
102
}
330
47
100
AcDbScale
 70
     0
300
1:50
140
1.0
141
50.0
290
     0
  0
SCALE
  5
53
102
{ACAD_REACTORS
330
47
102
}
330
47
100
AcDbScale
 70
     0
300
1:100
140
1.0
141
100.0
290
     0
  0
SCALE
  5
54
102
{ACAD_REACTORS
330
47
102
}
330
47
100
AcDbScale
 70
     0
300
2:1
140
2.0
141
1.0
290
     0
  0
SCALE
  5
55
102
{ACAD_REACTORS
330
47
102
}
330
47
100
AcDbScale
 70
     0
300
4:1
140
4.0
141
1.0
290
     0
  0
SCALE
  5
56
102
{ACAD_REACTORS
330
47
102
}
330
47
100
AcDbScale
 70
     0
300
8:1
140
8.0
141
1.0
290
     0
  0
SCALE
  5
57
102
{ACAD_REACTORS
330
47
102
}
330
47
100
AcDbScale
 70
     0
300
10:1
140
10.0
141
1.0
290
     0
  0
SCALE
  5
58
102
{ACAD_REACTORS
330
47
102
}
330
47
100
AcDbScale
 70
     0
300
100:1
140
100.0
141
1.0
290
     0
  0
SCALE
  5
59
102
{ACAD_REACTORS
330
47
102
}
330
47
100
AcDbScale
 70
     0
300
1/128" = 1'-0"
140
0.0078125
141
12.0
290
     0
  0
SCALE
  5
5A
102
{ACAD_REACTORS
330
47
102
}
330
47
100
AcDbScale
 70
     0
300
1/64" = 1'-0"
140
0.015625
141
12.0
290
     0
  0
SCALE
  5
5B
102
{ACAD_REACTORS
330
47
102
}
330
47
100
AcDbScale
 70
     0
300
1/32" = 1'-0"
140
0.03125
141
12.0
290
     0
  0
SCALE
  5
5C
102
{ACAD_REACTORS
330
47
102
}
330
47
100
AcDbScale
 70
     0
300
1/16" = 1'-0"
140
0.0625
141
12.0
290
     0
  0
SCALE
  5
5D
102
{ACAD_REACTORS
330
47
102
}
330
47
100
AcDbScale
 70
     0
300
3/32" = 1'-0"
140
0.09375
141
12.0
290
     0
  0
SCALE
  5
5E
102
{ACAD_REACTORS
330
47
102
}
330
47
100
AcDbScale
 70
     0
300
1/8" = 1'-0"
140
0.125
141
12.0
290
     0
  0
SCALE
  5
5F
102
{ACAD_REACTORS
330
47
102
}
330
47
100
AcDbScale
 70
     0
300
3/16" = 1'-0"
140
0.1875
141
12.0
290
     0
  0
SCALE
  5
60
102
{ACAD_REACTORS
330
47
102
}
330
47
100
AcDbScale
 70
     0
300
1/4" = 1'-0"
140
0.25
141
12.0
290
     0
  0
SCALE
  5
61
102
{ACAD_REACTORS
330
47
102
}
330
47
100
AcDbScale
 70
     0
300
3/8" = 1'-0"
140
0.375
141
12.0
290
     0
  0
SCALE
  5
62
102
{ACAD_REACTORS
330
47
102
}
330
47
100
AcDbScale
 70
     0
300
1/2" = 1'-0"
140
0.5
141
12.0
290
     0
  0
SCALE
  5
63
102
{ACAD_REACTORS
330
47
102
}
330
47
100
AcDbScale
 70
     0
300
3/4" = 1'-0"
140
0.75
141
12.0
290
     0
  0
SCALE
  5
64
102
{ACAD_REACTORS
330
47
102
}
330
47
100
AcDbScale
 70
     0
300
1" = 1'-0"
140
1.0
141
12.0
290
     0
  0
SCALE
  5
65
102
{ACAD_REACTORS
330
47
102
}
330
47
100
AcDbScale
 70
     0
300
1-1/2" = 1'-0"
140
1.5
141
12.0
290
     0
  0
SCALE
  5
66
102
{ACAD_REACTORS
330
47
102
}
330
47
100
AcDbScale
 70
     0
300
3" = 1'-0"
140
3.0
141
12.0
290
     0
  0
SCALE
  5
67
102
{ACAD_REACTORS
330
47
102
}
330
47
100
AcDbScale
 70
     0
300
6" = 1'-0"
140
6.0
141
12.0
290
     0
  0
SCALE
  5
68
102
{ACAD_REACTORS
330
47
102
}
330
47
100
AcDbScale
 70
     0
300
1'-0" = 1'-0"
140
12.0
141
12.0
290
     0
  0
ENDSEC
  0
EOF
