  0
SECTION
  2
HEADER
  9
$ACADVER
  1
AC1015
  9
$ACADMAINTVER
 70
     6
  9
$DWGCODEPAGE
  3
ANSI_1252
  9
$INSBASE
 10
0.0
 20
0.0
 30
0.0
  9
$EXTMIN
 10
0.0
 20
0.0
 30
0.0
  9
$EXTMAX
 10
8.5
 20
11.0
 30
0.0
  9
$LIMMIN
 10
0.0
 20
0.0
  9
$LIMMAX
 10
8.5
 20
11.0
  9
$ORTHOMODE
 70
     0
  9
$REGENMODE
 70
     1
  9
$FILLMODE
 70
     1
  9
$QTEXTMODE
 70
     0
  9
$MIRRTEXT
 70
     1
  9
$LTSCALE
 40
1.0
  9
$ATTMODE
 70
     1
  9
$TEXTSIZE
 40
0.09
  9
$TRACEWID
 40
0.05
  9
$TEXTSTYLE
  7
Standard
  9
$CLAYER
  8
0
  9
$CELTYPE
  6
ByLayer
  9
$CECOLOR
 62
   256
  9
$CELTSCALE
 40
1.0
  9
$DISPSILH
 70
     0
  9
$DIMSCALE
 40
1.0
  9
$DIMASZ
 40
0.13
  9
$DIMEXO
 40
0.05
  9
$DIMDLI
 40
0.38
  9
$DIMRND
 40
0.0
  9
$DIMDLE
 40
0.0
  9
$DIMEXE
 40
0.125
  9
$DIMTP
 40
0.0
  9
$DIMTM
 40
0.0
  9
$DIMTXT
 40
0.09
  9
$DIMCEN
 40
0.09
  9
$DIMTSZ
 40
0.0
  9
$DIMTOL
 70
     0
  9
$DIMLIM
 70
     0
  9
$DIMTIH
 70
     1
  9
$DIMTOH
 70
     1
  9
$DIMSE1
 70
     0
  9
$DIMSE2
 70
     0
  9
$DIMTAD
 70
     1
  9
$DIMZIN
 70
     1
  9
$DIMBLK
  1

  9
$DIMASO
 70
     1
  9
$DIMSHO
 70
     1
  9
$DIMPOST
  1

  9
$DIMAPOST
  1

  9
$DIMALT
 70
     0
  9
$DIMALTD
 70
     2
  9
$DIMALTF
 40
25.4
  9
$DIMLFAC
 40
2.0
  9
$DIMTOFL
 70
     0
  9
$DIMTVP
 40
0.0
  9
$DIMTIX
 70
     0
  9
$DIMSOXD
 70
     0
  9
$DIMSAH
 70
     0
  9
$DIMBLK1
  1

  9
$DIMBLK2
  1

  9
$DIMSTYLE
  2
Standard
  9
$DIMCLRD
 70
     0
  9
$DIMCLRE
 70
     0
  9
$DIMCLRT
 70
     0
  9
$DIMTFAC
 40
1.0
  9
$DIMGAP
 40
0.06
  9
$DIMJUST
 70
     0
  9
$DIMSD1
 70
     0
  9
$DIMSD2
 70
     0
  9
$DIMTOLJ
 70
     1
  9
$DIMTZIN
 70
     1
  9
$DIMALTZ
 70
     0
  9
$DIMALTTZ
 70
     0
  9
$DIMUPT
 70
     0
  9
$DIMDEC
 70
     3
  9
$DIMTDEC
 70
     3
  9
$DIMALTU
 70
     2
  9
$DIMALTTD
 70
     2
  9
$DIMTXSTY
  7
Standard
  9
$DIMAUNIT
 70
     0
  9
$DIMADEC
 70
     3
  9
$DIMALTRND
 40
0.0
  9
$DIMAZIN
 70
     0
  9
$DIMDSEP
 70
    46
  9
$DIMATFIT
 70
     3
  9
$DIMFRAC
 70
     0
  9
$DIMLDRBLK
  1

  9
$DIMLUNIT
 70
     2
  9
$DIMLWD
 70
    -2
  9
$DIMLWE
 70
    -2
  9
$DIMTMOVE
 70
     0
  9
$LUNITS
 70
     2
  9
$LUPREC
 70
     3
  9
$SKETCHINC
 40
0.1
  9
$FILLETRAD
 40
0.5
  9
$AUNITS
 70
     0
  9
$AUPREC
 70
     2
  9
$MENU
  1
.
  9
$ELEVATION
 40
0.0
  9
$PELEVATION
 40
0.0
  9
$THICKNESS
 40
0.0
  9
$LIMCHECK
 70
     0
  9
$CHAMFERA
 40
0.0
  9
$CHAMFERB
 40
0.0
  9
$CHAMFERC
 40
0.0
  9
$CHAMFERD
 40
0.0
  9
$SKPOLY
 70
     0
  9
$TDCREATE
 40
2458100.602916597
  9
$TDUCREATE
 40
2458100.81124993
  9
$TDUPDATE
 40
2458100.602917535
  9
$TDUUPDATE
 40
2458100.811250868
  9
$TDINDWG
 40
0.0000000116
  9
$TDUSRTIMER
 40
0.0000000116
  9
$USRTIMER
 70
     1
  9
$ANGBASE
 50
0.0
  9
$ANGDIR
 70
     0
  9
$PDMODE
 70
     0
  9
$PDSIZE
 40
-1.0
  9
$PLINEWID
 40
0.0
  9
$SPLFRAME
 70
     0
  9
$SPLINETYPE
 70
     6
  9
$SPLINESEGS
 70
     8
  9
$HANDSEED
  5
3CE
  9
$SURFTAB1
 70
     6
  9
$SURFTAB2
 70
     6
  9
$SURFTYPE
 70
     6
  9
$SURFU
 70
     6
  9
$SURFV
 70
     6
  9
$UCSBASE
  2

  9
$UCSNAME
  2

  9
$UCSORG
 10
0.0
 20
0.0
 30
0.0
  9
$UCSXDIR
 10
1.0
 20
0.0
 30
0.0
  9
$UCSYDIR
 10
0.0
 20
1.0
 30
0.0
  9
$UCSORTHOREF
  2

  9
$UCSORTHOVIEW
 70
     0
  9
$UCSORGTOP
 10
0.0
 20
0.0
 30
0.0
  9
$UCSORGBOTTOM
 10
0.0
 20
0.0
 30
0.0
  9
$UCSORGLEFT
 10
0.0
 20
0.0
 30
0.0
  9
$UCSORGRIGHT
 10
0.0
 20
0.0
 30
0.0
  9
$UCSORGFRONT
 10
0.0
 20
0.0
 30
0.0
  9
$UCSORGBACK
 10
0.0
 20
0.0
 30
0.0
  9
$PUCSBASE
  2

  9
$PUCSNAME
  2

  9
$PUCSORG
 10
0.0
 20
0.0
 30
0.0
  9
$PUCSXDIR
 10
1.0
 20
0.0
 30
0.0
  9
$PUCSYDIR
 10
0.0
 20
1.0
 30
0.0
  9
$PUCSORTHOREF
  2

  9
$PUCSORTHOVIEW
 70
     0
  9
$PUCSORGTOP
 10
0.0
 20
0.0
 30
0.0
  9
$PUCSORGBOTTOM
 10
0.0
 20
0.0
 30
0.0
  9
$PUCSORGLEFT
 10
0.0
 20
0.0
 30
0.0
  9
$PUCSORGRIGHT
 10
0.0
 20
0.0
 30
0.0
  9
$PUCSORGFRONT
 10
0.0
 20
0.0
 30
0.0
  9
$PUCSORGBACK
 10
0.0
 20
0.0
 30
0.0
  9
$USERI1
 70
     0
  9
$USERI2
 70
     0
  9
$USERI3
 70
     0
  9
$USERI4
 70
     0
  9
$USERI5
 70
     0
  9
$USERR1
 40
0.0
  9
$USERR2
 40
0.0
  9
$USERR3
 40
0.0
  9
$USERR4
 40
0.0
  9
$USERR5
 40
0.0
  9
$WORLDVIEW
 70
     1
  9
$SHADEDGE
 70
     3
  9
$SHADEDIF
 70
    70
  9
$TILEMODE
 70
     1
  9
$MAXACTVP
 70
    64
  9
$PINSBASE
 10
0.0
 20
0.0
 30
0.0
  9
$PLIMCHECK
 70
     0
  9
$PEXTMIN
 10
1.0000000000E+20
 20
1.0000000000E+20
 30
1.0000000000E+20
  9
$PEXTMAX
 10
-1.0000000000E+20
 20
-1.0000000000E+20
 30
-1.0000000000E+20
  9
$PLIMMIN
 10
0.0
 20
0.0
  9
$PLIMMAX
 10
12.0
 20
9.0
  9
$UNITMODE
 70
     0
  9
$VISRETAIN
 70
     1
  9
$PLINEGEN
 70
     0
  9
$PSLTSCALE
 70
     1
  9
$TREEDEPTH
 70
  3020
  9
$CMLSTYLE
  2
Standard
  9
$CMLJUST
 70
     0
  9
$CMLSCALE
 40
1.0
  9
$PROXYGRAPHICS
 70
     1
  9
$MEASUREMENT
 70
     0
  9
$CELWEIGHT
370
    -1
  9
$ENDCAPS
280
     0
  9
$JOINSTYLE
280
     0
  9
$LWDISPLAY
290
     1
  9
$INSUNITS
 70
     1
  9
$HYPERLINKBASE
  1

  9
$STYLESHEET
  1

  9
$XEDIT
290
     1
  9
$CEPSNTYPE
380
     0
  9
$PSTYLEMODE
290
     1
  9
$FINGERPRINTGUID
  2
{F4DA1C89-6D3C-4694-B70A-F96D8C111A82}
  9
$VERSIONGUID
  2
{FAEB1C32-E019-11D5-929B-00C0DF256EC4}
  9
$EXTNAMES
290
     1
  9
$PSVPSCALE
 40
0.0
  9
$OLESTARTUP
290
     0
  0
ENDSEC
  0
SECTION
  2
CLASSES
  0
CLASS
  1
ACDBDICTIONARYWDFLT
  2
AcDbDictionaryWithDefault
  3
ObjectDBX Classes
 90
        0
280
     0
281
     0
  0
CLASS
  1
VISUALSTYLE
  2
AcDbVisualStyle
  3
ObjectDBX Classes
 90
     4095
280
     0
281
     0
  0
CLASS
  1
MATERIAL
  2
AcDbMaterial
  3
ObjectDBX Classes
 90
     1153
280
     0
281
     0
  0
CLASS
  1
SCALE
  2
AcDbScale
  3
ObjectDBX Classes
 90
     1153
280
     0
281
     0
  0
CLASS
  1
TABLESTYLE
  2
AcDbTableStyle
  3
ObjectDBX Classes
 90
     4095
280
     0
281
     0
  0
CLASS
  1
MLEADERSTYLE
  2
AcDbMLeaderStyle
  3
ACDB_MLEADERSTYLE_CLASS
 90
     4095
280
     0
281
     0
  0
CLASS
  1
SUN
  2
AcDbSun
  3
SCENEOE
 90
     1153
280
     0
281
     0
  0
CLASS
  1
ACDBPLACEHOLDER
  2
AcDbPlaceHolder
  3
ObjectDBX Classes
 90
        0
280
     0
281
     0
  0
CLASS
  1
LAYOUT
  2
AcDbLayout
  3
ObjectDBX Classes
 90
        0
280
     0
281
     0
  0
ENDSEC
  0
SECTION
  2
TABLES
  0
TABLE
  2
VPORT
  5
8
330
0
100
AcDbSymbolTable
 70
     1
  0
VPORT
  5
29
330
8
100
AcDbSymbolTableRecord
100
AcDbViewportTableRecord
  2
*Active
 70
     0
 10
0.0
 20
0.0
 11
1.0
 21
1.0
 12
4.25
 22
5.5
 13
0.0
 23
0.0
 14
0.5
 24
0.5
 15
0.5
 25
0.5
 16
0.0
 26
0.0
 36
1.0
 17
0.0
 27
0.0
 37
0.0
 40
11.0
 41
0.7727272727
 42
50.0
 43
0.0
 44
0.0
 50
0.0
 51
0.0
 71
     0
 72
  2000
 73
     1
 74
     3
 75
     0
 76
     0
 77
     0
 78
     0
281
     0
 65
     1
110
0.0
120
0.0
130
0.0
111
1.0
121
0.0
131
0.0
112
0.0
122
1.0
132
0.0
 79
     0
146
0.0
  0
ENDTAB
  0
TABLE
  2
LTYPE
  5
5
330
0
100
AcDbSymbolTable
 70
     6
  0
LTYPE
  5
14
330
5
100
AcDbSymbolTableRecord
100
AcDbLinetypeTableRecord
  2
ByBlock
 70
     0
  3

 72
    65
 73
     0
 40
0.0
  0
LTYPE
  5
15
330
5
100
AcDbSymbolTableRecord
100
AcDbLinetypeTableRecord
  2
ByLayer
 70
     0
  3

 72
    65
 73
     0
 40
0.0
  0
LTYPE
  5
16
330
5
100
AcDbSymbolTableRecord
100
AcDbLinetypeTableRecord
  2
Continuous
 70
     0
  3
Solid line
 72
    65
 73
     0
 40
0.0
  0
LTYPE
  5
6E
330
5
100
AcDbSymbolTableRecord
100
AcDbLinetypeTableRecord
  2
HIDDEN
 70
     0
  3
Hidden __ __ __ __ __ __ __ __ __ __ __ __ __ __
 72
    65
 73
     2
 40
0.075
 49
0.05
 74
     0
 49
-0.025
 74
     0
  0
LTYPE
  5
6F
330
5
100
AcDbSymbolTableRecord
100
AcDbLinetypeTableRecord
  2
PHANTOM
 70
     0
  3
Phantom ______  __  __  ______  __  __  ______
 72
    65
 73
     6
 40
0.5
 49
0.25
 74
     0
 49
-0.05
 74
     0
 49
0.05
 74
     0
 49
-0.05
 74
     0
 49
0.05
 74
     0
 49
-0.05
 74
     0
  0
LTYPE
  5
70
330
5
100
AcDbSymbolTableRecord
100
AcDbLinetypeTableRecord
  2
CENTER
 70
     0
  3
Center ____ _ ____ _ ____ _ ____ _ ____ _ ____
 72
    65
 73
     4
 40
0.4
 49
0.25
 74
     0
 49
-0.05
 74
     0
 49
0.05
 74
     0
 49
-0.05
 74
     0
  0
LTYPE
  5
71
330
5
100
AcDbSymbolTableRecord
100
AcDbLinetypeTableRecord
  2
CENTERX2
 70
     0
  3
Center (2x) ________  __  ________  __  _____
 72
    65
 73
     4
 40
0.8
 49
0.5
 74
     0
 49
-0.1
 74
     0
 49
0.1
 74
     0
 49
-0.1
 74
     0
  0
LTYPE
  5
72
330
5
100
AcDbSymbolTableRecord
100
AcDbLinetypeTableRecord
  2
DOT2
 70
     0
  3
Dot (.5x) ........................................
 72
    65
 73
     2
 40
0.025
 49
0.0
 74
     0
 49
-0.025
 74
     0
  0
ENDTAB
  0
TABLE
  2
LAYER
  5
2
330
0
100
AcDbSymbolTable
 70
     4
  0
LAYER
  5
10
330
2
100
AcDbSymbolTableRecord
100
AcDbLayerTableRecord
  2
0
 70
     0
 62
     7
  6
Continuous
370
    -3
390
F
  0
LAYER
  5
73
330
2
100
AcDbSymbolTableRecord
100
AcDbLayerTableRecord
  2
SLD-0
 70
     0
 62
   179
  6
Continuous
370
    -3
390
F
  0
LAYER
  5
74
330
2
100
AcDbSymbolTableRecord
100
AcDbLayerTableRecord
  2
3
 70
     0
 62
     7
  6
Continuous
370
    -3
390
F
  0
LAYER
  5
75
330
2
100
AcDbSymbolTableRecord
100
AcDbLayerTableRecord
  2
1
 70
     0
 62
   179
  6
Continuous
370
    -3
390
F
  0
ENDTAB
  0
TABLE
  2
STYLE
  5
3
330
0
100
AcDbSymbolTable
 70
     1
  0
STYLE
  5
11
330
3
100
AcDbSymbolTableRecord
100
AcDbTextStyleTableRecord
  2
Standard
 70
     0
 40
0.0
 41
1.0
 50
0.0
 71
     0
 42
0.09
  3
txt
  4

  0
ENDTAB
  0
TABLE
  2
VIEW
  5
6
330
0
100
AcDbSymbolTable
 70
     0
  0
ENDTAB
  0
TABLE
  2
UCS
  5
7
330
0
100
AcDbSymbolTable
 70
     0
  0
ENDTAB
  0
TABLE
  2
APPID
  5
9
330
0
100
AcDbSymbolTable
 70
     1
  0
APPID
  5
12
330
9
100
AcDbSymbolTableRecord
100
AcDbRegAppTableRecord
  2
ACAD
 70
     0
  0
ENDTAB
  0
TABLE
  2
DIMSTYLE
  5
A
330
0
100
AcDbSymbolTable
 70
     1
100
AcDbDimStyleTable
  0
DIMSTYLE
105
27
330
A
100
AcDbSymbolTableRecord
100
AcDbDimStyleTableRecord
  2
Standard
 70
     0
178
     0
340
11
  0
ENDTAB
  0
TABLE
  2
BLOCK_RECORD
  5
1
330
0
100
AcDbSymbolTable
 70
     1
  0
BLOCK_RECORD
  5
1F
330
1
100
AcDbSymbolTableRecord
100
AcDbBlockTableRecord
  2
*Model_Space
340
22
  0
BLOCK_RECORD
  5
1B
330
1
100
AcDbSymbolTableRecord
100
AcDbBlockTableRecord
  2
*Paper_Space
340
1E
  0
BLOCK_RECORD
  5
23
330
1
100
AcDbSymbolTableRecord
100
AcDbBlockTableRecord
  2
*Paper_Space0
340
26
  0
ENDTAB
  0
ENDSEC
  0
SECTION
  2
BLOCKS
  0
BLOCK
  5
20
330
1F
100
AcDbEntity
  8
0
100
AcDbBlockBegin
  2
*Model_Space
 70
     0
 10
0.0
 20
0.0
 30
0.0
  3
*Model_Space
  1

  0
ENDBLK
  5
21
330
1F
100
AcDbEntity
  8
0
100
AcDbBlockEnd
  0
BLOCK
  5
1C
330
1B
100
AcDbEntity
 67
     1
  8
0
100
AcDbBlockBegin
  2
*Paper_Space
 70
     0
 10
0.0
 20
0.0
 30
0.0
  3
*Paper_Space
  1

  0
ENDBLK
  5
1D
330
1B
100
AcDbEntity
 67
     1
  8
0
100
AcDbBlockEnd
  0
BLOCK
  5
24
330
23
100
AcDbEntity
  8
0
100
AcDbBlockBegin
  2
*Paper_Space0
 70
     0
 10
0.0
 20
0.0
 30
0.0
  3
*Paper_Space0
  1

  0
ENDBLK
  5
25
330
23
100
AcDbEntity
  8
0
100
AcDbBlockEnd
  0
ENDSEC
  0
SECTION
  2
ENTITIES
  0
LINE
  5
76
330
1F
100
AcDbEntity
  8
0
  6
Continuous
 62
     7
370
    25
100
AcDbLine
 10
2.5701260551
 20
6.2868818904
 30
0.0
 11
2.5701260551
 21
6.3468818904
 31
0.0
  0
LINE
  5
77
330
1F
100
AcDbEntity
  8
0
  6
Continuous
 62
     7
370
    25
100
AcDbLine
 10
2.3001260551
 20
6.3468818904
 30
0.0
 11
2.3001260551
 21
6.2868818904
 31
0.0
  0
LINE
  5
78
330
1F
100
AcDbEntity
  8
0
  6
Continuous
 62
     7
370
    25
100
AcDbLine
 10
2.5701260551
 20
6.4048818904
 30
0.0
 11
2.5701260551
 21
6.4548818904
 31
0.0
  0
LINE
  5
79
330
1F
100
AcDbEntity
  8
0
  6
Continuous
 62
     7
370
    25
100
AcDbLine
 10
2.3001260551
 20
6.4548818904
 30
0.0
 11
2.3001260551
 21
6.4048818904
 31
0.0
  0
ARC
  5
7A
330
1F
100
AcDbEntity
  8
0
  6
Continuous
 62
     7
370
    25
100
AcDbCircle
 10
2.3251260551
 20
6.4548818904
 30
0.0
 40
0.0250000000000004
100
AcDbArc
 50
90.0
 51
180.0
  0
ARC
  5
7B
330
1F
100
AcDbEntity
  8
0
  6
Continuous
 62
     7
370
    25
100
AcDbCircle
 10
2.5451260551
 20
6.4548818904
 30
0.0
 40
0.0249999999999999
100
AcDbArc
 50
0.0
 51
90.0
  0
LINE
  5
7C
330
1F
100
AcDbEntity
  8
0
  6
Continuous
 62
     7
370
    25
100
AcDbLine
 10
2.5563760551
 20
6.2168818904
 30
0.0
 11
2.5563760551
 21
6.2868818904
 31
0.0
  0
LINE
  5
7D
330
1F
100
AcDbEntity
  8
0
  6
Continuous
 62
     7
370
    25
100
AcDbLine
 10
2.3138760551
 20
6.2868818904
 30
0.0
 11
2.3138760551
 21
6.2168818904
 31
0.0
  0
LINE
  5
7E
330
1F
100
AcDbEntity
  8
0
  6
Continuous
 62
     7
370
    25
100
AcDbLine
 10
2.3651260551
 20
6.1588818904
 30
0.0
 11
2.3651260551
 21
6.1571935102
 31
0.0
  0
LINE
  5
7F
330
1F
100
AcDbEntity
  8
0
  6
Continuous
 62
     7
370
    25
100
AcDbLine
 10
2.5051260551
 20
6.1571935102
 30
0.0
 11
2.5051260551
 21
6.1588818904
 31
0.0
  0
LINE
  5
80
330
1F
100
AcDbEntity
  8
0
  6
Continuous
 62
     7
370
    25
100
AcDbLine
 10
2.5893331029
 20
6.3468818904
 30
0.0
 11
2.5893331029
 21
6.4048818904
 31
0.0
  0
LINE
  5
81
330
1F
100
AcDbEntity
  8
0
  6
Continuous
 62
     7
370
    25
100
AcDbLine
 10
2.5893331029
 20
6.1588818904
 30
0.0
 11
2.5893331029
 21
6.2168818904
 31
0.0
  0
LINE
  5
82
330
1F
100
AcDbEntity
  8
0
  6
Continuous
 62
     7
370
    25
100
AcDbLine
 10
2.2809190073
 20
6.2168818904
 30
0.0
 11
2.2809190073
 21
6.1588818904
 31
0.0
  0
LINE
  5
83
330
1F
100
AcDbEntity
  8
0
  6
Continuous
 62
     7
370
    25
100
AcDbLine
 10
2.2809190073
 20
6.4048818904
 30
0.0
 11
2.2809190073
 21
6.3468818904
 31
0.0
  0
LINE
  5
84
330
1F
100
AcDbEntity
  8
0
  6
Continuous
 62
     7
370
    25
100
AcDbLine
 10
2.5028032205
 20
7.4164888263
 30
0.0
 11
2.4745912077
 21
7.3628365487
 31
0.0
  0
LINE
  5
85
330
1F
100
AcDbEntity
  8
0
  6
Continuous
 62
     7
370
    25
100
AcDbLine
 10
2.5045559165
 20
7.3627694336
 30
0.0
 11
2.5327679293
 21
7.4164217112
 31
0.0
  0
SPLINE
  5
86
330
1F
100
AcDbEntity
  8
0
  6
Continuous
 62
     7
370
    25
100
AcDbSpline
210
0.0
220
0.0
230
1.0
 70
     8
 71
     3
 72
    11
 73
     7
 74
     0
 42
0.000000001
 43
0.00000001
 40
0.0
 40
0.0
 40
0.0
 40
0.0
 40
0.2733894581217657
 40
0.5311927366998467
 40
0.7733992222137093
 40
0.9999999999999999
 40
0.9999999999999999
 40
0.9999999999999999
 40
0.9999999999999999
 10
2.47343368412356
 20
7.249779500108978
 30
0.0
 10
2.474140761856265
 20
7.260600453176163
 30
0.0
 10
2.475514606182505
 20
7.281625447018092
 30
0.0
 10
2.482522364108826
 20
7.311488475139715
 30
0.0
 10
2.491961026423285
 20
7.338618524544246
 30
0.0
 10
2.500475625551321
 20
7.354945033515889
 30
0.0
 10
2.504591207659349
 20
7.362836548688812
 30
0.0
  0
SPLINE
  5
87
330
1F
100
AcDbEntity
  8
0
  6
Continuous
 62
     7
370
    25
100
AcDbSpline
210
0.0
220
0.0
230
1.0
 70
     8
 71
     3
 72
    11
 73
     7
 74
     0
 42
0.000000001
 43
0.00000001
 40
0.0
 40
0.0
 40
0.0
 40
0.0
 40
0.2849292485486668
 40
0.6441349297173083
 40
0.9249529289912409
 40
1.0
 40
1.0
 40
1.0
 40
1.0
 10
2.474591207659349
 20
7.362836548688812
 30
0.0
 10
2.471304123717682
 20
7.355740020013436
 30
0.0
 10
2.463873066377921
 20
7.339697012765728
 30
0.0
 10
2.456256975051297
 20
7.315369354482409
 30
0.0
 10
2.451540309007032
 20
7.296190531724985
 30
0.0
 10
2.450372359659174
 20
7.286441251761401
 30
0.0
 10
2.450126055132647
 20
7.284385262098998
 30
0.0
  0
LINE
  5
88
330
1F
100
AcDbEntity
  8
0
  6
Continuous
 62
     7
370
    25
100
AcDbLine
 10
2.4734338033
 20
7.2289888263
 30
0.0
 11
2.4734338033
 21
7.2497523534
 31
0.0
  0
LINE
  5
89
330
1F
100
AcDbEntity
  8
0
  6
Continuous
 62
     7
370
    25
100
AcDbLine
 10
2.4201260551
 20
7.4164888263
 30
0.0
 11
2.4201260551
 21
7.3251163174
 31
0.0
  0
LINE
  5
8A
330
1F
100
AcDbEntity
  8
0
  6
Continuous
 62
     7
370
    25
100
AcDbLine
 10
2.4501260551
 20
7.3251130672
 30
0.0
 11
2.4501260551
 21
7.4164855761
 31
0.0
  0
LINE
  5
8B
330
1F
100
AcDbEntity
  8
0
  6
Continuous
 62
     7
370
    25
100
AcDbLine
 10
2.4501260551
 20
7.288283829
 30
0.0
 11
2.4501260551
 21
7.3251163174
 31
0.0
  0
LINE
  5
8C
330
1F
100
AcDbEntity
  8
0
  6
Continuous
 62
     7
370
    25
100
AcDbLine
 10
2.4201260551
 20
7.3251163174
 30
0.0
 11
2.4201260551
 21
7.288283829
 31
0.0
  0
LINE
  5
8D
330
1F
100
AcDbEntity
  8
0
  6
Continuous
 62
     7
370
    25
100
AcDbLine
 10
2.4201260551
 20
7.288283829
 30
0.0
 11
2.4201260551
 21
7.2828023728
 31
0.0
  0
LINE
  5
8E
330
1F
100
AcDbEntity
  8
0
  6
Continuous
 62
     7
370
    25
100
AcDbLine
 10
2.4501260551
 20
7.2843852621
 30
0.0
 11
2.4501260551
 21
7.288280543
 31
0.0
  0
LINE
  5
8F
330
1F
100
AcDbEntity
  8
0
  6
Continuous
 62
     7
370
    25
100
AcDbLine
 10
2.3374488898
 20
7.4164888263
 30
0.0
 11
2.3656609026
 21
7.3628365487
 31
0.0
  0
LINE
  5
90
330
1F
100
AcDbEntity
  8
0
  6
Continuous
 62
     7
370
    25
100
AcDbLine
 10
2.3956271531
 20
7.3629007318
 30
0.0
 11
2.3674488898
 21
7.4164888263
 31
0.0
  0
SPLINE
  5
91
330
1F
100
AcDbEntity
  8
0
  6
Continuous
 62
     7
370
    25
100
AcDbSpline
210
0.0
220
0.0
230
1.0
 70
     8
 71
     3
 72
    10
 73
     6
 74
     0
 42
0.000000001
 43
0.00000001
 40
0.0
 40
0.0
 40
0.0
 40
0.0
 40
0.2704254221410273
 40
0.6473595400822532
 40
1.0
 40
1.0
 40
1.0
 40
1.0
 10
2.420126055132647
 20
7.282802372769657
 30
0.0
 10
2.419005750149385
 20
7.290320343459161
 30
0.0
 10
2.416323901257462
 20
7.308317283278563
 30
0.0
 10
2.408096899371694
 20
7.335267146751641
 30
0.0
 10
2.399713180079393
 20
7.353853041493464
 30
0.0
 10
2.395660902605946
 20
7.362836548688812
 30
0.0
  0
SPLINE
  5
92
330
1F
100
AcDbEntity
  8
0
  6
Continuous
 62
     7
370
    25
100
AcDbSpline
210
0.0
220
0.0
230
1.0
 70
     8
 71
     3
 72
    11
 73
     7
 74
     0
 42
0.000000001
 43
0.00000001
 40
0.0
 40
0.0
 40
0.0
 40
0.0
 40
0.1797671038650462
 40
0.406368380265292
 40
0.6797872173817541
 40
1.0
 40
1.0
 40
1.0
 40
1.0
 10
2.365660902605946
 20
7.362836548688812
 30
0.0
 10
2.368963107341057
 20
7.356601509854383
 30
0.0
 10
2.376427830088767
 20
7.34250703663007
 30
0.0
 10
2.385937425048932
 20
7.317415535513694
 30
0.0
 10
2.394229728247227
 20
7.285951293343508
 30
0.0
 10
2.395911341572387
 20
7.26245416390743
 30
0.0
 10
2.396818426141734
 20
7.249779500108978
 30
0.0
  0
LINE
  5
93
330
1F
100
AcDbEntity
  8
0
  6
Continuous
 62
     7
370
    25
100
AcDbLine
 10
2.3968183069
 20
7.249759628
 30
0.0
 11
2.3968183069
 21
7.2289888263
 31
0.0
  0
SPLINE
  5
94
330
1F
100
AcDbEntity
  8
0
  6
Continuous
 62
     7
370
    25
100
AcDbSpline
210
0.0
220
0.0
230
1.0
 70
     8
 71
     3
 72
    19
 73
    15
 74
     0
 42
0.000000001
 43
0.00000001
 40
0.0
 40
0.0
 40
0.0
 40
0.0
 40
0.1829794064048947
 40
0.3412179733997499
 40
0.474374249371883
 40
0.5825041838321061
 40
0.665759096602693
 40
0.7163408681233743
 40
0.7613182427061613
 40
0.8079105459656795
 40
0.8441708894893859
 40
0.8852441659766753
 40
0.9397331242972643
 40
1.0
 40
1.0
 40
1.0
 40
1.0
 10
2.49761765091001
 20
6.916184600564293
 30
0.0
 10
2.498865346979898
 20
6.935504430765192
 30
0.0
 10
2.501192036812108
 20
6.971531836455814
 30
0.0
 10
2.503876406277215
 20
7.021655467196747
 30
0.0
 10
2.504760051224617
 20
7.063928286884978
 30
0.0
 10
2.504104407587402
 20
7.098270200924489
 30
0.0
 10
2.502566089922431
 20
7.123832006988061
 30
0.0
 10
2.500800720443252
 20
7.142671449463484
 30
0.0
 10
2.499005606827657
 20
7.157604996180599
 30
0.0
 10
2.49705307291386
 20
7.170992849567963
 30
0.0
 10
2.49476666420347
 20
7.18389746976855
 30
0.0
 10
2.491644555199767
 20
7.19753856504078
 30
0.0
 10
2.486827672405483
 20
7.212732855471356
 30
0.0
 10
2.481647521812141
 20
7.223384796142343
 30
0.0
 10
2.478927037101386
 20
7.228978927280643
 30
0.0
  0
SPLINE
  5
95
330
1F
100
AcDbEntity
  8
0
  6
Continuous
 62
     7
370
    25
100
AcDbSpline
210
0.0
220
0.0
230
1.0
 70
     8
 71
     3
 72
    19
 73
    15
 74
     0
 42
0.000000001
 43
0.00000001
 40
0.0
 40
0.0
 40
0.0
 40
0.0
 40
0.0633388291053664
 40
0.119907479969102
 40
0.1629142597859298
 40
0.1931388940711896
 40
0.2239754909309238
 40
0.2684321794217241
 40
0.3278435323907745
 40
0.4188732971664539
 40
0.5315339245960636
 40
0.6659819200894252
 40
0.8222506883314369
 40
1.0
 40
1.0
 40
1.0
 40
1.0
 10
2.391323659812075
 20
7.228935557362129
 30
0.0
 10
2.388401169947482
 20
7.222923387405075
 30
0.0
 10
2.382868570121305
 20
7.211541677972193
 30
0.0
 10
2.378031409108088
 20
7.195139574657579
 30
0.0
 10
2.375104320068439
 20
7.181885836981776
 30
0.0
 10
2.373249945143965
 20
7.171106981967036
 30
0.0
 10
2.371600154357945
 20
7.160077786604329
 30
0.0
 10
2.369798820136972
 20
7.145975763549817
 30
0.0
 10
2.367781186587199
 20
7.125494951620919
 30
0.0
 10
2.366102581505237
 20
7.0977635770372
 30
0.0
 10
2.365490142826574
 20
7.062062080455274
 30
0.0
 10
2.366468364164465
 20
7.019481050788841
 30
0.0
 10
2.369158422054335
 20
6.970097032078024
 30
0.0
 10
2.371427146721177
 20
6.934909704487727
 30
0.0
 10
2.372634459355285
 20
6.916184600564293
 30
0.0
  0
LINE
  5
96
330
1F
100
AcDbEntity
  8
0
  6
Continuous
 62
     7
370
    25
100
AcDbLine
 10
2.3776260551
 20
6.9164888263
 30
0.0
 11
2.3776260551
 21
6.8180427356
 31
0.0
  0
LINE
  5
97
330
1F
100
AcDbEntity
  8
0
  6
Continuous
 62
     7
370
    25
100
AcDbLine
 10
2.4926260551
 20
6.8183354256
 30
0.0
 11
2.4926260551
 21
6.9164888263
 31
0.0
  0
LINE
  5
98
330
1F
100
AcDbEntity
  8
0
  6
Continuous
 62
     7
370
    25
100
AcDbLine
 10
2.6451260551
 20
5.2696935102
 30
0.0
 11
2.6451260551
 21
6.0571935102
 31
0.0
  0
LINE
  5
99
330
1F
100
AcDbEntity
  8
0
  6
Continuous
 62
     7
370
    25
100
AcDbLine
 10
2.2251260551
 20
6.0571935102
 30
0.0
 11
2.2251260551
 21
5.2696935102
 31
0.0
  0
ARC
  5
9A
330
1F
100
AcDbEntity
  8
0
  6
Continuous
 62
     7
370
    25
100
AcDbCircle
 10
2.3124548644
 20
6.1434435102
 30
0.0
 40
0.0137500000000008
100
AcDbArc
 50
90.0
 51
270.0
  0
ARC
  5
9B
330
1F
100
AcDbEntity
  8
0
  6
Continuous
 62
     7
370
    25
100
AcDbCircle
 10
2.5577972458
 20
6.1434435102
 30
0.0
 40
0.0137500000000008
100
AcDbArc
 50
270.0
 51
90.0
  0
LINE
  5
9C
330
1F
100
AcDbEntity
  8
0
  6
Continuous
 62
     7
370
    25
100
AcDbLine
 10
2.5577972458
 20
6.1571935102
 30
0.0
 11
2.3124548644
 21
6.1571935102
 31
0.0
  0
LINE
  5
9D
330
1F
100
AcDbEntity
  8
0
  6
Continuous
 62
     7
370
    25
100
AcDbLine
 10
2.3413760551
 20
5.0771935102
 30
0.0
 11
2.3413760551
 21
4.9311935102
 31
0.0
  0
LINE
  5
9E
330
1F
100
AcDbEntity
  8
0
  6
Continuous
 62
     7
370
    25
100
AcDbLine
 10
2.5288760551
 20
4.9311935102
 30
0.0
 11
2.5288760551
 21
5.0771935102
 31
0.0
  0
LINE
  5
9F
330
1F
100
AcDbEntity
  8
0
  6
Continuous
 62
     7
370
    25
100
AcDbLine
 10
2.4926260551
 20
6.4798818904
 30
0.0
 11
2.4926260551
 21
6.7038438326
 31
0.0
  0
LINE
  5
A0
330
1F
100
AcDbEntity
  8
0
  6
Continuous
 62
     7
370
    25
100
AcDbLine
 10
2.3776260551
 20
6.7094014899
 30
0.0
 11
2.3776260551
 21
6.4798818904
 31
0.0
  0
LINE
  5
A1
330
1F
100
AcDbEntity
  8
0
  6
Continuous
 62
     7
370
    25
100
AcDbLine
 10
2.6176260551
 20
4.8711935102
 30
0.0
 11
2.6176260551
 21
4.9311935102
 31
0.0
  0
LINE
  5
A2
330
1F
100
AcDbEntity
  8
0
  6
Continuous
 62
     7
370
    25
100
AcDbLine
 10
2.2526260551
 20
4.9311935102
 30
0.0
 11
2.2526260551
 21
4.8711935102
 31
0.0
  0
ARC
  5
A3
330
1F
100
AcDbEntity
  8
0
  6
Continuous
 62
     7
370
    25
100
AcDbCircle
 10
2.5976261109
 20
4.856193343
 30
0.0
 40
0.0249999442771688
100
AcDbArc
 50
359.9966580625
 51
37.4280137044
  0
ARC
  5
A4
330
1F
100
AcDbEntity
  8
0
  6
Continuous
 62
     7
370
    25
100
AcDbCircle
 10
2.2726259994
 20
4.856193343
 30
0.0
 40
0.0249999443029456
100
AcDbArc
 50
142.5293565233
 51
180.0033419245
  0
LINE
  5
A5
330
1F
100
AcDbEntity
  8
0
  6
Continuous
 62
     7
370
    25
100
AcDbLine
 10
2.2251260551
 20
6.1296935102
 30
0.0
 11
2.2251260551
 21
6.0546935102
 31
0.0
  0
LINE
  5
A6
330
1F
100
AcDbEntity
  8
0
  6
Continuous
 62
     7
370
    25
100
AcDbLine
 10
2.6451260551
 20
6.0546935102
 30
0.0
 11
2.6451260551
 21
6.1296935102
 31
0.0
  0
ARC
  5
A7
330
1F
100
AcDbEntity
  8
0
  6
Continuous
 62
     7
370
    25
100
AcDbCircle
 10
2.2301260551
 20
5.2646935102
 30
0.0
 40
0.0050000000000008
100
AcDbArc
 50
90.0
 51
180.0
  0
ARC
  5
A8
330
1F
100
AcDbEntity
  8
0
  6
Continuous
 62
     7
370
    25
100
AcDbCircle
 10
2.6401260551
 20
5.2646935102
 30
0.0
 40
0.0050000000000008
100
AcDbArc
 50
0.0
 51
90.0
  0
ARC
  5
A9
330
1F
100
AcDbEntity
  8
0
  6
Continuous
 62
     7
370
    25
100
AcDbCircle
 10
2.2301260551
 20
5.1696935102
 30
0.0
 40
0.0050000000000003
100
AcDbArc
 50
180.0
 51
270.0
  0
ARC
  5
AA
330
1F
100
AcDbEntity
  8
0
  6
Continuous
 62
     7
370
    25
100
AcDbCircle
 10
2.6401260551
 20
5.1696935102
 30
0.0
 40
0.0050000000000003
100
AcDbArc
 50
270.0
 51
0.0
  0
LINE
  5
AB
330
1F
100
AcDbEntity
  8
0
  6
Continuous
 62
     7
370
    25
100
AcDbLine
 10
2.6451260551
 20
5.1696935102
 30
0.0
 11
2.6451260551
 21
5.2646935102
 31
0.0
  0
LINE
  5
AC
330
1F
100
AcDbEntity
  8
0
  6
Continuous
 62
     7
370
    25
100
AcDbLine
 10
2.2251260551
 20
5.2646935102
 30
0.0
 11
2.2251260551
 21
5.1696935102
 31
0.0
  0
ARC
  5
AD
330
1F
100
AcDbEntity
  8
0
  6
Continuous
 62
     7
370
    25
100
AcDbCircle
 10
2.3313760551
 20
5.1546935102
 30
0.0
 40
0.0099999999999998
100
AcDbArc
 50
0.0
 51
90.0
  0
ARC
  5
AE
330
1F
100
AcDbEntity
  8
0
  6
Continuous
 62
     7
370
    25
100
AcDbCircle
 10
2.5388760551
 20
5.1546935102
 30
0.0
 40
0.0100000000000002
100
AcDbArc
 50
90.0
 51
180.0
  0
LINE
  5
AF
330
1F
100
AcDbEntity
  8
0
  6
Continuous
 62
     7
370
    25
100
AcDbLine
 10
2.5288760551
 20
5.0771935102
 30
0.0
 11
2.5288760551
 21
5.1546935102
 31
0.0
  0
LINE
  5
B0
330
1F
100
AcDbEntity
  8
0
  6
Continuous
 62
     7
370
    25
100
AcDbLine
 10
2.3413760551
 20
5.1546935102
 30
0.0
 11
2.3413760551
 21
5.0771935102
 31
0.0
  0
LINE
  5
B1
330
1F
100
AcDbEntity
  8
0
  6
Continuous
 62
     7
370
    25
100
AcDbLine
 10
2.2830915742
 20
6.3468818904
 30
0.0
 11
2.2809190073
 21
6.3468818904
 31
0.0
  0
LINE
  5
B2
330
1F
100
AcDbEntity
  8
0
  6
Continuous
 62
     7
370
    25
100
AcDbLine
 10
2.2830915742
 20
6.3468818904
 30
0.0
 11
2.3360587713
 21
6.3468818904
 31
0.0
  0
LINE
  5
B3
330
1F
100
AcDbEntity
  8
0
  6
Continuous
 62
     7
370
    25
100
AcDbLine
 10
2.356300354
 20
6.3468818904
 30
0.0
 11
2.3360587713
 21
6.3468818904
 31
0.0
  0
LINE
  5
B4
330
1F
100
AcDbEntity
  8
0
  6
Continuous
 62
     7
370
    25
100
AcDbLine
 10
2.356300354
 20
6.3468818904
 30
0.0
 11
2.4855074018
 21
6.3468818904
 31
0.0
  0
LINE
  5
B5
330
1F
100
AcDbEntity
  8
0
  6
Continuous
 62
     7
370
    25
100
AcDbLine
 10
2.508334835
 20
6.3468818904
 30
0.0
 11
2.4855074018
 21
6.3468818904
 31
0.0
  0
LINE
  5
B6
330
1F
100
AcDbEntity
  8
0
  6
Continuous
 62
     7
370
    25
100
AcDbLine
 10
2.508334835
 20
6.3468818904
 30
0.0
 11
2.5845746857
 21
6.3468818904
 31
0.0
  0
LINE
  5
B7
330
1F
100
AcDbEntity
  8
0
  6
Continuous
 62
     7
370
    25
100
AcDbLine
 10
2.5893331029
 20
6.3468818904
 30
0.0
 11
2.5845746857
 21
6.3468818904
 31
0.0
  0
LINE
  5
B8
330
1F
100
AcDbEntity
  8
0
  6
Continuous
 62
     7
370
    25
100
AcDbLine
 10
2.5845746857
 20
6.4048818904
 30
0.0
 11
2.5893331029
 21
6.4048818904
 31
0.0
  0
LINE
  5
B9
330
1F
100
AcDbEntity
  8
0
  6
Continuous
 62
     7
370
    25
100
AcDbLine
 10
2.508334835
 20
6.4048818904
 30
0.0
 11
2.5845746857
 21
6.4048818904
 31
0.0
  0
LINE
  5
BA
330
1F
100
AcDbEntity
  8
0
  6
Continuous
 62
     7
370
    25
100
AcDbLine
 10
2.4855074018
 20
6.4048818904
 30
0.0
 11
2.508334835
 21
6.4048818904
 31
0.0
  0
LINE
  5
BB
330
1F
100
AcDbEntity
  8
0
  6
Continuous
 62
     7
370
    25
100
AcDbLine
 10
2.356300354
 20
6.4048818904
 30
0.0
 11
2.4855074018
 21
6.4048818904
 31
0.0
  0
LINE
  5
BC
330
1F
100
AcDbEntity
  8
0
  6
Continuous
 62
     7
370
    25
100
AcDbLine
 10
2.3360587713
 20
6.4048818904
 30
0.0
 11
2.356300354
 21
6.4048818904
 31
0.0
  0
LINE
  5
BD
330
1F
100
AcDbEntity
  8
0
  6
Continuous
 62
     7
370
    25
100
AcDbLine
 10
2.2830915742
 20
6.4048818904
 30
0.0
 11
2.3360587713
 21
6.4048818904
 31
0.0
  0
LINE
  5
BE
330
1F
100
AcDbEntity
  8
0
  6
Continuous
 62
     7
370
    25
100
AcDbLine
 10
2.2809190073
 20
6.4048818904
 30
0.0
 11
2.2830915742
 21
6.4048818904
 31
0.0
  0
LINE
  5
BF
330
1F
100
AcDbEntity
  8
0
  6
Continuous
 62
     7
370
    25
100
AcDbLine
 10
2.508334835
 20
6.4048818904
 30
0.0
 11
2.508334835
 21
6.3468818904
 31
0.0
  0
LINE
  5
C0
330
1F
100
AcDbEntity
  8
0
  6
Continuous
 62
     7
370
    25
100
AcDbLine
 10
2.4855074018
 20
6.3468818904
 30
0.0
 11
2.4855074018
 21
6.4048818904
 31
0.0
  0
LINE
  5
C1
330
1F
100
AcDbEntity
  8
0
  6
Continuous
 62
     7
370
    25
100
AcDbLine
 10
2.5845746857
 20
6.2168818904
 30
0.0
 11
2.5893331029
 21
6.2168818904
 31
0.0
  0
LINE
  5
C2
330
1F
100
AcDbEntity
  8
0
  6
Continuous
 62
     7
370
    25
100
AcDbLine
 10
2.508334835
 20
6.2168818904
 30
0.0
 11
2.5845746857
 21
6.2168818904
 31
0.0
  0
LINE
  5
C3
330
1F
100
AcDbEntity
  8
0
  6
Continuous
 62
     7
370
    25
100
AcDbLine
 10
2.4855074018
 20
6.2168818904
 30
0.0
 11
2.508334835
 21
6.2168818904
 31
0.0
  0
LINE
  5
C4
330
1F
100
AcDbEntity
  8
0
  6
Continuous
 62
     7
370
    25
100
AcDbLine
 10
2.356300354
 20
6.2168818904
 30
0.0
 11
2.4855074018
 21
6.2168818904
 31
0.0
  0
LINE
  5
C5
330
1F
100
AcDbEntity
  8
0
  6
Continuous
 62
     7
370
    25
100
AcDbLine
 10
2.3360587713
 20
6.2168818904
 30
0.0
 11
2.356300354
 21
6.2168818904
 31
0.0
  0
LINE
  5
C6
330
1F
100
AcDbEntity
  8
0
  6
Continuous
 62
     7
370
    25
100
AcDbLine
 10
2.2830915742
 20
6.2168818904
 30
0.0
 11
2.3360587713
 21
6.2168818904
 31
0.0
  0
LINE
  5
C7
330
1F
100
AcDbEntity
  8
0
  6
Continuous
 62
     7
370
    25
100
AcDbLine
 10
2.2809190073
 20
6.2168818904
 30
0.0
 11
2.2830915742
 21
6.2168818904
 31
0.0
  0
LINE
  5
C8
330
1F
100
AcDbEntity
  8
0
  6
Continuous
 62
     7
370
    25
100
AcDbLine
 10
2.508334835
 20
6.2168818904
 30
0.0
 11
2.508334835
 21
6.1588818904
 31
0.0
  0
LINE
  5
C9
330
1F
100
AcDbEntity
  8
0
  6
Continuous
 62
     7
370
    25
100
AcDbLine
 10
2.4855074018
 20
6.1588818904
 30
0.0
 11
2.4855074018
 21
6.2168818904
 31
0.0
  0
LINE
  5
CA
330
1F
100
AcDbEntity
  8
0
  6
Continuous
 62
   144
370
    18
100
AcDbLine
 10
2.508334835
 20
6.1588818904
 30
0.0
 11
2.4855074018
 21
6.1588818904
 31
0.0
  0
LINE
  5
CB
330
1F
100
AcDbEntity
  8
0
  6
Continuous
 62
     7
370
    25
100
AcDbLine
 10
2.356300354
 20
6.4048818904
 30
0.0
 11
2.356300354
 21
6.3468818904
 31
0.0
  0
LINE
  5
CC
330
1F
100
AcDbEntity
  8
0
  6
Continuous
 62
     7
370
    25
100
AcDbLine
 10
2.356300354
 20
6.2168818904
 30
0.0
 11
2.356300354
 21
6.1588818904
 31
0.0
  0
LINE
  5
CD
330
1F
100
AcDbEntity
  8
0
  6
Continuous
 62
   144
370
    18
100
AcDbLine
 10
2.356300354
 20
6.1588818904
 30
0.0
 11
2.4855074018
 21
6.1588818904
 31
0.0
  0
LINE
  5
CE
330
1F
100
AcDbEntity
  8
0
  6
Continuous
 62
     7
370
    25
100
AcDbLine
 10
2.4351260551
 20
6.2868818904
 30
0.0
 11
2.5701260551
 21
6.2868818904
 31
0.0
  0
LINE
  5
CF
330
1F
100
AcDbEntity
  8
0
  6
Continuous
 62
     7
370
    25
100
AcDbLine
 10
2.3001260551
 20
6.2868818904
 30
0.0
 11
2.4351260551
 21
6.2868818904
 31
0.0
  0
LINE
  5
D0
330
1F
100
AcDbEntity
  8
0
  6
Continuous
 62
     7
370
    25
100
AcDbLine
 10
2.4351260551
 20
6.4798818904
 30
0.0
 11
2.5451260551
 21
6.4798818904
 31
0.0
  0
LINE
  5
D1
330
1F
100
AcDbEntity
  8
0
  6
Continuous
 62
     7
370
    25
100
AcDbLine
 10
2.3251260551
 20
6.4798818904
 30
0.0
 11
2.4351260551
 21
6.4798818904
 31
0.0
  0
LINE
  5
D2
330
1F
100
AcDbEntity
  8
0
  6
Continuous
 62
     7
370
    25
100
AcDbLine
 10
2.5845746857
 20
6.3468818904
 30
0.0
 11
2.5845746857
 21
6.4048818904
 31
0.0
  0
LINE
  5
D3
330
1F
100
AcDbEntity
  8
0
  6
Continuous
 62
     7
370
    25
100
AcDbLine
 10
2.5845746857
 20
6.1588818904
 30
0.0
 11
2.5845746857
 21
6.2168818904
 31
0.0
  0
LINE
  5
D4
330
1F
100
AcDbEntity
  8
0
  6
Continuous
 62
   144
370
    18
100
AcDbLine
 10
2.508334835
 20
6.1588818904
 30
0.0
 11
2.5845746857
 21
6.1588818904
 31
0.0
  0
LINE
  5
D5
330
1F
100
AcDbEntity
  8
0
  6
Continuous
 62
     7
370
    25
100
AcDbLine
 10
2.3360587713
 20
6.1588818904
 30
0.0
 11
2.3360587713
 21
6.2168818904
 31
0.0
  0
LINE
  5
D6
330
1F
100
AcDbEntity
  8
0
  6
Continuous
 62
   144
370
    18
100
AcDbLine
 10
2.356300354
 20
6.1588818904
 30
0.0
 11
2.3360587713
 21
6.1588818904
 31
0.0
  0
LINE
  5
D7
330
1F
100
AcDbEntity
  8
0
  6
Continuous
 62
     7
370
    25
100
AcDbLine
 10
2.3360587713
 20
6.3468818904
 30
0.0
 11
2.3360587713
 21
6.4048818904
 31
0.0
  0
LINE
  5
D8
330
1F
100
AcDbEntity
  8
0
  6
Continuous
 62
     7
370
    25
100
AcDbLine
 10
2.2830915742
 20
6.2168818904
 30
0.0
 11
2.2830915742
 21
6.1588818904
 31
0.0
  0
LINE
  5
D9
330
1F
100
AcDbEntity
  8
0
  6
Continuous
 62
   144
370
    18
100
AcDbLine
 10
2.2830915742
 20
6.1588818904
 30
0.0
 11
2.3360587713
 21
6.1588818904
 31
0.0
  0
LINE
  5
DA
330
1F
100
AcDbEntity
  8
0
  6
Continuous
 62
     7
370
    25
100
AcDbLine
 10
2.2830915742
 20
6.4048818904
 30
0.0
 11
2.2830915742
 21
6.3468818904
 31
0.0
  0
LINE
  5
DB
330
1F
100
AcDbEntity
  8
0
  6
Continuous
 62
   144
370
    18
100
AcDbLine
 10
2.5893331029
 20
6.1588818904
 30
0.0
 11
2.5845746857
 21
6.1588818904
 31
0.0
  0
LINE
  5
DC
330
1F
100
AcDbEntity
  8
0
  6
Continuous
 62
   144
370
    18
100
AcDbLine
 10
2.2830915742
 20
6.1588818904
 30
0.0
 11
2.2809190073
 21
6.1588818904
 31
0.0
  0
LINE
  5
DD
330
1F
100
AcDbEntity
  8
0
  6
Continuous
 62
     7
370
    25
100
AcDbLine
 10
2.565047315
 20
7.8023155979
 30
0.0
 11
2.5709528268
 21
7.8023155979
 31
0.0
  0
LINE
  5
DE
330
1F
100
AcDbEntity
  8
0
  6
Continuous
 62
     7
370
    25
100
AcDbLine
 10
2.5709528268
 20
7.7826305586
 30
0.0
 11
2.5709528268
 21
7.8023155979
 31
0.0
  0
LINE
  5
DF
330
1F
100
AcDbEntity
  8
0
  6
Continuous
 62
     7
370
    25
100
AcDbLine
 10
2.5709528268
 20
7.7826305586
 30
0.0
 11
2.565047315
 21
7.7826305586
 31
0.0
  0
LINE
  5
E0
330
1F
100
AcDbEntity
  8
0
  6
Continuous
 62
     7
370
    25
100
AcDbLine
 10
2.565047315
 20
7.8023155979
 30
0.0
 11
2.565047315
 21
7.7826305586
 31
0.0
  0
LINE
  5
E1
330
1F
100
AcDbEntity
  8
0
  6
Continuous
 62
     7
370
    25
100
AcDbLine
 10
2.3052047953
 20
7.8023155979
 30
0.0
 11
2.3052047953
 21
7.7826305586
 31
0.0
  0
LINE
  5
E2
330
1F
100
AcDbEntity
  8
0
  6
Continuous
 62
     7
370
    25
100
AcDbLine
 10
2.3052047953
 20
7.8023155979
 30
0.0
 11
2.565047315
 21
7.8023155979
 31
0.0
  0
LINE
  5
E3
330
1F
100
AcDbEntity
  8
0
  6
Continuous
 62
     7
370
    25
100
AcDbLine
 10
2.3052047953
 20
7.7826305586
 30
0.0
 11
2.565047315
 21
7.7826305586
 31
0.0
  0
LINE
  5
E4
330
1F
100
AcDbEntity
  8
0
  6
Continuous
 62
     7
370
    25
100
AcDbLine
 10
2.2992992835
 20
7.7826305586
 30
0.0
 11
2.3052047953
 21
7.7826305586
 31
0.0
  0
LINE
  5
E5
330
1F
100
AcDbEntity
  8
0
  6
Continuous
 62
     7
370
    25
100
AcDbLine
 10
2.2992992835
 20
7.7826305586
 30
0.0
 11
2.2992992835
 21
7.8023155979
 31
0.0
  0
LINE
  5
E6
330
1F
100
AcDbEntity
  8
0
  6
Continuous
 62
     7
370
    25
100
AcDbLine
 10
2.2992992835
 20
7.8023155979
 30
0.0
 11
2.3052047953
 21
7.8023155979
 31
0.0
  0
LINE
  5
E7
330
1F
100
AcDbEntity
  8
0
  6
Continuous
 62
     7
370
    25
100
AcDbLine
 10
2.2992992835
 20
7.5916856767
 30
0.0
 11
2.2992992835
 21
7.7826305586
 31
0.0
  0
LINE
  5
E8
330
1F
100
AcDbEntity
  8
0
  6
Continuous
 62
     7
370
    25
100
AcDbLine
 10
2.5709528268
 20
7.5916856767
 30
0.0
 11
2.5709528268
 21
7.7826305586
 31
0.0
  0
LINE
  5
E9
330
1F
100
AcDbEntity
  8
0
  6
Continuous
 62
     7
370
    25
100
AcDbLine
 10
2.3475276299
 20
7.5916856767
 30
0.0
 11
2.3573701496
 21
7.5916856767
 31
0.0
  0
LINE
  5
EA
330
1F
100
AcDbEntity
  8
0
  6
Continuous
 62
   144
370
    18
100
AcDbLine
 10
2.3475276299
 20
7.5916856767
 30
0.0
 11
2.3475276299
 21
7.7826305586
 31
0.0
  0
LINE
  5
EB
330
1F
100
AcDbEntity
  8
0
  6
Continuous
 62
   144
370
    18
100
AcDbLine
 10
2.3573701496
 20
7.7826305586
 30
0.0
 11
2.3573701496
 21
7.5916856767
 31
0.0
  0
LINE
  5
EC
330
1F
100
AcDbEntity
  8
0
  6
Continuous
 62
     7
370
    25
100
AcDbLine
 10
2.4454607008
 20
7.7826305586
 30
0.0
 11
2.4454607008
 21
7.5916856767
 31
0.0
  0
LINE
  5
ED
330
1F
100
AcDbEntity
  8
0
  6
Continuous
 62
     7
370
    25
100
AcDbLine
 10
2.4356181811
 20
7.5916856767
 30
0.0
 11
2.4454607008
 21
7.5916856767
 31
0.0
  0
LINE
  5
EE
330
1F
100
AcDbEntity
  8
0
  6
Continuous
 62
   144
370
    18
100
AcDbLine
 10
2.4356181811
 20
7.7826305586
 30
0.0
 11
2.4356181811
 21
7.5916856767
 31
0.0
  0
LINE
  5
EF
330
1F
100
AcDbEntity
  8
0
  6
Continuous
 62
     7
370
    25
100
AcDbLine
 10
2.3681969213
 20
7.7826305586
 30
0.0
 11
2.3681969213
 21
7.5916856767
 31
0.0
  0
LINE
  5
F0
330
1F
100
AcDbEntity
  8
0
  6
Continuous
 62
     7
370
    25
100
AcDbLine
 10
2.3583544016
 20
7.5916856767
 30
0.0
 11
2.3681969213
 21
7.5916856767
 31
0.0
  0
LINE
  5
F1
330
1F
100
AcDbEntity
  8
0
  6
Continuous
 62
   144
370
    18
100
AcDbLine
 10
2.3583544016
 20
7.7826305586
 30
0.0
 11
2.3583544016
 21
7.5916856767
 31
0.0
  0
LINE
  5
F2
330
1F
100
AcDbEntity
  8
0
  6
Continuous
 62
     7
370
    25
100
AcDbLine
 10
2.4247914095
 20
7.5916856767
 30
0.0
 11
2.3681969213
 21
7.5916856767
 31
0.0
  0
LINE
  5
F3
330
1F
100
AcDbEntity
  8
0
  6
Continuous
 62
     7
370
    25
100
AcDbLine
 10
2.4247914095
 20
7.5916856767
 30
0.0
 11
2.4346339291
 21
7.5916856767
 31
0.0
  0
LINE
  5
F4
330
1F
100
AcDbEntity
  8
0
  6
Continuous
 62
     7
370
    25
100
AcDbLine
 10
2.5128819606
 20
7.5916856767
 30
0.0
 11
2.4454607008
 21
7.5916856767
 31
0.0
  0
LINE
  5
F5
330
1F
100
AcDbEntity
  8
0
  6
Continuous
 62
     7
370
    25
100
AcDbLine
 10
2.5128819606
 20
7.5916856767
 30
0.0
 11
2.5227244803
 21
7.5916856767
 31
0.0
  0
LINE
  5
F6
330
1F
100
AcDbEntity
  8
0
  6
Continuous
 62
     7
370
    25
100
AcDbLine
 10
2.5709528268
 20
7.5916856767
 30
0.0
 11
2.5227244803
 21
7.5916856767
 31
0.0
  0
LINE
  5
F7
330
1F
100
AcDbEntity
  8
0
  6
Continuous
 62
     7
370
    25
100
AcDbLine
 10
2.3367008583
 20
7.5916856767
 30
0.0
 11
2.2992992835
 21
7.5916856767
 31
0.0
  0
LINE
  5
F8
330
1F
100
AcDbEntity
  8
0
  6
Continuous
 62
     7
370
    25
100
AcDbLine
 10
2.3367008583
 20
7.5916856767
 30
0.0
 11
2.346543378
 21
7.5916856767
 31
0.0
  0
LINE
  5
F9
330
1F
100
AcDbEntity
  8
0
  6
Continuous
 62
   144
370
    18
100
AcDbLine
 10
2.3573701496
 20
7.5916856767
 30
0.0
 11
2.3583544016
 21
7.5916856767
 31
0.0
  0
LINE
  5
FA
330
1F
100
AcDbEntity
  8
0
  6
Continuous
 62
   144
370
    18
100
AcDbLine
 10
2.346543378
 20
7.5916856767
 30
0.0
 11
2.3475276299
 21
7.5916856767
 31
0.0
  0
LINE
  5
FB
330
1F
100
AcDbEntity
  8
0
  6
Continuous
 62
   144
370
    18
100
AcDbLine
 10
2.4346339291
 20
7.5916856767
 30
0.0
 11
2.4356181811
 21
7.5916856767
 31
0.0
  0
LINE
  5
FC
330
1F
100
AcDbEntity
  8
0
  6
Continuous
 62
     7
370
    25
100
AcDbLine
 10
2.3367008583
 20
7.5916856767
 30
0.0
 11
2.3367008583
 21
7.7826305586
 31
0.0
  0
LINE
  5
FD
330
1F
100
AcDbEntity
  8
0
  6
Continuous
 62
   144
370
    18
100
AcDbLine
 10
2.346543378
 20
7.5916856767
 30
0.0
 11
2.346543378
 21
7.7826305586
 31
0.0
  0
LINE
  5
FE
330
1F
100
AcDbEntity
  8
0
  6
Continuous
 62
     7
370
    25
100
AcDbLine
 10
2.5227244803
 20
7.7826305586
 30
0.0
 11
2.5227244803
 21
7.5916856767
 31
0.0
  0
LINE
  5
FF
330
1F
100
AcDbEntity
  8
0
  6
Continuous
 62
     7
370
    25
100
AcDbLine
 10
2.5128819606
 20
7.5916856767
 30
0.0
 11
2.5128819606
 21
7.7826305586
 31
0.0
  0
LINE
  5
100
330
1F
100
AcDbEntity
  8
0
  6
Continuous
 62
     7
370
    25
100
AcDbLine
 10
2.4247914095
 20
7.5916856767
 30
0.0
 11
2.4247914095
 21
7.7826305586
 31
0.0
  0
LINE
  5
101
330
1F
100
AcDbEntity
  8
0
  6
Continuous
 62
   144
370
    18
100
AcDbLine
 10
2.4346339291
 20
7.5916856767
 30
0.0
 11
2.4346339291
 21
7.7826305586
 31
0.0
  0
LINE
  5
102
330
1F
100
AcDbEntity
  8
0
  6
Continuous
 62
     7
370
    25
100
AcDbLine
 10
2.3337481024
 20
7.4164888263
 30
0.0
 11
2.3711496772
 21
7.4164888263
 31
0.0
  0
LINE
  5
103
330
1F
100
AcDbEntity
  8
0
  6
Continuous
 62
     7
370
    25
100
AcDbLine
 10
2.3337481024
 20
7.5916856767
 30
0.0
 11
2.3337481024
 21
7.4164888263
 31
0.0
  0
LINE
  5
104
330
1F
100
AcDbEntity
  8
0
  6
Continuous
 62
     7
370
    25
100
AcDbLine
 10
2.3711496772
 20
7.4164888263
 30
0.0
 11
2.3711496772
 21
7.5916856767
 31
0.0
  0
LINE
  5
105
330
1F
100
AcDbEntity
  8
0
  6
Continuous
 62
     7
370
    25
100
AcDbLine
 10
2.3711496772
 20
7.4164888263
 30
0.0
 11
2.3859134567
 21
7.4164888263
 31
0.0
  0
LINE
  5
106
330
1F
100
AcDbEntity
  8
0
  6
Continuous
 62
     7
370
    25
100
AcDbLine
 10
2.3859134567
 20
7.5916856767
 30
0.0
 11
2.3859134567
 21
7.4164888263
 31
0.0
  0
LINE
  5
107
330
1F
100
AcDbEntity
  8
0
  6
Continuous
 62
     7
370
    25
100
AcDbLine
 10
2.4016614882
 20
7.4164888263
 30
0.0
 11
2.4164252677
 21
7.4164888263
 31
0.0
  0
LINE
  5
108
330
1F
100
AcDbEntity
  8
0
  6
Continuous
 62
     7
370
    25
100
AcDbLine
 10
2.4016614882
 20
7.4164888263
 30
0.0
 11
2.4016614882
 21
7.5916856767
 31
0.0
  0
LINE
  5
109
330
1F
100
AcDbEntity
  8
0
  6
Continuous
 62
     7
370
    25
100
AcDbLine
 10
2.4164252677
 20
7.5916856767
 30
0.0
 11
2.4164252677
 21
7.4164888263
 31
0.0
  0
LINE
  5
10A
330
1F
100
AcDbEntity
  8
0
  6
Continuous
 62
     7
370
    25
100
AcDbLine
 10
2.4843386536
 20
7.5916856767
 30
0.0
 11
2.4843386536
 21
7.4164888263
 31
0.0
  0
LINE
  5
10B
330
1F
100
AcDbEntity
  8
0
  6
Continuous
 62
     7
370
    25
100
AcDbLine
 10
2.3189843228
 20
7.4164888263
 30
0.0
 11
2.3337481024
 21
7.4164888263
 31
0.0
  0
LINE
  5
10C
330
1F
100
AcDbEntity
  8
0
  6
Continuous
 62
     7
370
    25
100
AcDbLine
 10
2.3189843228
 20
7.4164888263
 30
0.0
 11
2.3189843228
 21
7.5916856767
 31
0.0
  0
LINE
  5
10D
330
1F
100
AcDbEntity
  8
0
  6
Continuous
 62
     7
370
    25
100
AcDbLine
 10
2.5512677874
 20
7.4164888263
 30
0.0
 11
2.5512677874
 21
7.5916856767
 31
0.0
  0
LINE
  5
10E
330
1F
100
AcDbEntity
  8
0
  6
Continuous
 62
     7
370
    25
100
AcDbLine
 10
2.4843386536
 20
7.4164888263
 30
0.0
 11
2.5512677874
 21
7.4164888263
 31
0.0
  0
LINE
  5
10F
330
1F
100
AcDbEntity
  8
0
  6
Continuous
 62
     7
370
    25
100
AcDbLine
 10
2.4164252677
 20
7.4164888263
 30
0.0
 11
2.4538268425
 21
7.4164888263
 31
0.0
  0
LINE
  5
110
330
1F
100
AcDbEntity
  8
0
  6
Continuous
 62
     7
370
    25
100
AcDbLine
 10
2.4538268425
 20
7.4164888263
 30
0.0
 11
2.4685906221
 21
7.4164888263
 31
0.0
  0
LINE
  5
111
330
1F
100
AcDbEntity
  8
0
  6
Continuous
 62
     7
370
    25
100
AcDbLine
 10
2.4538268425
 20
7.4164888263
 30
0.0
 11
2.4538268425
 21
7.5916856767
 31
0.0
  0
LINE
  5
112
330
1F
100
AcDbEntity
  8
0
  6
Continuous
 62
     7
370
    25
100
AcDbLine
 10
2.4685906221
 20
7.5916856767
 30
0.0
 11
2.4685906221
 21
7.4164888263
 31
0.0
  0
LINE
  5
113
330
1F
100
AcDbEntity
  8
0
  6
Continuous
 62
     7
370
    25
100
AcDbLine
 10
2.4745912077
 20
7.3628365487
 30
0.0
 11
2.5045912077
 21
7.3628365487
 31
0.0
  0
LWPOLYLINE
  5
114
330
1F
100
AcDbEntity
  8
0
  6
Continuous
 62
     7
370
    25
100
AcDbPolyline
 90
        9
 70
   128
 43
0.0
 10
2.4481433225
 20
7.2377403815
 10
2.4503815092
 20
7.2394354896
 10
2.4545915712
 20
7.242105919
 10
2.4596442081
 20
7.2449038145
 10
2.4647702019
 20
7.2474032219
 10
2.4691891665
 20
7.2492236291
 10
2.4722283545
 20
7.2500878955
 10
2.4734250771
 20
7.2498644445
 10
2.4734338004
 20
7.2497874433
  0
LINE
  5
115
330
1F
100
AcDbEntity
  8
0
  6
Continuous
 62
     7
370
    25
100
AcDbLine
 10
2.3656609026
 20
7.3628365487
 30
0.0
 11
2.3956609011
 21
7.3628365487
 31
0.0
  0
LWPOLYLINE
  5
116
330
1F
100
AcDbEntity
  8
0
  6
Continuous
 62
     7
370
    25
100
AcDbPolyline
 90
        9
 70
   128
 43
0.0
 10
2.3968186438
 20
7.2498044669
 10
2.3968270332
 20
7.2498644445
 10
2.3980237558
 20
7.2500878955
 10
2.4010629438
 20
7.2492236291
 10
2.4054819083
 20
7.2474032219
 10
2.4106079021
 20
7.2449038145
 10
2.4156605391
 20
7.242105919
 10
2.4198706011
 20
7.2394354896
 10
2.4221087877
 20
7.2377403815
  0
SPLINE
  5
117
330
1F
100
AcDbEntity
  8
0
  6
Continuous
 62
     7
370
    25
100
AcDbSpline
210
0.0
220
0.0
230
1.0
 70
    24
 71
     3
 72
    18
 73
    14
 74
     0
 42
0.000000001
 43
0.00000001
 40
0.0
 40
0.0
 40
0.0
 40
0.0
 40
0.1073721751908548
 40
0.214736722502173
 40
0.3222072209772607
 40
0.375363953899537
 40
0.4824528035310302
 40
0.5355514022804716
 40
0.6429017283845676
 40
0.7502986622188677
 40
0.8577303198560075
 40
0.9651416269946115
 40
1.0
 40
1.0
 40
1.0
 40
1.0
 10
2.497636218918119
 20
6.916488826270924
 30
0.0
 10
2.496943904005963
 20
6.916488826270925
 30
0.0
 10
2.495559323364736
 20
6.916488826270924
 30
0.0
 10
2.484786345455373
 20
6.916488826270924
 30
0.0
 10
2.47155711136766
 20
6.916488826270923
 30
0.0
 10
2.455991461128704
 20
6.916488826270924
 30
0.0
 10
2.442132350586693
 20
6.916488826270924
 30
0.0
 10
2.424654336561622
 20
6.916488826270925
 30
0.0
 10
2.407548449880062
 20
6.916488826270923
 30
0.0
 10
2.390002483948801
 20
6.916488826270923
 30
0.0
 10
2.378019514434017
 20
6.916488826270923
 30
0.0
 10
2.372302241637666
 20
6.916488826270925
 30
0.0
 10
2.373180072088323
 20
6.916488826270923
 30
0.0
 10
2.373395154748617
 20
6.916488826270924
 30
0.0
  0
SPLINE
  5
118
330
1F
100
AcDbEntity
  8
0
  6
Continuous
 62
     7
370
    25
100
AcDbSpline
210
0.0
220
0.0
230
1.0
 70
    24
 71
     3
 72
    23
 73
    19
 74
     0
 42
0.000000001
 43
0.00000001
 40
0.0
 40
0.0
 40
0.0
 40
0.0
 40
0.0360348028056434
 40
0.0841305895714216
 40
0.1803265793154919
 40
0.2285297103339912
 40
0.2779192701578178
 40
0.3288938910519922
 40
0.3799925436623039
 40
0.4277274831843036
 40
0.5972949766674929
 40
0.6818493227905081
 40
0.7332348031743026
 40
0.8130388396263447
 40
0.8595398918224367
 40
0.9058970890907436
 40
0.9550578593251211
 40
0.9999999999999999
 40
0.9999999999999999
 40
0.9999999999999999
 40
0.9999999999999999
 10
2.391205108413387
 20
7.228988826270924
 30
0.0
 10
2.391171445746203
 20
7.228988826270923
 30
0.0
 10
2.391092853390584
 20
7.228988826270923
 30
0.0
 10
2.39112741597131
 20
7.228988826270924
 30
0.0
 10
2.391531611350929
 20
7.228988826270918
 30
0.0
 10
2.391405221631686
 20
7.228988826270924
 30
0.0
 10
2.393068784015049
 20
7.228988826270928
 30
0.0
 10
2.396984469267208
 20
7.228988826270923
 30
0.0
 10
2.402655561255011
 20
7.228988826270924
 30
0.0
 10
2.415155097992034
 20
7.228988826270923
 30
0.0
 10
2.429459383504379
 20
7.228988826270914
 30
0.0
 10
2.443867957763745
 20
7.228988826270923
 30
0.0
 10
2.453986703475469
 20
7.228988826270923
 30
0.0
 10
2.462576326371873
 20
7.228988826270919
 30
0.0
 10
2.470067839272948
 20
7.228988826270932
 30
0.0
 10
2.474798978697736
 20
7.228988826270921
 30
0.0
 10
2.477929278939893
 20
7.228988826270923
 30
0.0
 10
2.478416890634368
 20
7.228988826270923
 30
0.0
 10
2.478649766675673
 20
7.228988826270923
 30
0.0
  0
SPLINE
  5
119
330
1F
100
AcDbEntity
  8
0
  6
Continuous
 62
     7
370
    25
100
AcDbSpline
210
0.0
220
0.0
230
1.0
 70
     8
 71
     3
 72
    21
 73
    17
 74
     0
 42
0.000000001
 43
0.00000001
 40
0.0
 40
0.0
 40
0.0
 40
0.0
 40
0.0160238178599432
 40
0.0984784989863436
 40
0.182639833432739
 40
0.2805475479407385
 40
0.3388047321353234
 40
0.3987647242473333
 40
0.4718876972210549
 40
0.545476979523633
 40
0.6283163596497707
 40
0.7457484563576803
 40
0.8048327765304928
 40
0.8658562446751753
 40
0.953186546251799
 40
1.0
 40
1.0
 40
1.0
 40
1.0
 10
2.378009972753571
 20
6.818042735605581
 30
0.0
 10
2.377887369964245
 20
6.818136170040829
 30
0.0
 10
2.377133882950735
 20
6.818710395423151
 30
0.0
 10
2.380279828969268
 20
6.816295909184787
 30
0.0
 10
2.387085083396296
 20
6.811268944595751
 30
0.0
 10
2.396625722080521
 20
6.804792855293401
 30
0.0
 10
2.406847994052253
 20
6.799005045225137
 30
0.0
 10
2.417093912277259
 20
6.794396748229823
 30
0.0
 10
2.429664268201718
 20
6.791110438098869
 30
0.0
 10
2.444518440982852
 20
6.791662047832198
 30
0.0
 10
2.460547385037117
 20
6.797125162051598
 30
0.0
 10
2.472987696580747
 20
6.80441527567111
 30
0.0
 10
2.482043033124308
 20
6.810516168571594
 30
0.0
 10
2.488307248402015
 20
6.81504254096384
 30
0.0
 10
2.492094429740575
 20
6.817927451152703
 30
0.0
 10
2.492488524161482
 20
6.818229882978375
 30
0.0
 10
2.492626055132647
 20
6.818335425560278
 30
0.0
  0
LINE
  5
11A
330
1F
100
AcDbEntity
  8
0
  6
Continuous
 62
     7
370
    25
100
AcDbLine
 10
2.6451260551
 20
5.2696935102
 30
0.0
 11
2.2251260551
 21
5.2696935102
 31
0.0
  0
SPLINE
  5
11B
330
1F
100
AcDbEntity
  8
0
  6
Continuous
 62
     7
370
    25
100
AcDbSpline
210
0.0
220
0.0
230
1.0
 70
    11
 71
     3
 72
    54
 73
    50
 74
     0
 42
0.000000001
 43
0.00000001
 40
0.0
 40
0.0
 40
0.0
 40
0.0
 40
0.0312500000000038
 40
0.0312500000000038
 40
0.0625000000000075
 40
0.0625000000000075
 40
0.0937500000000113
 40
0.0937500000000113
 40
0.125000000000015
 40
0.125000000000015
 40
0.1875000000000188
 40
0.1875000000000188
 40
0.2500000000000227
 40
0.2500000000000227
 40
0.2812500000000246
 40
0.2812500000000246
 40
0.3125000000000265
 40
0.3125000000000265
 40
0.3750000000000306
 40
0.3750000000000306
 40
0.4062500000000312
 40
0.4062500000000312
 40
0.4375000000000318
 40
0.4375000000000318
 40
0.4687500000000324
 40
0.4687500000000324
 40
0.500000000000033
 40
0.500000000000033
 40
0.5625000000000336
 40
0.5625000000000336
 40
0.6250000000000342
 40
0.6250000000000342
 40
0.6562500000000347
 40
0.6562500000000347
 40
0.6875000000000353
 40
0.6875000000000353
 40
0.750000000000032
 40
0.750000000000032
 40
0.7812500000000281
 40
0.7812500000000281
 40
0.8125000000000242
 40
0.8125000000000242
 40
0.8437500000000203
 40
0.8437500000000203
 40
0.8750000000000164
 40
0.8750000000000164
 40
0.9375000000000082
 40
0.9375000000000082
 40
1.0
 40
1.0
 40
1.0
 40
1.0
 10
2.435126055132649
 20
5.953943510151072
 30
0.0
 10
2.433257457866868
 20
5.953943510151071
 30
0.0
 10
2.431420506343316
 20
5.954127077658199
 30
0.0
 10
2.427807178198482
 20
5.954845936855992
 30
0.0
 10
2.426011916252449
 20
5.955390107402531
 30
0.0
 10
2.422591829312791
 20
5.956808807877362
 30
0.0
 10
2.420970064316633
 20
5.957676657155187
 30
0.0
 10
2.417900834890273
 20
5.95972664689857
 30
0.0
 10
2.416449286092482
 20
5.960918449818283
 30
0.0
 10
2.412545467454184
 20
5.96482315794194
 30
0.0
 10
2.410441414685198
 20
5.967971483648639
 30
0.0
 10
2.407622254710597
 20
5.974767981604248
 30
0.0
 10
2.406878124318875
 20
5.978488397468364
 30
0.0
 10
2.406875027175913
 20
5.984022350822264
 30
0.0
 10
2.40705888468281
 20
5.985896372573828
 30
0.0
 10
2.407780411909636
 20
5.989521063897163
 30
0.0
 10
2.408314242460964
 20
5.991283037867643
 30
0.0
 10
2.410438614282501
 20
5.996417223297707
 30
0.0
 10
2.412509447153852
 20
5.999526480000156
 30
0.0
 10
2.416459607160464
 20
6.003479568855437
 30
0.0
 10
2.417884038205799
 20
6.004646974264021
 30
0.0
 10
2.420940904373817
 20
6.006693034561282
 30
0.0
 10
2.422593161652056
 20
6.007578830477083
 30
0.0
 10
2.42601228720357
 20
6.008997001363691
 30
0.0
 10
2.427773092854407
 20
6.009532327239649
 30
0.0
 10
2.431396965263346
 20
6.010257203115731
 30
0.0
 10
2.433270746465406
 20
6.010442809821448
 30
0.0
 10
2.438804589132992
 20
6.010444904737509
 30
0.0
 10
2.442525676216131
 20
6.009704485476125
 30
0.0
 10
2.449327362487829
 20
6.006890291822344
 30
0.0
 10
2.452476316502655
 20
6.00478983872105
 30
0.0
 10
2.456386225116247
 20
6.000887318106673
 30
0.0
 10
2.457579559386749
 20
5.999435985120216
 30
0.0
 10
2.45963045544066
 20
5.996370856937237
 30
0.0
 10
2.460499694644917
 20
5.994750231539227
 30
0.0
 10
2.462633049597005
 20
5.989619753616721
 30
0.0
 10
2.463372739313885
 20
5.98595410838968
 30
0.0
 10
2.463377696459983
 20
5.980350698739571
 30
0.0
 10
2.463195905691493
 20
5.978513805322894
 30
0.0
 10
2.462480232227643
 20
5.974899284114401
 30
0.0
 10
2.461937315023404
 20
5.973102636140882
 30
0.0
 10
2.46052212659639
 20
5.969682427008221
 30
0.0
 10
2.459655808708868
 20
5.968059793965545
 30
0.0
 10
2.45760775720709
 20
5.964987586300282
 30
0.0
 10
2.456417538357628
 20
5.963535500952521
 30
0.0
 10
2.452517084836504
 20
5.959628961705981
 30
0.0
 10
2.449370223047141
 20
5.957521621880285
 30
0.0
 10
2.442576024064012
 20
5.954696303868538
 30
0.0
 10
2.438863249664208
 20
5.953943510151071
 30
0.0
 10
2.435126055132648
 20
5.953943510151072
 30
0.0
  0
LINE
  5
11C
330
1F
100
AcDbEntity
  8
0
  6
Continuous
 62
   144
370
    18
100
AcDbLine
 10
2.6451260551
 20
6.0571935102
 30
0.0
 11
2.2251260551
 21
6.0571935102
 31
0.0
  0
SPLINE
  5
11D
330
1F
100
AcDbEntity
  8
0
  6
Continuous
 62
     7
370
    25
100
AcDbSpline
210
0.0
220
0.0
230
1.0
 70
    11
 71
     3
 72
    54
 73
    50
 74
     0
 42
0.000000001
 43
0.00000001
 40
0.0
 40
0.0
 40
0.0
 40
0.0
 40
0.0312500000000007
 40
0.0312500000000007
 40
0.0625000000000015
 40
0.0625000000000015
 40
0.0937500000000022
 40
0.0937500000000022
 40
0.125000000000003
 40
0.125000000000003
 40
0.1875000000000041
 40
0.1875000000000041
 40
0.2500000000000053
 40
0.2500000000000053
 40
0.2812500000000059
 40
0.2812500000000059
 40
0.3125000000000067
 40
0.3125000000000067
 40
0.375000000000009
 40
0.375000000000009
 40
0.4062500000000114
 40
0.4062500000000114
 40
0.4375000000000137
 40
0.4375000000000137
 40
0.4687500000000161
 40
0.4687500000000161
 40
0.5000000000000184
 40
0.5000000000000184
 40
0.5625000000000189
 40
0.5625000000000189
 40
0.6250000000000194
 40
0.6250000000000194
 40
0.6562500000000181
 40
0.6562500000000181
 40
0.6875000000000169
 40
0.6875000000000169
 40
0.7500000000000137
 40
0.7500000000000137
 40
0.7812500000000121
 40
0.7812500000000121
 40
0.8125000000000105
 40
0.8125000000000105
 40
0.843750000000009
 40
0.843750000000009
 40
0.8750000000000073
 40
0.8750000000000073
 40
0.9375000000000038
 40
0.9375000000000038
 40
1.0
 40
1.0
 40
1.0
 40
1.0
 10
2.604062233399863
 20
5.91469351015107
 30
0.0
 10
2.604062233399863
 20
5.916761113046234
 30
0.0
 10
2.603940392187404
 20
5.918793582510127
 30
0.0
 10
2.603460862854775
 20
5.922791309285598
 30
0.0
 10
2.603097187091822
 20
5.924777498850649
 30
0.0
 10
2.60214138779095
 20
5.928560445746643
 30
0.0
 10
2.601553702634097
 20
5.930354193984561
 30
0.0
 10
2.600150201933571
 20
5.933748926507188
 30
0.0
 10
2.599327683462509
 20
5.935353994698317
 30
0.0
 10
2.596597397810906
 20
5.939671100655658
 30
0.0
 10
2.594350705709804
 20
5.941998509065945
 30
0.0
 10
2.589338392368885
 20
5.945117486045636
 30
0.0
 10
2.586517332943296
 20
5.945941197405665
 30
0.0
 10
2.582187789068677
 20
5.945944659033725
 30
0.0
 10
2.580699848614727
 20
5.945741136199264
 30
0.0
 10
2.577781905687993
 20
5.944942729627602
 30
0.0
 10
2.576343114002428
 20
5.944352024918932
 30
0.0
 10
2.572097471871363
 20
5.94200112573485
 30
0.0
 10
2.569452782681603
 20
5.939709306586471
 30
0.0
 10
2.56603589102314
 20
5.935342227382034
 30
0.0
 10
2.565015764283268
 20
5.933767215446248
 30
0.0
 10
2.563216037342209
 20
5.930386251807423
 30
0.0
 10
2.562429995471306
 20
5.928558184404888
 30
0.0
 10
2.561166965327513
 20
5.924777070719591
 30
0.0
 10
2.560686952776038
 20
5.922829320193124
 30
0.0
 10
2.560035975540403
 20
5.918819398065219
 30
0.0
 10
2.559868699682677
 20
5.916746304711982
 30
0.0
 10
2.559866784997264
 20
5.910623961046844
 30
0.0
 10
2.56053646345297
 20
5.906506577030179
 30
0.0
 10
2.563043742740778
 20
5.898982427019331
 30
0.0
 10
2.56490227776106
 20
5.895500680286741
 30
0.0
 10
2.568278060121836
 20
5.891175644403961
 30
0.0
 10
2.569522390501461
 20
5.889855830517721
 30
0.0
 10
2.57211779909641
 20
5.887588013563766
 30
0.0
 10
2.5734759637046
 20
5.88662628782588
 30
0.0
 10
2.577720275668521
 20
5.884265191324586
 30
0.0
 10
2.580678145795841
 20
5.883447029928148
 30
0.0
 10
2.58506049446323
 20
5.883441767167107
 30
0.0
 10
2.586476008741394
 20
5.883642829328178
 30
0.0
 10
2.589222362745681
 20
5.884434917226608
 30
0.0
 10
2.5905671284272
 20
5.885036144818636
 30
0.0
 10
2.593088923959072
 20
5.886601363784161
 30
0.0
 10
2.594267612633336
 20
5.887559644844431
 30
0.0
 10
2.596472092817498
 20
5.889826011476264
 30
0.0
 10
2.59749798335481
 20
5.891141924634024
 30
0.0
 10
2.600229345512724
 20
5.895454743996482
 30
0.0
 10
2.60166107175475
 20
5.898935096458589
 30
0.0
 10
2.60356471358609
 20
5.90645044404492
 30
0.0
 10
2.604062233399863
 20
5.910558304360745
 30
0.0
 10
2.604062233399862
 20
5.91469351015107
 30
0.0
  0
SPLINE
  5
11E
330
1F
100
AcDbEntity
  8
0
  6
Continuous
 62
   144
370
    18
100
AcDbSpline
210
0.0
220
0.0
230
1.0
 70
     8
 71
     3
 72
    14
 73
    10
 74
     0
 42
0.000000001
 43
0.00000001
 40
0.0
 40
0.0
 40
0.0
 40
0.0
 40
0.149029494112684
 40
0.2980858230528825
 40
0.4462126562144111
 40
0.5928733014984824
 40
0.7400400337096528
 40
0.88888461848653
 40
0.9999999999999999
 40
0.9999999999999999
 40
0.9999999999999999
 40
0.9999999999999999
 10
2.586519205115314
 20
5.889693510151071
 30
0.0
 10
2.588159893776972
 20
5.892080796396514
 30
0.0
 10
2.591441566529039
 20
5.8968557987514
 30
0.0
 10
2.593964981937769
 20
5.906787680494773
 30
0.0
 10
2.594507777955597
 20
5.917368252111828
 30
0.0
 10
2.592939253336916
 20
5.927674411063571
 30
0.0
 10
2.589350099772306
 20
5.936411399333103
 30
0.0
 10
2.584506237991142
 20
5.94262205152829
 30
0.0
 10
2.580447132584003
 20
5.944151527086786
 30
0.0
 10
2.578712138337181
 20
5.94480527490274
 30
0.0
  0
SPLINE
  5
11F
330
1F
100
AcDbEntity
  8
0
  6
Continuous
 62
   144
370
    18
100
AcDbSpline
210
0.0
220
0.0
230
1.0
 70
     8
 71
     3
 72
     9
 73
     5
 74
     0
 42
0.000000001
 43
0.00000001
 40
0.0
 40
0.0
 40
0.0
 40
0.0
 40
0.4226220959289542
 40
1.0
 40
1.0
 40
1.0
 40
1.0
 10
2.576890476823221
 20
5.88505305608271
 30
0.0
 10
2.578234431844882
 20
5.885493825229233
 30
0.0
 10
2.581414471494031
 20
5.886536764419511
 30
0.0
 10
2.584650686232495
 20
5.888538025958304
 30
0.0
 10
2.586519205115314
 20
5.889693510151071
 30
0.0
  0
LINE
  5
120
330
1F
100
AcDbEntity
  8
0
  6
Continuous
 62
   144
370
    18
100
AcDbLine
 10
2.5118487462
 20
5.0771935102
 30
0.0
 11
2.3413760551
 21
5.0771935102
 31
0.0
  0
LINE
  5
121
330
1F
100
AcDbEntity
  8
0
  6
Continuous
 62
   144
370
    18
100
AcDbLine
 10
2.5288760551
 20
5.0771935102
 30
0.0
 11
2.5118487462
 21
5.0771935102
 31
0.0
  0
SPLINE
  5
122
330
1F
100
AcDbEntity
  8
0
  6
Continuous
 62
     7
370
    25
100
AcDbSpline
210
0.0
220
0.0
230
1.0
 70
     8
 71
     3
 72
    20
 73
    16
 74
     0
 42
0.000000001
 43
0.00000001
 40
0.0
 40
0.0
 40
0.0
 40
0.0
 40
0.048920219514369
 40
0.1306703505174105
 40
0.2518166269453277
 40
0.3128541932959855
 40
0.3759690729902582
 40
0.4633850846937245
 40
0.5511102271015971
 40
0.6325065883290533
 40
0.7194970662963569
 40
0.8224106526243499
 40
0.9203296398950447
 40
0.9936544822342671
 40
1.0
 40
1.0
 40
1.0
 40
1.0
 10
2.377906696664402
 20
6.709401489932366
 30
0.0
 10
2.377949276217698
 20
6.70933956123371
 30
0.0
 10
2.378063010072723
 20
6.709174144053641
 30
0.0
 10
2.382908497596774
 20
6.703095563401038
 30
0.0
 10
2.391268650066472
 20
6.695324572762952
 30
0.0
 10
2.401982845717453
 20
6.688593107986249
 30
0.0
 10
2.412840555738918
 20
6.683652030381237
 30
0.0
 10
2.427141337423527
 20
6.679974276365335
 30
0.0
 10
2.443720068128723
 20
6.679554785815804
 30
0.0
 10
2.459217598885816
 20
6.682575166189957
 30
0.0
 10
2.473072331269217
 20
6.688276204942337
 30
0.0
 10
2.484309971132626
 20
6.695852390059844
 30
0.0
 10
2.490640033729123
 20
6.701801453731429
 30
0.0
 10
2.493079875295201
 20
6.704461757997068
 30
0.0
 10
2.492537443743237
 20
6.703889417877032
 30
0.0
 10
2.492494240611669
 20
6.703843832613015
 30
0.0
  0
LINE
  5
123
330
1F
100
AcDbEntity
  8
0
  6
Continuous
 62
     7
370
    25
100
AcDbLine
 10
2.2476260551
 20
4.5511935102
 30
0.0
 11
2.4351260551
 21
4.5511935102
 31
0.0
  0
LINE
  5
124
330
1F
100
AcDbEntity
  8
0
  6
Continuous
 62
     7
370
    25
100
AcDbLine
 10
2.4351260551
 20
4.5261935102
 30
0.0
 11
2.4351260551
 21
4.5511935102
 31
0.0
  0
LINE
  5
125
330
1F
100
AcDbEntity
  8
0
  6
Continuous
 62
     7
370
    25
100
AcDbLine
 10
2.4351260551
 20
4.5261935102
 30
0.0
 11
2.2726260551
 21
4.5261935102
 31
0.0
  0
ARC
  5
126
330
1F
100
AcDbEntity
  8
0
  6
Continuous
 62
     7
370
    25
100
AcDbCircle
 10
2.2726260551
 20
4.5511935102
 30
0.0
 40
0.0250000000000004
100
AcDbArc
 50
180.0
 51
270.0
  0
LINE
  5
127
330
1F
100
AcDbEntity
  8
0
  6
Continuous
 62
     7
370
    25
100
AcDbLine
 10
2.5976260551
 20
4.5261935102
 30
0.0
 11
2.4351260551
 21
4.5261935102
 31
0.0
  0
LINE
  5
128
330
1F
100
AcDbEntity
  8
0
  6
Continuous
 62
     7
370
    25
100
AcDbLine
 10
2.4351260551
 20
4.5511935102
 30
0.0
 11
2.6226260551
 21
4.5511935102
 31
0.0
  0
ARC
  5
129
330
1F
100
AcDbEntity
  8
0
  6
Continuous
 62
     7
370
    25
100
AcDbCircle
 10
2.5976260551
 20
4.5511935102
 30
0.0
 40
0.0250000000000004
100
AcDbArc
 50
270.0
 51
0.0
  0
LWPOLYLINE
  5
12A
330
1F
100
AcDbEntity
  8
0
  6
Continuous
 62
     7
370
    25
100
AcDbPolyline
 90
        9
 70
   128
 43
0.0
 10
2.4444385823
 20
4.8711935102
 10
2.4468772113
 20
4.8707131422
 10
2.4492221252
 20
4.8692904985
 10
2.4513832102
 20
4.8669802505
 10
2.453277417
 20
4.8638711797
 10
2.4548319524
 20
4.860082766
 10
2.4559870764
 20
4.855760596
 10
2.4566983983
 20
4.8510707682
 10
2.4569385823
 20
4.8461935102
  0
LINE
  5
12B
330
1F
100
AcDbEntity
  8
0
  6
Continuous
 62
     7
370
    25
100
AcDbLine
 10
2.4569385823
 20
4.8461935102
 30
0.0
 11
2.4351260551
 21
4.8461935102
 31
0.0
  0
LINE
  5
12C
330
1F
100
AcDbEntity
  8
0
  6
Continuous
 62
     7
370
    25
100
AcDbLine
 10
2.4351260551
 20
4.8711935102
 30
0.0
 11
2.4351260551
 21
4.8461935102
 31
0.0
  0
LINE
  5
12D
330
1F
100
AcDbEntity
  8
0
  6
Continuous
 62
   144
370
    18
100
AcDbLine
 10
2.4351260551
 20
4.8711935102
 30
0.0
 11
2.4444385823
 21
4.8711935102
 31
0.0
  0
LINE
  5
12E
330
1F
100
AcDbEntity
  8
0
  6
Continuous
 62
     7
370
    25
100
AcDbLine
 10
2.4351260551
 20
4.8461935102
 30
0.0
 11
2.413313528
 21
4.8461935102
 31
0.0
  0
LWPOLYLINE
  5
12F
330
1F
100
AcDbEntity
  8
0
  6
Continuous
 62
     7
370
    25
100
AcDbPolyline
 90
        9
 70
   128
 43
0.0
 10
2.425813528
 20
4.8711935102
 10
2.423374899
 20
4.8707131422
 10
2.4210299851
 20
4.8692904985
 10
2.4188689001
 20
4.8669802505
 10
2.4169746932
 20
4.8638711797
 10
2.4154201578
 20
4.860082766
 10
2.4142650338
 20
4.855760596
 10
2.413553712
 20
4.8510707682
 10
2.413313528
 20
4.8461935102
  0
LINE
  5
130
330
1F
100
AcDbEntity
  8
0
  6
Continuous
 62
   144
370
    18
100
AcDbLine
 10
2.425813528
 20
4.8711935102
 30
0.0
 11
2.4351260551
 21
4.8711935102
 31
0.0
  0
SPLINE
  5
131
330
1F
100
AcDbEntity
  8
0
  6
Continuous
 62
     7
370
    25
100
AcDbSpline
210
0.0
220
0.0
230
1.0
 70
     8
 71
     3
 72
    18
 73
    14
 74
     0
 42
0.000000001
 43
0.00000001
 40
0.0
 40
0.0
 40
0.0
 40
0.0
 40
0.125
 40
0.125
 40
0.25
 40
0.25
 40
0.5000000000000004
 40
0.5000000000000004
 40
0.6250000000000003
 40
0.6250000000000003
 40
0.7500000000000002
 40
0.7500000000000002
 40
1.0
 40
1.0
 40
1.0
 40
1.0
 10
2.600813527982338
 20
4.846193510151071
 30
0.0
 10
2.594788796876268
 20
4.846193510151071
 30
0.0
 10
2.588778777024922
 20
4.846785188166524
 30
0.0
 10
2.576848413561492
 20
4.84856135332231
 30
0.0
 10
2.570921786840271
 20
4.849755154703882
 30
0.0
 10
2.553155411455669
 20
4.853475327943858
 30
0.0
 10
2.541323759097202
 20
4.856135460396443
 30
0.0
 10
2.523303025102396
 20
4.856220990475028
 30
0.0
 10
2.517225615818646
 20
4.85560751609344
 30
0.0
 10
2.505159043595813
 20
4.853644437472569
 30
0.0
 10
2.499171651088617
 20
4.852341322891448
 30
0.0
 10
2.481189730121847
 20
4.848570320946178
 30
0.0
 10
2.469134458050016
 20
4.846193510151071
 30
0.0
 10
2.456938582282957
 20
4.846193510151071
 30
0.0
  0
LINE
  5
132
330
1F
100
AcDbEntity
  8
0
  6
Continuous
 62
     7
370
    25
100
AcDbLine
 10
2.6226260551
 20
4.8461935102
 30
0.0
 11
2.600813528
 21
4.8461935102
 31
0.0
  0
LINE
  5
133
330
1F
100
AcDbEntity
  8
0
  6
Continuous
 62
     7
370
    25
100
AcDbLine
 10
2.6226260551
 20
4.8461935102
 30
0.0
 11
2.6226260551
 21
4.5511935102
 31
0.0
  0
LINE
  5
134
330
1F
100
AcDbEntity
  8
0
  6
Continuous
 62
     7
370
    25
100
AcDbLine
 10
2.4351260551
 20
4.8461935102
 30
0.0
 11
2.4351260551
 21
4.5511935102
 31
0.0
  0
LINE
  5
135
330
1F
100
AcDbEntity
  8
0
  6
Continuous
 62
     7
370
    25
100
AcDbLine
 10
2.2694385823
 20
4.8461935102
 30
0.0
 11
2.2476260551
 21
4.8461935102
 31
0.0
  0
SPLINE
  5
136
330
1F
100
AcDbEntity
  8
0
  6
Continuous
 62
     7
370
    25
100
AcDbSpline
210
0.0
220
0.0
230
1.0
 70
     8
 71
     3
 72
    18
 73
    14
 74
     0
 42
0.000000001
 43
0.00000001
 40
0.0
 40
0.0
 40
0.0
 40
0.0
 40
0.1249999999999999
 40
0.1249999999999999
 40
0.2499999999999997
 40
0.2499999999999997
 40
0.4999999999999999
 40
0.4999999999999999
 40
0.625
 40
0.625
 40
0.75
 40
0.75
 40
1.0
 40
1.0
 40
1.0
 40
1.0
 10
2.413313527982338
 20
4.846193510151071
 30
0.0
 10
2.407288796876268
 20
4.846193510151071
 30
0.0
 10
2.401278777024922
 20
4.846785188166524
 30
0.0
 10
2.389348413561491
 20
4.84856135332231
 30
0.0
 10
2.38342178684027
 20
4.849755154703882
 30
0.0
 10
2.365655411455669
 20
4.853475327943858
 30
0.0
 10
2.353823759097202
 20
4.856135460396443
 30
0.0
 10
2.335803025102397
 20
4.856220990475028
 30
0.0
 10
2.329725615818647
 20
4.85560751609344
 30
0.0
 10
2.317659043595813
 20
4.853644437472569
 30
0.0
 10
2.311671651088617
 20
4.852341322891448
 30
0.0
 10
2.293689730121846
 20
4.848570320946178
 30
0.0
 10
2.281634458050016
 20
4.846193510151071
 30
0.0
 10
2.269438582282957
 20
4.846193510151071
 30
0.0
  0
LINE
  5
137
330
1F
100
AcDbEntity
  8
0
  6
Continuous
 62
     7
370
    25
100
AcDbLine
 10
2.2476260551
 20
4.8461935102
 30
0.0
 11
2.2476260551
 21
4.5511935102
 31
0.0
  0
LINE
  5
138
330
1F
100
AcDbEntity
  8
0
  6
Continuous
 62
     7
370
    25
100
AcDbLine
 10
2.4444385823
 20
4.8711935102
 30
0.0
 11
2.588313528
 21
4.8711935102
 31
0.0
  0
LWPOLYLINE
  5
139
330
1F
100
AcDbEntity
  8
0
  6
Continuous
 62
     7
370
    25
100
AcDbPolyline
 90
        9
 70
   128
 43
0.0
 10
2.588313528
 20
4.8711935102
 10
2.590752157
 20
4.8707131422
 10
2.5930970709
 20
4.8692904985
 10
2.5952581559
 20
4.8669802505
 10
2.5971523627
 20
4.8638711797
 10
2.5987068981
 20
4.860082766
 10
2.5998620221
 20
4.855760596
 10
2.600573344
 20
4.8510707682
 10
2.600813528
 20
4.8461935102
  0
LINE
  5
13A
330
1F
100
AcDbEntity
  8
0
  6
Continuous
 62
     7
370
    25
100
AcDbLine
 10
2.2819385823
 20
4.8711935102
 30
0.0
 11
2.425813528
 21
4.8711935102
 31
0.0
  0
LWPOLYLINE
  5
13B
330
1F
100
AcDbEntity
  8
0
  6
Continuous
 62
     7
370
    25
100
AcDbPolyline
 90
        9
 70
   128
 43
0.0
 10
2.2819385823
 20
4.8711935102
 10
2.2794999533
 20
4.8707131422
 10
2.2771550394
 20
4.8692904985
 10
2.2749939544
 20
4.8669802505
 10
2.2730997475
 20
4.8638711797
 10
2.2715452121
 20
4.860082766
 10
2.2703900881
 20
4.855760596
 10
2.2696787663
 20
4.8510707682
 10
2.2694385823
 20
4.8461935102
  0
LINE
  5
13C
330
1F
100
AcDbEntity
  8
0
  6
Continuous
 62
     7
370
    25
100
AcDbLine
 10
2.4351260551
 20
4.9311935102
 30
0.0
 11
2.6176260551
 21
4.9311935102
 31
0.0
  0
LINE
  5
13D
330
1F
100
AcDbEntity
  8
0
  6
Continuous
 62
     7
370
    25
100
AcDbLine
 10
2.2526260551
 20
4.9311935102
 30
0.0
 11
2.4351260551
 21
4.9311935102
 31
0.0
  0
LINE
  5
13E
330
1F
100
AcDbEntity
  8
0
  6
Continuous
 62
     7
370
    25
100
AcDbLine
 10
2.2526260551
 20
4.8711935102
 30
0.0
 11
2.2726260551
 21
4.8711935102
 31
0.0
  0
LINE
  5
13F
330
1F
100
AcDbEntity
  8
0
  6
Continuous
 62
     7
370
    25
100
AcDbLine
 10
2.5976260551
 20
4.8711935102
 30
0.0
 11
2.6176260551
 21
4.8711935102
 31
0.0
  0
LINE
  5
140
330
1F
100
AcDbEntity
  8
0
  6
Continuous
 62
     7
370
    25
100
AcDbLine
 10
2.2726260551
 20
4.8711935102
 30
0.0
 11
2.2819385823
 21
4.8711935102
 31
0.0
  0
ARC
  5
141
330
1F
100
AcDbEntity
  8
0
  6
Continuous
 62
     7
370
    25
100
AcDbCircle
 10
2.2726260551
 20
4.8461935102
 30
0.0
 40
0.0250000000000004
100
AcDbArc
 50
90.0
 51
180.0
  0
LINE
  5
142
330
1F
100
AcDbEntity
  8
0
  6
Continuous
 62
     7
370
    25
100
AcDbLine
 10
2.588313528
 20
4.8711935102
 30
0.0
 11
2.5976260551
 21
4.8711935102
 31
0.0
  0
ARC
  5
143
330
1F
100
AcDbEntity
  8
0
  6
Continuous
 62
     7
370
    25
100
AcDbCircle
 10
2.5976260551
 20
4.8461935102
 30
0.0
 40
0.0250000000000004
100
AcDbArc
 50
0.0
 51
90.0
  0
LINE
  5
144
330
1F
100
AcDbEntity
  8
0
  6
Continuous
 62
     7
370
    25
100
AcDbLine
 10
2.4351260551
 20
6.0546935102
 30
0.0
 11
2.2251260551
 21
6.0546935102
 31
0.0
  0
LINE
  5
145
330
1F
100
AcDbEntity
  8
0
  6
Continuous
 62
     7
370
    25
100
AcDbLine
 10
2.6451260551
 20
6.0546935102
 30
0.0
 11
2.4351260551
 21
6.0546935102
 31
0.0
  0
LINE
  5
146
330
1F
100
AcDbEntity
  8
0
  6
Continuous
 62
     7
370
    25
100
AcDbLine
 10
2.4351260551
 20
6.1296935102
 30
0.0
 11
2.2251260551
 21
6.1296935102
 31
0.0
  0
LINE
  5
147
330
1F
100
AcDbEntity
  8
0
  6
Continuous
 62
     7
370
    25
100
AcDbLine
 10
2.6451260551
 20
6.1296935102
 30
0.0
 11
2.4351260551
 21
6.1296935102
 31
0.0
  0
SPLINE
  5
148
330
1F
100
AcDbEntity
  8
0
  6
Continuous
 62
     7
370
    25
100
AcDbSpline
210
0.0
220
0.0
230
1.0
 70
    11
 71
     3
 72
    38
 73
    34
 74
     0
 42
0.000000001
 43
0.00000001
 40
0.0
 40
0.0
 40
0.0
 40
0.0
 40
0.0625
 40
0.0625
 40
0.125
 40
0.125
 40
0.1875
 40
0.1875
 40
0.25
 40
0.25
 40
0.3125
 40
0.3125
 40
0.375
 40
0.375
 40
0.4375
 40
0.4375
 40
0.5
 40
0.5
 40
0.5625
 40
0.5625
 40
0.625
 40
0.625
 40
0.6875
 40
0.6875
 40
0.75
 40
0.75
 40
0.8125
 40
0.8125
 40
0.875
 40
0.875
 40
0.9375
 40
0.9375
 40
1.0
 40
1.0
 40
1.0
 40
1.0
 10
2.435126055132649
 20
5.959943510151071
 30
0.0
 10
2.432183587111305
 20
5.959943510151071
 30
0.0
 10
2.429296405692311
 20
5.960523644261527
 30
0.0
 10
2.423908560824902
 20
5.962758085748098
 30
0.0
 10
2.421441802514659
 20
5.964411073256874
 30
0.0
 10
2.417340696462621
 20
5.968513055166404
 30
0.0
 10
2.415683360545773
 20
5.970993456764986
 30
0.0
 10
2.413463257801432
 20
5.976346905971178
 30
0.0
 10
2.41287766093079
 20
5.979276511191071
 30
0.0
 10
2.412874456105754
 20
5.985085960365039
 30
0.0
 10
2.413450836667829
 20
5.988003411414544
 30
0.0
 10
2.415680733901827
 20
5.993393935608129
 30
0.0
 10
2.417310813516552
 20
5.995842819195875
 30
0.0
 10
2.421462178926673
 20
5.999997581546914
 30
0.0
 10
2.423908941358976
 20
6.00162914038019
 30
0.0
 10
2.4292966502922
 20
6.003863429463813
 30
0.0
 10
2.432212577953945
 20
6.004442428470186
 30
0.0
 10
2.438022987397274
 20
6.004444588756289
 30
0.0
 10
2.440952697749293
 20
6.003861792946157
 30
0.0
 10
2.44630960451605
 20
6.001645822781167
 30
0.0
 10
2.448791041890925
 20
5.99999083967445
 30
0.0
 10
2.45289722909845
 20
5.995892494680767
 30
0.0
 10
2.454551638506206
 20
5.993427991093017
 30
0.0
 10
2.456790697294729
 20
5.988042452912542
 30
0.0
 10
2.457373319046262
 20
5.985155911005948
 30
0.0
 10
2.457378772105976
 20
5.979272353227532
 30
0.0
 10
2.456801302752866
 20
5.976383742294281
 30
0.0
 10
2.454571487485603
 20
5.970993290396343
 30
0.0
 10
2.452920727004514
 20
5.968525159378942
 30
0.0
 10
2.448822323659972
 20
5.964420317182874
 30
0.0
 10
2.446343394982097
 20
5.962760779776259
 30
0.0
 10
2.440991870248812
 20
5.960535903262471
 30
0.0
 10
2.438068523153992
 20
5.959943510151072
 30
0.0
 10
2.435126055132649
 20
5.959943510151071
 30
0.0
  0
LINE
  5
149
330
1F
100
AcDbEntity
  8
0
  6
Continuous
 62
     7
370
    25
100
AcDbLine
 10
2.5890169078
 20
5.8984435102
 30
0.0
 11
2.5642248712
 21
5.8984435102
 31
0.0
  0
SPLINE
  5
14A
330
1F
100
AcDbEntity
  8
0
  6
Continuous
 62
     7
370
    25
100
AcDbSpline
210
0.0
220
0.0
230
1.0
 70
     8
 71
     3
 72
    14
 73
    10
 74
     0
 42
0.000000001
 43
0.00000001
 40
0.0
 40
0.0
 40
0.0
 40
0.0
 40
0.0635320106421319
 40
0.2389687289074778
 40
0.4133773837189972
 40
0.5882933057152976
 40
0.7644721495755772
 40
0.940719108835709
 40
1.0
 40
1.0
 40
1.0
 40
1.0
 10
2.566410351728934
 20
5.935401723062858
 30
0.0
 10
2.567097007943833
 20
5.935827623008422
 30
0.0
 10
2.569679790405968
 20
5.93742959920285
 30
0.0
 10
2.574537081583028
 20
5.937401287383732
 30
0.0
 10
2.580075889690228
 20
5.935191241688822
 30
0.0
 10
2.584621324293401
 20
5.930249332478623
 30
0.0
 10
2.587729886457881
 20
5.923317002243107
 30
0.0
 10
2.588916091508684
 20
5.916886917604531
 30
0.0
 10
2.58899663537307
 20
5.913137272452484
 30
0.0
 10
2.589016907761452
 20
5.912193510151071
 30
0.0
  0
LINE
  5
14B
330
1F
100
AcDbEntity
  8
0
  6
Continuous
 62
   144
370
    18
100
AcDbLine
 10
2.5890169078
 20
5.9121935102
 30
0.0
 11
2.5890169078
 21
5.8984435102
 31
0.0
  0
LINE
  5
14C
330
1F
100
AcDbEntity
  8
0
  6
Continuous
 62
   144
370
    18
100
AcDbLine
 10
2.5890169078
 20
5.8984435102
 30
0.0
 11
2.5917086604
 21
5.8984435102
 31
0.0
  0
ARC
  5
14D
330
1F
100
AcDbEntity
  8
0
  6
Continuous
 62
   144
370
    18
100
AcDbCircle
 10
2.5345413795
 20
5.9127064746
 30
0.0
 40
0.0314036199591158
100
AcDbArc
 50
359.0640568236
 51
27.7516526067
  0
LINE
  5
14E
330
1F
100
AcDbEntity
  8
0
  6
Continuous
 62
   144
370
    18
100
AcDbLine
 10
2.5890169078
 20
5.9121935102
 30
0.0
 11
2.5659408097
 21
5.9121935102
 31
0.0
  0
LINE
  5
14F
330
1F
100
AcDbEntity
  8
0
  6
Continuous
 62
   144
370
    18
100
AcDbLine
 10
2.5874358744
 20
5.8896935102
 30
0.0
 11
2.5703301337
 21
5.8896935102
 31
0.0
  0
LINE
  5
150
330
1F
100
AcDbEntity
  8
0
  6
Continuous
 62
     7
370
    25
100
AcDbLine
 10
2.4351260551
 20
5.1646935102
 30
0.0
 11
2.2301260551
 21
5.1646935102
 31
0.0
  0
LINE
  5
151
330
1F
100
AcDbEntity
  8
0
  6
Continuous
 62
     7
370
    25
100
AcDbLine
 10
2.6401260551
 20
5.1646935102
 30
0.0
 11
2.4351260551
 21
5.1646935102
 31
0.0
  0
LINE
  5
152
330
1F
100
AcDbEntity
  8
0
  6
Continuous
 62
     7
370
    25
100
AcDbLine
 10
2.4351260551
 20
5.0771935102
 30
0.0
 11
2.5288760551
 21
5.0771935102
 31
0.0
  0
LINE
  5
153
330
1F
100
AcDbEntity
  8
0
  6
Continuous
 62
     7
370
    25
100
AcDbLine
 10
2.3413760551
 20
5.0771935102
 30
0.0
 11
2.4351260551
 21
5.0771935102
 31
0.0
  0
LINE
  5
154
330
1F
100
AcDbEntity
  8
0
  6
Continuous
 62
     8
370
    25
100
AcDbLine
 10
2.4351260551
 20
6.4548818904
 30
0.0
 11
2.3001260551
 21
6.4548818904
 31
0.0
  0
LINE
  5
155
330
1F
100
AcDbEntity
  8
0
  6
Continuous
 62
     8
370
    25
100
AcDbLine
 10
2.5701260551
 20
6.4548818904
 30
0.0
 11
2.4351260551
 21
6.4548818904
 31
0.0
  0
LINE
  5
156
330
1F
100
AcDbEntity
  8
0
  6
Continuous
 62
     8
370
    25
100
AcDbLine
 10
2.4201260551
 20
7.3251163174
 30
0.0
 11
2.4501260551
 21
7.3251163174
 31
0.0
  0
ARC
  5
157
330
1F
100
AcDbEntity
  8
0
  6
Continuous
 62
     8
370
    25
100
AcDbCircle
 10
2.4351558945
 20
7.2479547008
 30
0.0
 40
0.0430387576202431
100
AcDbArc
 50
69.6464710486
 51
110.4393931891
  0
LINE
  5
158
330
1F
100
AcDbEntity
  8
0
  6
Continuous
 62
     8
370
    25
100
AcDbLine
 10
2.4351260551
 20
5.2646935102
 30
0.0
 11
2.2251260551
 21
5.2646935102
 31
0.0
  0
LINE
  5
159
330
1F
100
AcDbEntity
  8
0
  6
Continuous
 62
     8
370
    25
100
AcDbLine
 10
2.6451260551
 20
5.2646935102
 30
0.0
 11
2.4351260551
 21
5.2646935102
 31
0.0
  0
LINE
  5
15A
330
1F
100
AcDbEntity
  8
0
  6
Continuous
 62
     8
370
    25
100
AcDbLine
 10
2.4351260551
 20
5.1696935102
 30
0.0
 11
2.6451260551
 21
5.1696935102
 31
0.0
  0
LINE
  5
15B
330
1F
100
AcDbEntity
  8
0
  6
Continuous
 62
     8
370
    25
100
AcDbLine
 10
2.2251260551
 20
5.1696935102
 30
0.0
 11
2.4351260551
 21
5.1696935102
 31
0.0
  0
LINE
  5
15C
330
1F
100
AcDbEntity
  8
0
  6
Continuous
 62
     8
370
    25
100
AcDbLine
 10
2.4351260551
 20
5.1546935102
 30
0.0
 11
2.3413760551
 21
5.1546935102
 31
0.0
  0
LINE
  5
15D
330
1F
100
AcDbEntity
  8
0
  6
Continuous
 62
     8
370
    25
100
AcDbLine
 10
2.5288760551
 20
5.1546935102
 30
0.0
 11
2.4351260551
 21
5.1546935102
 31
0.0
  0
LINE
  5
15E
330
1F
100
AcDbEntity
  8
0
  6
Continuous
 62
     7
370
    25
100
AcDbLine
 10
4.490548095
 20
6.2868818904
 30
0.0
 11
4.490548095
 21
6.3468818904
 31
0.0
  0
LINE
  5
15F
330
1F
100
AcDbEntity
  8
0
  6
Continuous
 62
     7
370
    25
100
AcDbLine
 10
4.220548095
 20
6.3468818904
 30
0.0
 11
4.220548095
 21
6.2868818904
 31
0.0
  0
ARC
  5
160
330
1F
100
AcDbEntity
  8
0
  6
Continuous
 62
     7
370
    25
100
AcDbCircle
 10
4.245548095
 20
6.4548818904
 30
0.0
 40
0.0249999999999995
100
AcDbArc
 50
90.0
 51
180.0
  0
ARC
  5
161
330
1F
100
AcDbEntity
  8
0
  6
Continuous
 62
     7
370
    25
100
AcDbCircle
 10
4.465548095
 20
6.4548818904
 30
0.0
 40
0.0249999999999995
100
AcDbArc
 50
0.0
 51
90.0
  0
LINE
  5
162
330
1F
100
AcDbEntity
  8
0
  6
Continuous
 62
     7
370
    25
100
AcDbLine
 10
4.490548095
 20
6.4048818904
 30
0.0
 11
4.490548095
 21
6.4548818904
 31
0.0
  0
LINE
  5
163
330
1F
100
AcDbEntity
  8
0
  6
Continuous
 62
     7
370
    25
100
AcDbLine
 10
4.220548095
 20
6.4548818904
 30
0.0
 11
4.220548095
 21
6.4048818904
 31
0.0
  0
LINE
  5
164
330
1F
100
AcDbEntity
  8
0
  6
Continuous
 62
     7
370
    25
100
AcDbLine
 10
4.476798095
 20
6.2168818904
 30
0.0
 11
4.476798095
 21
6.2868818904
 31
0.0
  0
LINE
  5
165
330
1F
100
AcDbEntity
  8
0
  6
Continuous
 62
     7
370
    25
100
AcDbLine
 10
4.234298095
 20
6.2868818904
 30
0.0
 11
4.234298095
 21
6.2168818904
 31
0.0
  0
LINE
  5
166
330
1F
100
AcDbEntity
  8
0
  6
Continuous
 62
     7
370
    25
100
AcDbLine
 10
4.2119332728
 20
6.2168818904
 30
0.0
 11
4.2119332728
 21
6.1588818904
 31
0.0
  0
LINE
  5
167
330
1F
100
AcDbEntity
  8
0
  6
Continuous
 62
     7
370
    25
100
AcDbLine
 10
4.2119332728
 20
6.4048818904
 30
0.0
 11
4.2119332728
 21
6.3468818904
 31
0.0
  0
LINE
  5
168
330
1F
100
AcDbEntity
  8
0
  6
Continuous
 62
     7
370
    25
100
AcDbLine
 10
4.285548095
 20
6.1588818904
 30
0.0
 11
4.285548095
 21
6.1571935102
 31
0.0
  0
LINE
  5
169
330
1F
100
AcDbEntity
  8
0
  6
Continuous
 62
     7
370
    25
100
AcDbLine
 10
4.425548095
 20
6.1571935102
 30
0.0
 11
4.425548095
 21
6.1588818904
 31
0.0
  0
LINE
  5
16A
330
1F
100
AcDbEntity
  8
0
  6
Continuous
 62
     7
370
    25
100
AcDbLine
 10
4.4991629171
 20
6.3468818904
 30
0.0
 11
4.4991629171
 21
6.4048818904
 31
0.0
  0
LINE
  5
16B
330
1F
100
AcDbEntity
  8
0
  6
Continuous
 62
     7
370
    25
100
AcDbLine
 10
4.4991629171
 20
6.1588818904
 30
0.0
 11
4.4991629171
 21
6.2168818904
 31
0.0
  0
LINE
  5
16C
330
1F
100
AcDbEntity
  8
0
  6
Continuous
 62
     7
370
    25
100
AcDbLine
 10
4.2522016383
 20
7.7826305586
 30
0.0
 11
4.2522016383
 21
7.5916856767
 31
0.0
  0
LINE
  5
16D
330
1F
100
AcDbEntity
  8
0
  6
Continuous
 62
     7
370
    25
100
AcDbLine
 10
4.3818866777
 20
7.4164888263
 30
0.0
 11
4.3738978773
 21
7.3628566785
 31
0.0
  0
LINE
  5
16E
330
1F
100
AcDbEntity
  8
0
  6
Continuous
 62
     7
370
    25
100
AcDbLine
 10
4.4038941149
 20
7.3628314205
 30
0.0
 11
4.4118859138
 21
7.4164836981
 31
0.0
  0
SPLINE
  5
16F
330
1F
100
AcDbEntity
  8
0
  6
Continuous
 62
     7
370
    25
100
AcDbSpline
210
0.0
220
0.0
230
1.0
 70
     8
 71
     3
 72
    12
 73
     8
 74
     0
 42
0.000000001
 43
0.00000001
 40
0.0
 40
0.0
 40
0.0
 40
0.0
 40
0.1796493607953236
 40
0.4061892575632194
 40
0.5833067302288115
 40
0.7812475648536388
 40
1.0
 40
1.0
 40
1.0
 40
1.0
 10
4.373894878813524
 20
7.362836548688812
 30
0.0
 10
4.372964342588848
 20
7.356050000479088
 30
0.0
 10
4.370860389551868
 20
7.340705537428835
 30
0.0
 10
4.368610102248836
 20
7.317430607940556
 30
0.0
 10
4.366928739601462
 20
7.292802626910005
 30
0.0
 10
4.365856106000013
 20
7.268007123106378
 30
0.0
 10
4.365738515707564
 20
7.250431523084671
 30
0.0
 10
4.365676784058197
 20
7.241204819456803
 30
0.0
  0
SPLINE
  5
170
330
1F
100
AcDbEntity
  8
0
  6
Continuous
 62
     7
370
    25
100
AcDbSpline
210
0.0
220
0.0
230
1.0
 70
     8
 71
     3
 72
    11
 73
     7
 74
     0
 42
0.000000001
 43
0.00000001
 40
0.0
 40
0.0
 40
0.0
 40
0.0
 40
0.2733180835850532
 40
0.531104707301979
 40
0.7733375539551506
 40
1.0
 40
1.0
 40
1.0
 40
1.0
 10
4.395419389992127
 20
7.244667869935475
 30
0.0
 10
4.39556083174845
 20
7.255930096651135
 30
0.0
 10
4.395835677750612
 20
7.277814567465992
 30
0.0
 10
4.39771520034943
 20
7.309009128417648
 30
0.0
 10
4.400327484142082
 20
7.337412718696725
 30
0.0
 10
4.402732366548622
 20
7.354551646986404
 30
0.0
 10
4.403894878813524
 20
7.362836548688812
 30
0.0
  0
LINE
  5
171
330
1F
100
AcDbEntity
  8
0
  6
Continuous
 62
     7
370
    25
100
AcDbLine
 10
4.3656767827
 20
7.2412353031
 30
0.0
 11
4.3656767827
 21
7.2289888263
 31
0.0
  0
LINE
  5
172
330
1F
100
AcDbEntity
  8
0
  6
Continuous
 62
     7
370
    25
100
AcDbLine
 10
4.3954194073
 20
7.2289888263
 30
0.0
 11
4.3954194073
 21
7.2446677711
 31
0.0
  0
LINE
  5
173
330
1F
100
AcDbEntity
  8
0
  6
Continuous
 62
     7
370
    25
100
AcDbLine
 10
4.3738978773
 20
7.3628566785
 30
0.0
 11
4.3682809495
 21
7.3251479008
 31
0.0
  0
LINE
  5
174
330
1F
100
AcDbEntity
  8
0
  6
Continuous
 62
     7
370
    25
100
AcDbLine
 10
4.3982743676
 20
7.3251037134
 30
0.0
 11
4.4038941149
 21
7.3628314205
 31
0.0
  0
LINE
  5
175
330
1F
100
AcDbEntity
  8
0
  6
Continuous
 62
     7
370
    25
100
AcDbLine
 10
4.365711784
 20
7.2861058116
 30
0.0
 11
4.365711784
 21
7.2438895253
 31
0.0
  0
LINE
  5
176
330
1F
100
AcDbEntity
  8
0
  6
Continuous
 62
     7
370
    25
100
AcDbLine
 10
4.395384406
 20
7.2615040963
 30
0.0
 11
4.395384406
 21
7.2904810354
 31
0.0
  0
LINE
  5
177
330
1F
100
AcDbEntity
  8
0
  6
Continuous
 62
     7
370
    25
100
AcDbLine
 10
4.368276245
 20
7.3251163174
 30
0.0
 11
4.365711784
 21
7.2860738797
 31
0.0
  0
LINE
  5
178
330
1F
100
AcDbEntity
  8
0
  6
Continuous
 62
     7
370
    25
100
AcDbLine
 10
4.395384406
 20
7.2904937783
 30
0.0
 11
4.398276245
 21
7.3251163174
 31
0.0
  0
LINE
  5
179
330
1F
100
AcDbEntity
  8
0
  6
Continuous
 62
     7
370
    25
100
AcDbLine
 10
4.3371983127
 20
7.3628566785
 30
0.0
 11
4.3292095123
 21
7.4164888263
 31
0.0
  0
LINE
  5
17A
330
1F
100
AcDbEntity
  8
0
  6
Continuous
 62
     7
370
    25
100
AcDbLine
 10
4.2992102762
 20
7.4164836981
 30
0.0
 11
4.307202075
 21
7.3628314205
 31
0.0
  0
SPLINE
  5
17B
330
1F
100
AcDbEntity
  8
0
  6
Continuous
 62
     7
370
    25
100
AcDbSpline
210
0.0
220
0.0
230
1.0
 70
     8
 71
     3
 72
    11
 73
     7
 74
     0
 42
0.000000001
 43
0.00000001
 40
0.0
 40
0.0
 40
0.0
 40
0.0
 40
0.2734840115666917
 40
0.5313025810327436
 40
0.7734710691640247
 40
0.9999999999999999
 40
0.9999999999999999
 40
0.9999999999999999
 40
0.9999999999999999
 10
4.345419405925737
 20
7.241204819456803
 30
0.0
 10
4.345318374954076
 20
7.252743215191804
 30
0.0
 10
4.345122100167479
 20
7.275159075628635
 30
0.0
 10
4.34332100077231
 20
7.307217939158834
 30
0.0
 10
4.340759366691782
 20
7.3364855471452
 30
0.0
 10
4.338360649439651
 20
7.354250475666953
 30
0.0
 10
4.33720131117041
 20
7.362836548688812
 30
0.0
  0
SPLINE
  5
17C
330
1F
100
AcDbEntity
  8
0
  6
Continuous
 62
     7
370
    25
100
AcDbSpline
210
0.0
220
0.0
230
1.0
 70
     8
 71
     3
 72
    12
 73
     8
 74
     0
 42
0.000000001
 43
0.00000001
 40
0.0
 40
0.0
 40
0.0
 40
0.0
 40
0.1797665099957886
 40
0.4063035120929441
 40
0.5833866798346681
 40
0.7812847672073486
 40
1.0
 40
1.0
 40
1.0
 40
1.0
 10
4.307201311170409
 20
7.362836548688812
 30
0.0
 10
4.308133833963465
 20
7.356290480161101
 30
0.0
 10
4.310241497320416
 20
7.341495229180967
 30
0.0
 10
4.312527196617299
 20
7.31892501811836
 30
0.0
 10
4.31426163270434
 20
7.294989564244514
 30
0.0
 10
4.315402359434336
 20
7.270839918128901
 30
0.0
 10
4.315582322370527
 20
7.253677736699111
 30
0.0
 10
4.315676799991807
 20
7.244667869935475
 30
0.0
  0
LINE
  5
17D
330
1F
100
AcDbEntity
  8
0
  6
Continuous
 62
     7
370
    25
100
AcDbLine
 10
4.3454194073
 20
7.2289888263
 30
0.0
 11
4.3454194073
 21
7.2412353031
 31
0.0
  0
LINE
  5
17E
330
1F
100
AcDbEntity
  8
0
  6
Continuous
 62
     7
370
    25
100
AcDbLine
 10
4.3156767827
 20
7.2446677711
 30
0.0
 11
4.3156767827
 21
7.2289888263
 31
0.0
  0
LINE
  5
17F
330
1F
100
AcDbEntity
  8
0
  6
Continuous
 62
     7
370
    25
100
AcDbLine
 10
4.3428152405
 20
7.3251479008
 30
0.0
 11
4.3371983127
 21
7.3628566785
 31
0.0
  0
LINE
  5
180
330
1F
100
AcDbEntity
  8
0
  6
Continuous
 62
     7
370
    25
100
AcDbLine
 10
4.307202075
 20
7.3628314205
 30
0.0
 11
4.3128218224
 21
7.3251037134
 31
0.0
  0
LINE
  5
181
330
1F
100
AcDbEntity
  8
0
  6
Continuous
 62
     7
370
    25
100
AcDbLine
 10
4.345384406
 20
7.2432913393
 30
0.0
 11
4.345384406
 21
7.2861058116
 31
0.0
  0
LINE
  5
182
330
1F
100
AcDbEntity
  8
0
  6
Continuous
 62
     7
370
    25
100
AcDbLine
 10
4.315711784
 20
7.2904810354
 30
0.0
 11
4.315711784
 21
7.2581551542
 31
0.0
  0
LINE
  5
183
330
1F
100
AcDbEntity
  8
0
  6
Continuous
 62
     7
370
    25
100
AcDbLine
 10
4.345384406
 20
7.2860738797
 30
0.0
 11
4.342819945
 21
7.3251163174
 31
0.0
  0
LINE
  5
184
330
1F
100
AcDbEntity
  8
0
  6
Continuous
 62
     7
370
    25
100
AcDbLine
 10
4.312819945
 20
7.3251163174
 30
0.0
 11
4.315711784
 21
7.2904937783
 31
0.0
  0
SPLINE
  5
185
330
1F
100
AcDbEntity
  8
0
  6
Continuous
 62
     7
370
    25
100
AcDbSpline
210
0.0
220
0.0
230
1.0
 70
     8
 71
     3
 72
    19
 73
    15
 74
     0
 42
0.000000001
 43
0.00000001
 40
0.0
 40
0.0
 40
0.0
 40
0.0
 40
0.1829941150965212
 40
0.3413395471444177
 40
0.4746346409553054
 40
0.5828904683298115
 40
0.6662458457687606
 40
0.7168906738752024
 40
0.7618167856265394
 40
0.8083479124227417
 40
0.8445310569042872
 40
0.8854105289667461
 40
0.9395960621125768
 40
1.0
 40
1.0
 40
1.0
 40
1.0
 10
4.418040955201097
 20
6.916208979441314
 30
0.0
 10
4.419186314597717
 20
6.93550676002341
 30
0.0
 10
4.421322757387443
 20
6.971502975974453
 30
0.0
 10
4.423785648103017
 20
7.021587232577112
 30
0.0
 10
4.424598953836443
 20
7.063833767834296
 30
0.0
 10
4.424001234086202
 20
7.098160706493798
 30
0.0
 10
4.422592458564136
 20
7.123719913952788
 30
0.0
 10
4.420973844679159
 20
7.14255482594664
 30
0.0
 10
4.419328053176329
 20
7.157476539601614
 30
0.0
 10
4.417538298096756
 20
7.170845920074351
 30
0.0
 10
4.415443637683505
 20
7.183724737575796
 30
0.0
 10
4.412585967143908
 20
7.197344737829041
 30
0.0
 10
4.408150840258116
 20
7.212572953174425
 30
0.0
 10
4.403366246831668
 20
7.223305907035511
 30
0.0
 10
4.400844127813736
 20
7.22896360553545
 30
0.0
  0
SPLINE
  5
186
330
1F
100
AcDbEntity
  8
0
  6
Continuous
 62
     7
370
    25
100
AcDbSpline
210
0.0
220
0.0
230
1.0
 70
     8
 71
     3
 72
    19
 73
    15
 74
     0
 42
0.000000001
 43
0.00000001
 40
0.0
 40
0.0
 40
0.0
 40
0.0
 40
0.0634233343855397
 40
0.1196987174680844
 40
0.1625187310729435
 40
0.1925631621820988
 40
0.2234018695401547
 40
0.2679321380435328
 40
0.327407969421957
 40
0.4185328124801067
 40
0.5313173656076566
 40
0.6658960984028665
 40
0.822255478177103
 40
1.0
 40
1.0
 40
1.0
 40
1.0
 10
4.31026549092337
 20
7.22895629246355
 30
0.0
 10
4.307549614808337
 20
7.222857149995189
 30
0.0
 10
4.302423947876423
 20
7.211346252023791
 30
0.0
 10
4.297980123770166
 20
7.194919445852995
 30
0.0
 10
4.29530181454622
 20
7.1817060699346
 30
0.0
 10
4.293604390664786
 20
7.170957584641006
 30
0.0
 10
4.292091189435091
 20
7.159938977387311
 30
0.0
 10
4.290437508500218
 20
7.145827856960221
 30
0.0
 10
4.288587820461524
 20
7.125341320423852
 30
0.0
 10
4.287052369619224
 20
7.097619176685004
 30
0.0
 10
4.28649575642861
 20
7.061940793195897
 30
0.0
 10
4.287396402973155
 20
7.019393820403725
 30
0.0
 10
4.289864380411266
 20
6.970057971580615
 30
0.0
 10
4.291947178454966
 20
6.934908584481595
 30
0.0
 10
4.293055234782837
 20
6.916208979441314
 30
0.0
  0
LINE
  5
187
330
1F
100
AcDbEntity
  8
0
  6
Continuous
 62
     7
370
    25
100
AcDbLine
 10
4.298048095
 20
6.9164888263
 30
0.0
 11
4.298048095
 21
6.7919620873
 31
0.0
  0
LINE
  5
188
330
1F
100
AcDbEntity
  8
0
  6
Continuous
 62
     7
370
    25
100
AcDbLine
 10
4.413048095
 20
6.7920186739
 30
0.0
 11
4.413048095
 21
6.9164888263
 31
0.0
  0
LINE
  5
189
330
1F
100
AcDbEntity
  8
0
  6
Continuous
 62
     7
370
    25
100
AcDbLine
 10
4.565548095
 20
6.0100867196
 30
0.0
 11
4.565548095
 21
6.0571935102
 31
0.0
  0
LINE
  5
18A
330
1F
100
AcDbEntity
  8
0
  6
Continuous
 62
     7
370
    25
100
AcDbLine
 10
4.565548095
 20
5.2696935102
 30
0.0
 11
4.565548095
 21
5.9539435102
 31
0.0
  0
LINE
  5
18B
330
1F
100
AcDbEntity
  8
0
  6
Continuous
 62
     7
370
    25
100
AcDbLine
 10
4.145548095
 20
5.9539435102
 30
0.0
 11
4.145548095
 21
5.2696935102
 31
0.0
  0
LINE
  5
18C
330
1F
100
AcDbEntity
  8
0
  6
Continuous
 62
     7
370
    25
100
AcDbLine
 10
4.145548095
 20
6.0571935102
 30
0.0
 11
4.145548095
 21
6.0100867196
 31
0.0
  0
ARC
  5
18D
330
1F
100
AcDbEntity
  8
0
  6
Continuous
 62
     7
370
    25
100
AcDbCircle
 10
4.2328769043
 20
6.1434435102
 30
0.0
 40
0.0137500000000008
100
AcDbArc
 50
90.0
 51
270.0
  0
ARC
  5
18E
330
1F
100
AcDbEntity
  8
0
  6
Continuous
 62
     7
370
    25
100
AcDbCircle
 10
4.4782192857
 20
6.1434435102
 30
0.0
 40
0.0137500000000008
100
AcDbArc
 50
270.0
 51
90.0
  0
LINE
  5
18F
330
1F
100
AcDbEntity
  8
0
  6
Continuous
 62
     7
370
    25
100
AcDbLine
 10
4.4782192857
 20
6.1571935102
 30
0.0
 11
4.2328769043
 21
6.1571935102
 31
0.0
  0
LINE
  5
190
330
1F
100
AcDbEntity
  8
0
  6
Continuous
 62
     7
370
    25
100
AcDbLine
 10
4.261798095
 20
5.0771935102
 30
0.0
 11
4.261798095
 21
4.9311935102
 31
0.0
  0
LINE
  5
191
330
1F
100
AcDbEntity
  8
0
  6
Continuous
 62
     7
370
    25
100
AcDbLine
 10
4.449298095
 20
4.9311935102
 30
0.0
 11
4.449298095
 21
5.0771935102
 31
0.0
  0
LINE
  5
192
330
1F
100
AcDbEntity
  8
0
  6
Continuous
 62
     7
370
    25
100
AcDbLine
 10
4.413048095
 20
6.4798818904
 30
0.0
 11
4.413048095
 21
6.6799207976
 31
0.0
  0
LINE
  5
193
330
1F
100
AcDbEntity
  8
0
  6
Continuous
 62
     7
370
    25
100
AcDbLine
 10
4.298048095
 20
6.6803814553
 30
0.0
 11
4.298048095
 21
6.4798818904
 31
0.0
  0
LINE
  5
194
330
1F
100
AcDbEntity
  8
0
  6
Continuous
 62
     7
370
    25
100
AcDbLine
 10
4.538048095
 20
4.8711935102
 30
0.0
 11
4.538048095
 21
4.9311935102
 31
0.0
  0
LINE
  5
195
330
1F
100
AcDbEntity
  8
0
  6
Continuous
 62
     7
370
    25
100
AcDbLine
 10
4.173048095
 20
4.9311935102
 30
0.0
 11
4.173048095
 21
4.8711935102
 31
0.0
  0
LINE
  5
196
330
1F
100
AcDbEntity
  8
0
  6
Continuous
 62
     7
370
    25
100
AcDbLine
 10
4.145548095
 20
6.1296935102
 30
0.0
 11
4.145548095
 21
6.0546935102
 31
0.0
  0
LINE
  5
197
330
1F
100
AcDbEntity
  8
0
  6
Continuous
 62
     7
370
    25
100
AcDbLine
 10
4.565548095
 20
6.0546935102
 30
0.0
 11
4.565548095
 21
6.1296935102
 31
0.0
  0
ARC
  5
198
330
1F
100
AcDbEntity
  8
0
  6
Continuous
 62
     7
370
    25
100
AcDbCircle
 10
4.150548095
 20
5.1696935102
 30
0.0
 40
0.0049999999999999
100
AcDbArc
 50
180.0
 51
270.0
  0
ARC
  5
199
330
1F
100
AcDbEntity
  8
0
  6
Continuous
 62
     7
370
    25
100
AcDbCircle
 10
4.560548095
 20
5.1696935102
 30
0.0
 40
0.0049999999999999
100
AcDbArc
 50
270.0
 51
0.0
  0
ARC
  5
19A
330
1F
100
AcDbEntity
  8
0
  6
Continuous
 62
     7
370
    25
100
AcDbCircle
 10
4.150548095
 20
5.2646935102
 30
0.0
 40
0.0050000000000008
100
AcDbArc
 50
90.0
 51
180.0
  0
ARC
  5
19B
330
1F
100
AcDbEntity
  8
0
  6
Continuous
 62
     7
370
    25
100
AcDbCircle
 10
4.560548095
 20
5.2646935102
 30
0.0
 40
0.0050000000000008
100
AcDbArc
 50
0.0
 51
90.0
  0
LINE
  5
19C
330
1F
100
AcDbEntity
  8
0
  6
Continuous
 62
     7
370
    25
100
AcDbLine
 10
4.565548095
 20
5.1696935102
 30
0.0
 11
4.565548095
 21
5.2646935102
 31
0.0
  0
LINE
  5
19D
330
1F
100
AcDbEntity
  8
0
  6
Continuous
 62
     7
370
    25
100
AcDbLine
 10
4.145548095
 20
5.2646935102
 30
0.0
 11
4.145548095
 21
5.1696935102
 31
0.0
  0
ARC
  5
19E
330
1F
100
AcDbEntity
  8
0
  6
Continuous
 62
     7
370
    25
100
AcDbCircle
 10
4.251798095
 20
5.1546935102
 30
0.0
 40
0.0099999999999998
100
AcDbArc
 50
0.0
 51
90.0
  0
ARC
  5
19F
330
1F
100
AcDbEntity
  8
0
  6
Continuous
 62
     7
370
    25
100
AcDbCircle
 10
4.459298095
 20
5.1546935102
 30
0.0
 40
0.0100000000000007
100
AcDbArc
 50
90.0
 51
180.0
  0
LINE
  5
1A0
330
1F
100
AcDbEntity
  8
0
  6
Continuous
 62
     7
370
    25
100
AcDbLine
 10
4.449298095
 20
5.0771935102
 30
0.0
 11
4.449298095
 21
5.1546935102
 31
0.0
  0
LINE
  5
1A1
330
1F
100
AcDbEntity
  8
0
  6
Continuous
 62
     7
370
    25
100
AcDbLine
 10
4.261798095
 20
5.1546935102
 30
0.0
 11
4.261798095
 21
5.0771935102
 31
0.0
  0
LINE
  5
1A2
330
1F
100
AcDbEntity
  8
0
  6
Continuous
 62
     7
370
    25
100
AcDbLine
 10
4.327439256
 20
6.2168818904
 30
0.0
 11
4.352305164
 21
6.2168818904
 31
0.0
  0
LINE
  5
1A3
330
1F
100
AcDbEntity
  8
0
  6
Continuous
 62
     7
370
    25
100
AcDbLine
 10
4.2222609067
 20
6.2168818904
 30
0.0
 11
4.327439256
 21
6.2168818904
 31
0.0
  0
LINE
  5
1A4
330
1F
100
AcDbEntity
  8
0
  6
Continuous
 62
     7
370
    25
100
AcDbLine
 10
4.2119332728
 20
6.2168818904
 30
0.0
 11
4.2222609067
 21
6.2168818904
 31
0.0
  0
LINE
  5
1A5
330
1F
100
AcDbEntity
  8
0
  6
Continuous
 62
     7
370
    25
100
AcDbLine
 10
4.4990288251
 20
6.2168818904
 30
0.0
 11
4.4991629171
 21
6.2168818904
 31
0.0
  0
LINE
  5
1A6
330
1F
100
AcDbEntity
  8
0
  6
Continuous
 62
     7
370
    25
100
AcDbLine
 10
4.4855923522
 20
6.2168818904
 30
0.0
 11
4.4990288251
 21
6.2168818904
 31
0.0
  0
LINE
  5
1A7
330
1F
100
AcDbEntity
  8
0
  6
Continuous
 62
     7
370
    25
100
AcDbLine
 10
4.4709199861
 20
6.2168818904
 30
0.0
 11
4.4855923522
 21
6.2168818904
 31
0.0
  0
LINE
  5
1A8
330
1F
100
AcDbEntity
  8
0
  6
Continuous
 62
     7
370
    25
100
AcDbLine
 10
4.352305164
 20
6.2168818904
 30
0.0
 11
4.4709199861
 21
6.2168818904
 31
0.0
  0
LINE
  5
1A9
330
1F
100
AcDbEntity
  8
0
  6
Continuous
 62
     7
370
    25
100
AcDbLine
 10
4.327439256
 20
6.4048818904
 30
0.0
 11
4.352305164
 21
6.4048818904
 31
0.0
  0
LINE
  5
1AA
330
1F
100
AcDbEntity
  8
0
  6
Continuous
 62
     7
370
    25
100
AcDbLine
 10
4.2222609067
 20
6.4048818904
 30
0.0
 11
4.327439256
 21
6.4048818904
 31
0.0
  0
LINE
  5
1AB
330
1F
100
AcDbEntity
  8
0
  6
Continuous
 62
     7
370
    25
100
AcDbLine
 10
4.2119332728
 20
6.4048818904
 30
0.0
 11
4.2222609067
 21
6.4048818904
 31
0.0
  0
LINE
  5
1AC
330
1F
100
AcDbEntity
  8
0
  6
Continuous
 62
     7
370
    25
100
AcDbLine
 10
4.4990288251
 20
6.4048818904
 30
0.0
 11
4.4991629171
 21
6.4048818904
 31
0.0
  0
LINE
  5
1AD
330
1F
100
AcDbEntity
  8
0
  6
Continuous
 62
     7
370
    25
100
AcDbLine
 10
4.4855923522
 20
6.4048818904
 30
0.0
 11
4.4990288251
 21
6.4048818904
 31
0.0
  0
LINE
  5
1AE
330
1F
100
AcDbEntity
  8
0
  6
Continuous
 62
     7
370
    25
100
AcDbLine
 10
4.4709199861
 20
6.4048818904
 30
0.0
 11
4.4855923522
 21
6.4048818904
 31
0.0
  0
LINE
  5
1AF
330
1F
100
AcDbEntity
  8
0
  6
Continuous
 62
     7
370
    25
100
AcDbLine
 10
4.352305164
 20
6.4048818904
 30
0.0
 11
4.4709199861
 21
6.4048818904
 31
0.0
  0
LINE
  5
1B0
330
1F
100
AcDbEntity
  8
0
  6
Continuous
 62
     7
370
    25
100
AcDbLine
 10
4.4991629171
 20
6.3468818904
 30
0.0
 11
4.4990288251
 21
6.3468818904
 31
0.0
  0
LINE
  5
1B1
330
1F
100
AcDbEntity
  8
0
  6
Continuous
 62
     7
370
    25
100
AcDbLine
 10
4.2222609067
 20
6.3468818904
 30
0.0
 11
4.2119332728
 21
6.3468818904
 31
0.0
  0
LINE
  5
1B2
330
1F
100
AcDbEntity
  8
0
  6
Continuous
 62
     7
370
    25
100
AcDbLine
 10
4.2222609067
 20
6.3468818904
 30
0.0
 11
4.327439256
 21
6.3468818904
 31
0.0
  0
LINE
  5
1B3
330
1F
100
AcDbEntity
  8
0
  6
Continuous
 62
     7
370
    25
100
AcDbLine
 10
4.352305164
 20
6.3468818904
 30
0.0
 11
4.327439256
 21
6.3468818904
 31
0.0
  0
LINE
  5
1B4
330
1F
100
AcDbEntity
  8
0
  6
Continuous
 62
     7
370
    25
100
AcDbLine
 10
4.352305164
 20
6.3468818904
 30
0.0
 11
4.4709199861
 21
6.3468818904
 31
0.0
  0
LINE
  5
1B5
330
1F
100
AcDbEntity
  8
0
  6
Continuous
 62
     7
370
    25
100
AcDbLine
 10
4.4855923522
 20
6.3468818904
 30
0.0
 11
4.4709199861
 21
6.3468818904
 31
0.0
  0
LINE
  5
1B6
330
1F
100
AcDbEntity
  8
0
  6
Continuous
 62
     7
370
    25
100
AcDbLine
 10
4.4855923522
 20
6.3468818904
 30
0.0
 11
4.4990288251
 21
6.3468818904
 31
0.0
  0
LINE
  5
1B7
330
1F
100
AcDbEntity
  8
0
  6
Continuous
 62
     7
370
    25
100
AcDbLine
 10
4.352305164
 20
6.2168818904
 30
0.0
 11
4.352305164
 21
6.1588818904
 31
0.0
  0
LINE
  5
1B8
330
1F
100
AcDbEntity
  8
0
  6
Continuous
 62
     7
370
    25
100
AcDbLine
 10
4.327439256
 20
6.1588818904
 30
0.0
 11
4.327439256
 21
6.2168818904
 31
0.0
  0
LINE
  5
1B9
330
1F
100
AcDbEntity
  8
0
  6
Continuous
 62
   144
370
    18
100
AcDbLine
 10
4.352305164
 20
6.1588818904
 30
0.0
 11
4.327439256
 21
6.1588818904
 31
0.0
  0
LINE
  5
1BA
330
1F
100
AcDbEntity
  8
0
  6
Continuous
 62
     7
370
    25
100
AcDbLine
 10
4.352305164
 20
6.4048818904
 30
0.0
 11
4.352305164
 21
6.3468818904
 31
0.0
  0
LINE
  5
1BB
330
1F
100
AcDbEntity
  8
0
  6
Continuous
 62
     7
370
    25
100
AcDbLine
 10
4.327439256
 20
6.3468818904
 30
0.0
 11
4.327439256
 21
6.4048818904
 31
0.0
  0
LINE
  5
1BC
330
1F
100
AcDbEntity
  8
0
  6
Continuous
 62
     7
370
    25
100
AcDbLine
 10
4.4709199861
 20
6.1588818904
 30
0.0
 11
4.4709199861
 21
6.2168818904
 31
0.0
  0
LINE
  5
1BD
330
1F
100
AcDbEntity
  8
0
  6
Continuous
 62
   144
370
    18
100
AcDbLine
 10
4.352305164
 20
6.1588818904
 30
0.0
 11
4.4709199861
 21
6.1588818904
 31
0.0
  0
LINE
  5
1BE
330
1F
100
AcDbEntity
  8
0
  6
Continuous
 62
     7
370
    25
100
AcDbLine
 10
4.4709199861
 20
6.3468818904
 30
0.0
 11
4.4709199861
 21
6.4048818904
 31
0.0
  0
LINE
  5
1BF
330
1F
100
AcDbEntity
  8
0
  6
Continuous
 62
     7
370
    25
100
AcDbLine
 10
4.2222609067
 20
6.2168818904
 30
0.0
 11
4.2222609067
 21
6.1588818904
 31
0.0
  0
LINE
  5
1C0
330
1F
100
AcDbEntity
  8
0
  6
Continuous
 62
   144
370
    18
100
AcDbLine
 10
4.2222609067
 20
6.1588818904
 30
0.0
 11
4.327439256
 21
6.1588818904
 31
0.0
  0
LINE
  5
1C1
330
1F
100
AcDbEntity
  8
0
  6
Continuous
 62
     7
370
    25
100
AcDbLine
 10
4.2222609067
 20
6.4048818904
 30
0.0
 11
4.2222609067
 21
6.3468818904
 31
0.0
  0
LINE
  5
1C2
330
1F
100
AcDbEntity
  8
0
  6
Continuous
 62
     7
370
    25
100
AcDbLine
 10
4.220548095
 20
6.2868818904
 30
0.0
 11
4.490548095
 21
6.2868818904
 31
0.0
  0
LINE
  5
1C3
330
1F
100
AcDbEntity
  8
0
  6
Continuous
 62
     7
370
    25
100
AcDbLine
 10
4.245548095
 20
6.4798818904
 30
0.0
 11
4.4655480941
 21
6.4798818904
 31
0.0
  0
LINE
  5
1C4
330
1F
100
AcDbEntity
  8
0
  6
Continuous
 62
     7
370
    25
100
AcDbLine
 10
4.4855923522
 20
6.4048818904
 30
0.0
 11
4.4855923522
 21
6.3468818904
 31
0.0
  0
LINE
  5
1C5
330
1F
100
AcDbEntity
  8
0
  6
Continuous
 62
     7
370
    25
100
AcDbLine
 10
4.4855923522
 20
6.2168818904
 30
0.0
 11
4.4855923522
 21
6.1588818904
 31
0.0
  0
LINE
  5
1C6
330
1F
100
AcDbEntity
  8
0
  6
Continuous
 62
   144
370
    18
100
AcDbLine
 10
4.4855923522
 20
6.1588818904
 30
0.0
 11
4.4709199861
 21
6.1588818904
 31
0.0
  0
LINE
  5
1C7
330
1F
100
AcDbEntity
  8
0
  6
Continuous
 62
     7
370
    25
100
AcDbLine
 10
4.4990288251
 20
6.3468818904
 30
0.0
 11
4.4990288251
 21
6.4048818904
 31
0.0
  0
LINE
  5
1C8
330
1F
100
AcDbEntity
  8
0
  6
Continuous
 62
     7
370
    25
100
AcDbLine
 10
4.4990288251
 20
6.1588818904
 30
0.0
 11
4.4990288251
 21
6.2168818904
 31
0.0
  0
LINE
  5
1C9
330
1F
100
AcDbEntity
  8
0
  6
Continuous
 62
   144
370
    18
100
AcDbLine
 10
4.4855923522
 20
6.1588818904
 30
0.0
 11
4.4990288251
 21
6.1588818904
 31
0.0
  0
LINE
  5
1CA
330
1F
100
AcDbEntity
  8
0
  6
Continuous
 62
   144
370
    18
100
AcDbLine
 10
4.2222609067
 20
6.1588818904
 30
0.0
 11
4.2119332728
 21
6.1588818904
 31
0.0
  0
LINE
  5
1CB
330
1F
100
AcDbEntity
  8
0
  6
Continuous
 62
   144
370
    18
100
AcDbLine
 10
4.4991629171
 20
6.1588818904
 30
0.0
 11
4.4990288251
 21
6.1588818904
 31
0.0
  0
LINE
  5
1CC
330
1F
100
AcDbEntity
  8
0
  6
Continuous
 62
     7
370
    25
100
AcDbLine
 10
4.4598788037
 20
7.7826305586
 30
0.0
 11
4.4460992761
 21
7.7826305586
 31
0.0
  0
LINE
  5
1CD
330
1F
100
AcDbEntity
  8
0
  6
Continuous
 62
     7
370
    25
100
AcDbLine
 10
4.4657843155
 20
7.7826305586
 30
0.0
 11
4.4598788037
 21
7.7826305586
 31
0.0
  0
LINE
  5
1CE
330
1F
100
AcDbEntity
  8
0
  6
Continuous
 62
     7
370
    25
100
AcDbLine
 10
4.2522016383
 20
7.5916856767
 30
0.0
 11
4.2571228981
 21
7.5916856767
 31
0.0
  0
LINE
  5
1CF
330
1F
100
AcDbEntity
  8
0
  6
Continuous
 62
     7
370
    25
100
AcDbLine
 10
4.4460992761
 20
7.5916856767
 30
0.0
 11
4.2571228981
 21
7.5916856767
 31
0.0
  0
LINE
  5
1D0
330
1F
100
AcDbEntity
  8
0
  6
Continuous
 62
     7
370
    25
100
AcDbLine
 10
4.2433433706
 20
7.8023155979
 30
0.0
 11
4.4598788037
 21
7.8023155979
 31
0.0
  0
LINE
  5
1D1
330
1F
100
AcDbEntity
  8
0
  6
Continuous
 62
     7
370
    25
100
AcDbLine
 10
4.4598788037
 20
7.8023155979
 30
0.0
 11
4.4598788037
 21
7.7826305586
 31
0.0
  0
LINE
  5
1D2
330
1F
100
AcDbEntity
  8
0
  6
Continuous
 62
     7
370
    25
100
AcDbLine
 10
4.4460992761
 20
7.7826305586
 30
0.0
 11
4.4460992761
 21
7.5916856767
 31
0.0
  0
LINE
  5
1D3
330
1F
100
AcDbEntity
  8
0
  6
Continuous
 62
     7
370
    25
100
AcDbLine
 10
4.2571228981
 20
7.5916856767
 30
0.0
 11
4.2571228981
 21
7.7826305586
 31
0.0
  0
LINE
  5
1D4
330
1F
100
AcDbEntity
  8
0
  6
Continuous
 62
     7
370
    25
100
AcDbLine
 10
4.2571228981
 20
7.7826305586
 30
0.0
 11
4.2433433706
 21
7.7826305586
 31
0.0
  0
LINE
  5
1D5
330
1F
100
AcDbEntity
  8
0
  6
Continuous
 62
     7
370
    25
100
AcDbLine
 10
4.2433433706
 20
7.7826305586
 30
0.0
 11
4.2433433706
 21
7.8023155979
 31
0.0
  0
LINE
  5
1D6
330
1F
100
AcDbEntity
  8
0
  6
Continuous
 62
     7
370
    25
100
AcDbLine
 10
4.2433433706
 20
7.7826305586
 30
0.0
 11
4.2374378588
 21
7.7826305586
 31
0.0
  0
LINE
  5
1D7
330
1F
100
AcDbEntity
  8
0
  6
Continuous
 62
     7
370
    25
100
AcDbLine
 10
4.4598788037
 20
7.8023155979
 30
0.0
 11
4.4657843155
 21
7.8023155979
 31
0.0
  0
LINE
  5
1D8
330
1F
100
AcDbEntity
  8
0
  6
Continuous
 62
     7
370
    25
100
AcDbLine
 10
4.4657843155
 20
7.7826305586
 30
0.0
 11
4.4657843155
 21
7.8023155979
 31
0.0
  0
LINE
  5
1D9
330
1F
100
AcDbEntity
  8
0
  6
Continuous
 62
     7
370
    25
100
AcDbLine
 10
4.2374378588
 20
7.8023155979
 30
0.0
 11
4.2433433706
 21
7.8023155979
 31
0.0
  0
LINE
  5
1DA
330
1F
100
AcDbEntity
  8
0
  6
Continuous
 62
     7
370
    25
100
AcDbLine
 10
4.2374378588
 20
7.8023155979
 30
0.0
 11
4.2374378588
 21
7.7826305586
 31
0.0
  0
LINE
  5
1DB
330
1F
100
AcDbEntity
  8
0
  6
Continuous
 62
     7
370
    25
100
AcDbLine
 10
4.3575165989
 20
7.4164888263
 30
0.0
 11
4.3722803785
 21
7.4164888263
 31
0.0
  0
LINE
  5
1DC
330
1F
100
AcDbEntity
  8
0
  6
Continuous
 62
     7
370
    25
100
AcDbLine
 10
4.3722803785
 20
7.4164888263
 30
0.0
 11
4.4244457328
 21
7.4164888263
 31
0.0
  0
LINE
  5
1DD
330
1F
100
AcDbEntity
  8
0
  6
Continuous
 62
     7
370
    25
100
AcDbLine
 10
4.4244457328
 20
7.4164888263
 30
0.0
 11
4.4244457328
 21
7.5916856767
 31
0.0
  0
LINE
  5
1DE
330
1F
100
AcDbEntity
  8
0
  6
Continuous
 62
     7
370
    25
100
AcDbLine
 10
4.3722803785
 20
7.5916856767
 30
0.0
 11
4.3722803785
 21
7.4164888263
 31
0.0
  0
LINE
  5
1DF
330
1F
100
AcDbEntity
  8
0
  6
Continuous
 62
     7
370
    25
100
AcDbLine
 10
4.3575165989
 20
7.4164888263
 30
0.0
 11
4.3575165989
 21
7.5916856767
 31
0.0
  0
LINE
  5
1E0
330
1F
100
AcDbEntity
  8
0
  6
Continuous
 62
     7
370
    25
100
AcDbLine
 10
4.2748394336
 20
7.4164888263
 30
0.0
 11
4.3417685674
 21
7.4164888263
 31
0.0
  0
LINE
  5
1E1
330
1F
100
AcDbEntity
  8
0
  6
Continuous
 62
     7
370
    25
100
AcDbLine
 10
4.2748394336
 20
7.4164888263
 30
0.0
 11
4.2748394336
 21
7.5916856767
 31
0.0
  0
LINE
  5
1E2
330
1F
100
AcDbEntity
  8
0
  6
Continuous
 62
     7
370
    25
100
AcDbLine
 10
4.3417685674
 20
7.5916856767
 30
0.0
 11
4.3417685674
 21
7.4164888263
 31
0.0
  0
ARC
  5
1E3
330
1F
100
AcDbEntity
  8
0
  6
Continuous
 62
     7
370
    25
100
AcDbCircle
 10
4.4520047879
 20
7.6103864641
 30
0.0
 40
0.0059055118110232
100
AcDbArc
 50
90.0
 51
180.0
  0
ARC
  5
1E4
330
1F
100
AcDbEntity
  8
0
  6
Continuous
 62
     7
370
    25
100
AcDbCircle
 10
4.4520047879
 20
7.6517250467
 30
0.0
 40
0.0059055118110241
100
AcDbArc
 50
180.0
 51
270.0
  0
LINE
  5
1E5
330
1F
100
AcDbEntity
  8
0
  6
Continuous
 62
     7
370
    25
100
AcDbLine
 10
4.4520047879
 20
7.6458195349
 30
0.0
 11
4.4697213233
 21
7.6458195349
 31
0.0
  0
LINE
  5
1E6
330
1F
100
AcDbEntity
  8
0
  6
Continuous
 62
     7
370
    25
100
AcDbLine
 10
4.4832316787
 20
7.7590085113
 30
0.0
 11
4.5209024257
 21
7.7590085113
 31
0.0
  0
LINE
  5
1E7
330
1F
100
AcDbEntity
  8
0
  6
Continuous
 62
     7
370
    25
100
AcDbLine
 10
4.5209024257
 20
7.7590085113
 30
0.0
 11
4.5209024257
 21
7.7294809523
 31
0.0
  0
LINE
  5
1E8
330
1F
100
AcDbEntity
  8
0
  6
Continuous
 62
     7
370
    25
100
AcDbLine
 10
4.5209024257
 20
7.7294809523
 30
0.0
 11
4.5149969139
 21
7.7294809523
 31
0.0
  0
LINE
  5
1E9
330
1F
100
AcDbEntity
  8
0
  6
Continuous
 62
     7
370
    25
100
AcDbLine
 10
4.5149969139
 20
7.7294809523
 30
0.0
 11
4.5012173863
 21
7.7196384326
 31
0.0
  0
LINE
  5
1EA
330
1F
100
AcDbEntity
  8
0
  6
Continuous
 62
     7
370
    25
100
AcDbLine
 10
4.5012173863
 20
7.7196384326
 30
0.0
 11
4.5012173863
 21
7.6162919759
 31
0.0
  0
LINE
  5
1EB
330
1F
100
AcDbEntity
  8
0
  6
Continuous
 62
     7
370
    25
100
AcDbLine
 10
4.5012173863
 20
7.6162919759
 30
0.0
 11
4.4520047879
 21
7.6162919759
 31
0.0
  0
LINE
  5
1EC
330
1F
100
AcDbEntity
  8
0
  6
Continuous
 62
   144
370
    18
100
AcDbLine
 10
4.4736433497
 20
7.64941341
 30
0.0
 11
4.4832316787
 21
7.7590085113
 31
0.0
  0
ARC
  5
1ED
330
1F
100
AcDbEntity
  8
0
  6
Continuous
 62
   144
370
    18
100
AcDbCircle
 10
4.4697213233
 20
7.6497565428
 30
0.0
 40
0.0039370078740166
100
AcDbArc
 50
270.0
 51
354.9999999999
  0
LINE
  5
1EE
330
1F
100
AcDbEntity
  8
0
  6
Continuous
 62
     7
370
    25
100
AcDbLine
 10
4.5149969139
 20
7.7294809523
 30
0.0
 11
4.5149969139
 21
7.4814494562
 31
0.0
  0
LINE
  5
1EF
330
1F
100
AcDbEntity
  8
0
  6
Continuous
 62
     7
370
    25
100
AcDbLine
 10
4.5149969139
 20
7.4814494562
 30
0.0
 11
4.5012173863
 21
7.4676699286
 31
0.0
  0
LINE
  5
1F0
330
1F
100
AcDbEntity
  8
0
  6
Continuous
 62
     7
370
    25
100
AcDbLine
 10
4.5012173863
 20
7.4676699286
 30
0.0
 11
4.4756268351
 21
7.4676699286
 31
0.0
  0
LINE
  5
1F1
330
1F
100
AcDbEntity
  8
0
  6
Continuous
 62
     7
370
    25
100
AcDbLine
 10
4.4460992761
 20
7.5267250467
 30
0.0
 11
4.4756268351
 21
7.5241417201
 31
0.0
  0
LINE
  5
1F2
330
1F
100
AcDbEntity
  8
0
  6
Continuous
 62
   144
370
    18
100
AcDbLine
 10
4.4460992761
 20
7.4971974877
 30
0.0
 11
4.4460992761
 21
7.5267250467
 31
0.0
  0
LINE
  5
1F3
330
1F
100
AcDbEntity
  8
0
  6
Continuous
 62
   144
370
    18
100
AcDbLine
 10
4.4756268351
 20
7.4676699286
 30
0.0
 11
4.4460992761
 21
7.4971974877
 31
0.0
  0
LINE
  5
1F4
330
1F
100
AcDbEntity
  8
0
  6
Continuous
 62
   144
370
    18
100
AcDbLine
 10
4.4756268351
 20
7.5241417201
 30
0.0
 11
4.4756268351
 21
7.6162919759
 31
0.0
  0
LINE
  5
1F5
330
1F
100
AcDbEntity
  8
0
  6
Continuous
 62
     7
370
    25
100
AcDbLine
 10
4.4038948787
 20
7.3628365487
 30
0.0
 11
4.3738948792
 21
7.3628365487
 31
0.0
  0
LWPOLYLINE
  5
1F6
330
1F
100
AcDbEntity
  8
0
  6
Continuous
 62
     7
370
    25
100
AcDbPolyline
 90
       10
 70
   128
 43
0.0
 10
4.3954194072
 20
7.2446795614
 10
4.3954115991
 20
7.2449038145
 10
4.3940957873
 20
7.2474032219
 10
4.3907174622
 20
7.2492236291
 10
4.3857909432
 20
7.2500878955
 10
4.380066248
 20
7.2498644445
 10
4.3744149096
 20
7.2485872943
 10
4.3696972932
 20
7.2464508797
 10
4.3666316129
 20
7.2437804502
 10
4.365676783
 20
7.241209388
  0
LINE
  5
1F7
330
1F
100
AcDbEntity
  8
0
  6
Continuous
 62
     7
370
    25
100
AcDbLine
 10
4.3072013113
 20
7.3628365487
 30
0.0
 11
4.3372013108
 21
7.3628365487
 31
0.0
  0
LWPOLYLINE
  5
1F8
330
1F
100
AcDbEntity
  8
0
  6
Continuous
 62
     7
370
    25
100
AcDbPolyline
 90
       10
 70
   128
 43
0.0
 10
4.3156767828
 20
7.2446795614
 10
4.3156845909
 20
7.2449038145
 10
4.3170004027
 20
7.2474032219
 10
4.3203787278
 20
7.2492236291
 10
4.3253052468
 20
7.2500878955
 10
4.331029942
 20
7.2498644445
 10
4.3366812803
 20
7.2485872943
 10
4.3413988968
 20
7.2464508797
 10
4.3444645771
 20
7.2437804502
 10
4.3454194067
 20
7.2412098608
  0
SPLINE
  5
1F9
330
1F
100
AcDbEntity
  8
0
  6
Continuous
 62
     7
370
    25
100
AcDbSpline
210
0.0
220
0.0
230
1.0
 70
    24
 71
     3
 72
    13
 73
     9
 74
     0
 42
0.000000001
 43
0.00000001
 40
0.0
 40
0.0
 40
0.0
 40
0.0
 40
0.2147371920032566
 40
0.4294591287559817
 40
0.6443929607726046
 40
0.7507028827193929
 40
0.9648734424929128
 40
1.0
 40
1.0
 40
1.0
 40
1.0
 10
4.355548094991832
 20
6.916488826270924
 30
0.0
 10
4.348518593959056
 20
6.916488826270925
 30
0.0
 10
4.334460091279746
 20
6.916488826270924
 30
0.0
 10
4.315768263839281
 20
6.916488826270923
 30
0.0
 10
4.303880014536032
 20
6.916488826270924
 30
0.0
 10
4.295988724795784
 20
6.916488826270923
 30
0.0
 10
4.292838896630345
 20
6.916488826270923
 30
0.0
 10
4.293182965554273
 20
6.916488826270924
 30
0.0
 10
4.293231445685028
 20
6.916488826270924
 30
0.0
  0
SPLINE
  5
1FA
330
1F
100
AcDbEntity
  8
0
  6
Continuous
 62
     7
370
    25
100
AcDbSpline
210
0.0
220
0.0
230
1.0
 70
    24
 71
     3
 72
    13
 73
     9
 74
     0
 42
0.000000001
 43
0.00000001
 40
0.0
 40
0.0
 40
0.0
 40
0.0
 40
0.1098365304930589
 40
0.3245606299894402
 40
0.5391704857525341
 40
0.7538572149807486
 40
0.9687976256802298
 40
1.0
 40
1.0
 40
1.0
 40
1.0
 10
4.417168018969365
 20
6.916488826270924
 30
0.0
 10
4.417333033352978
 20
6.916488826270924
 30
0.0
 10
4.417820641365197
 20
6.916488826270924
 30
0.0
 10
4.410933096867753
 20
6.916488826270924
 30
0.0
 10
4.397797210669459
 20
6.916488826270925
 30
0.0
 10
4.379555701734139
 20
6.916488826270924
 30
0.0
 10
4.364585067075854
 20
6.916488826270926
 30
0.0
 10
4.356564788365371
 20
6.916488826270925
 30
0.0
 10
4.355548094991832
 20
6.916488826270924
 30
0.0
  0
SPLINE
  5
1FB
330
1F
100
AcDbEntity
  8
0
  6
Continuous
 62
     7
370
    25
100
AcDbSpline
210
0.0
220
0.0
230
1.0
 70
    24
 71
     3
 72
    17
 73
    13
 74
     0
 42
0.000000001
 43
0.00000001
 40
0.0
 40
0.0
 40
0.0
 40
0.0
 40
0.2138454493108688
 40
0.4043465550784953
 40
0.4763744833145938
 40
0.5414238678357173
 40
0.6066119106165347
 40
0.6679045995871612
 40
0.7902113535439427
 40
0.9106380717402944
 40
0.970848567740574
 40
0.9999999999999999
 40
0.9999999999999999
 40
0.9999999999999999
 40
0.9999999999999999
 10
4.331199436749105
 20
7.228988826270923
 30
0.0
 10
4.339323752493685
 20
7.228988826270923
 30
0.0
 10
4.35468549666115
 20
7.228988826270923
 30
0.0
 10
4.372681383522724
 20
7.228988826270922
 30
0.0
 10
4.385250936123024
 20
7.228988826270924
 30
0.0
 10
4.392334595849253
 20
7.228988826270923
 30
0.0
 10
4.397639122283205
 20
7.228988826270927
 30
0.0
 10
4.401474169032254
 20
7.228988826270921
 30
0.0
 10
4.400561044533315
 20
7.228988826270924
 30
0.0
 10
4.401071413770941
 20
7.228988826270923
 30
0.0
 10
4.401010213268907
 20
7.228988826270924
 30
0.0
 10
4.400931183520465
 20
7.228988826270923
 30
0.0
 10
4.400905402626934
 20
7.228988826270923
 30
0.0
  0
SPLINE
  5
1FC
330
1F
100
AcDbEntity
  8
0
  6
Continuous
 62
     7
370
    25
100
AcDbSpline
210
0.0
220
0.0
230
1.0
 70
    24
 71
     3
 72
    15
 73
    11
 74
     0
 42
0.000000001
 43
0.00000001
 40
0.0
 40
0.0
 40
0.0
 40
0.0
 40
0.0806474613883211
 40
0.273680198143283
 40
0.3909903112570586
 40
0.5731783626910857
 40
0.6793376055801238
 40
0.7851684358957188
 40
0.8973996629637825
 40
0.9999999999999999
 40
0.9999999999999999
 40
0.9999999999999999
 40
0.9999999999999999
 10
4.310186370851993
 20
7.228988826270919
 30
0.0
 10
4.310146963029771
 20
7.228988826270919
 30
0.0
 10
4.310013231100604
 20
7.228988826270919
 30
0.0
 10
4.310086645670792
 20
7.228988826270923
 30
0.0
 10
4.310478941651915
 20
7.228988826270924
 30
0.0
 10
4.310043424289697
 20
7.228988826270919
 30
0.0
 10
4.313779675485735
 20
7.228988826270932
 30
0.0
 10
4.318624860419209
 20
7.228988826270921
 30
0.0
 10
4.324643047301606
 20
7.228988826270923
 30
0.0
 10
4.329080280594235
 20
7.228988826270923
 30
0.0
 10
4.331199436749105
 20
7.228988826270923
 30
0.0
  0
SPLINE
  5
1FD
330
1F
100
AcDbEntity
  8
0
  6
Continuous
 62
     7
370
    25
100
AcDbSpline
210
0.0
220
0.0
230
1.0
 70
     8
 71
     3
 72
    13
 73
     9
 74
     0
 42
0.000000001
 43
0.00000001
 40
0.0
 40
0.0
 40
0.0
 40
0.0
 40
0.1763837399104247
 40
0.3520721893094355
 40
0.544435611760466
 40
0.7773575159447617
 40
0.9277605974620997
 40
1.0
 40
1.0
 40
1.0
 40
1.0
 10
4.355548094991967
 20
6.818335425560278
 30
0.0
 10
4.361139588053375
 20
6.817960919825277
 30
0.0
 10
4.372300532960419
 20
6.817213384626746
 30
0.0
 10
4.387376422399921
 20
6.811769085906302
 30
0.0
 10
4.400609089077667
 20
6.803914143892769
 30
0.0
 10
4.409002137198363
 20
6.796209081966382
 30
0.0
 10
4.412972471194475
 20
6.791584582868522
 30
0.0
 10
4.412691361789114
 20
6.791912331436725
 30
0.0
 10
4.412600151993385
 20
6.792018673947454
 30
0.0
  0
SPLINE
  5
1FE
330
1F
100
AcDbEntity
  8
0
  6
Continuous
 62
     7
370
    25
100
AcDbSpline
210
0.0
220
0.0
230
1.0
 70
     8
 71
     3
 72
    14
 73
    10
 74
     0
 42
0.000000001
 43
0.00000001
 40
0.0
 40
0.0
 40
0.0
 40
0.0
 40
0.0907974538933512
 40
0.2565047380912855
 40
0.4914093667051955
 40
0.6095983514562878
 40
0.7316662998547079
 40
0.9063569733051107
 40
1.0
 40
1.0
 40
1.0
 40
1.0
 10
4.298448528543034
 20
6.791962087286047
 30
0.0
 10
4.298422801434226
 20
6.791935239284287
 30
0.0
 10
4.298350121804747
 20
6.791859393108385
 30
0.0
 10
4.303110762068341
 20
6.797305170731431
 30
0.0
 10
4.311340181385261
 20
6.804389424460989
 30
0.0
 10
4.321749752763051
 20
6.810521189417885
 30
0.0
 10
4.332380512321946
 20
6.815040486610376
 30
0.0
 10
4.34410833735844
 20
6.817927736756598
 30
0.0
 10
4.352588640833655
 20
6.818229956863826
 30
0.0
 10
4.355548094991967
 20
6.818335425560278
 30
0.0
  0
LINE
  5
1FF
330
1F
100
AcDbEntity
  8
0
  6
Continuous
 62
     7
370
    25
100
AcDbLine
 10
4.355548095
 20
5.2696935102
 30
0.0
 11
4.145548095
 21
5.2696935102
 31
0.0
  0
LINE
  5
200
330
1F
100
AcDbEntity
  8
0
  6
Continuous
 62
     7
370
    25
100
AcDbLine
 10
4.565548095
 20
5.2696935102
 30
0.0
 11
4.355548095
 21
5.2696935102
 31
0.0
  0
ARC
  5
201
330
1F
100
AcDbEntity
  8
0
  6
Continuous
 62
     7
370
    25
100
AcDbCircle
 10
3.9365625367
 20
5.9821921844
 30
0.0
 40
0.2108861094914418
100
AcDbArc
 50
352.3019605739
 51
7.6009592454
  0
SPLINE
  5
202
330
1F
100
AcDbEntity
  8
0
  6
Continuous
 62
     7
370
    25
100
AcDbSpline
210
0.0
220
0.0
230
1.0
 70
    11
 71
     3
 72
    54
 73
    50
 74
     0
 42
0.000000001
 43
0.00000001
 40
0.0
 40
0.0
 40
0.0
 40
0.0
 40
0.0312500000000007
 40
0.0312500000000007
 40
0.0625000000000015
 40
0.0625000000000015
 40
0.0937500000000022
 40
0.0937500000000022
 40
0.125000000000003
 40
0.125000000000003
 40
0.1875000000000041
 40
0.1875000000000041
 40
0.2500000000000053
 40
0.2500000000000053
 40
0.2812500000000059
 40
0.2812500000000059
 40
0.3125000000000067
 40
0.3125000000000067
 40
0.375000000000009
 40
0.375000000000009
 40
0.4062500000000114
 40
0.4062500000000114
 40
0.4375000000000137
 40
0.4375000000000137
 40
0.4687500000000161
 40
0.4687500000000161
 40
0.5000000000000184
 40
0.5000000000000184
 40
0.5625000000000189
 40
0.5625000000000189
 40
0.6250000000000194
 40
0.6250000000000194
 40
0.6562500000000181
 40
0.6562500000000181
 40
0.6875000000000169
 40
0.6875000000000169
 40
0.7500000000000137
 40
0.7500000000000137
 40
0.7812500000000121
 40
0.7812500000000121
 40
0.8125000000000105
 40
0.8125000000000105
 40
0.843750000000009
 40
0.843750000000009
 40
0.8750000000000073
 40
0.8750000000000073
 40
0.9375000000000038
 40
0.9375000000000038
 40
1.0
 40
1.0
 40
1.0
 40
1.0
 10
4.23080609054891
 20
5.91469351015107
 30
0.0
 10
4.23080609054891
 20
5.916761113046234
 30
0.0
 10
4.230640604182674
 20
5.918793582510127
 30
0.0
 10
4.229995101540339
 20
5.922791309285598
 30
0.0
 10
4.229507123408482
 20
5.924777498850649
 30
0.0
 10
4.228243317601676
 20
5.928560445746643
 30
0.0
 10
4.227473336879997
 20
5.930354193984561
 30
0.0
 10
4.225669934815079
 20
5.933748926507188
 30
0.0
 10
4.224628577047057
 20
5.935353994698317
 30
0.0
 10
4.22125220825636
 20
5.939671100655658
 30
0.0
 10
4.21857478960759
 20
5.941998509065945
 30
0.0
 10
4.212955210234429
 20
5.945117486045636
 30
0.0
 10
4.209955011417869
 20
5.945941197405665
 30
0.0
 10
4.205624739049115
 20
5.945944659033725
 30
0.0
 10
4.204180020030892
 20
5.945741136199264
 30
0.0
 10
4.201426935612354
 20
5.944942729627602
 30
0.0
 10
4.200108913188988
 20
5.944352024918932
 30
0.0
 10
4.19632115374699
 20
5.94200112573485
 30
0.0
 10
4.194101779941275
 20
5.939709306586471
 30
0.0
 10
4.191338593252607
 20
5.935342227382034
 30
0.0
 10
4.190533053789641
 20
5.933767215446248
 30
0.0
 10
4.189132179816188
 20
5.930386251807423
 30
0.0
 10
4.188532126621249
 20
5.928558184404888
 30
0.0
 10
4.187576919268847
 20
5.924777070719591
 30
0.0
 10
4.187219174720804
 20
5.922829320193124
 30
0.0
 10
4.186735547471359
 20
5.918819398065219
 30
0.0
 10
4.186612389377984
 20
5.916746304711982
 30
0.0
 10
4.186610975579565
 20
5.910623961046844
 30
0.0
 10
4.187100180744222
 20
5.906506577030179
 30
0.0
 10
4.188996194593099
 20
5.898982427019331
 30
0.0
 10
4.190422363145013
 20
5.895500680286741
 30
0.0
 10
4.193151551350231
 20
5.891175644403961
 30
0.0
 10
4.194177353482093
 20
5.889855830517721
 30
0.0
 10
4.196374751552244
 20
5.887588013563766
 30
0.0
 10
4.197551588765937
 20
5.88662628782588
 30
0.0
 10
4.201336354207537
 20
5.884265191324586
 30
0.0
 10
4.204116078288169
 20
5.883447029928148
 30
0.0
 10
4.208497319416061
 20
5.883441767167107
 30
0.0
 10
4.209955533039829
 20
5.883642829328178
 30
0.0
 10
4.212865473298971
 20
5.884434917226608
 30
0.0
 10
4.214333152140081
 20
5.885036144818636
 30
0.0
 10
4.21715980277131
 20
5.886601363784161
 30
0.0
 10
4.218519364104615
 20
5.887559644844431
 30
0.0
 10
4.221122038976988
 20
5.889826011476264
 30
0.0
 10
4.222366064884468
 20
5.891141924634024
 30
0.0
 10
4.225743286228101
 20
5.895454743996482
 30
0.0
 10
4.227608352121087
 20
5.898935096458589
 30
0.0
 10
4.230125178802
 20
5.90645044404492
 30
0.0
 10
4.23080609054891
 20
5.910558304360745
 30
0.0
 10
4.23080609054891
 20
5.91469351015107
 30
0.0
  0
SPLINE
  5
203
330
1F
100
AcDbEntity
  8
0
  6
Continuous
 62
     7
370
    25
100
AcDbSpline
210
0.0
220
0.0
230
1.0
 70
     8
 71
     3
 72
    17
 73
    13
 74
     0
 42
0.000000001
 43
0.00000001
 40
0.0
 40
0.0
 40
0.0
 40
0.0
 40
0.1067140084488813
 40
0.2134050901566999
 40
0.3206930859337203
 40
0.428394492385012
 40
0.535439656132867
 40
0.6417814714865052
 40
0.7484699157849105
 40
0.8560110578156804
 40
0.9635882079430729
 40
1.0
 40
1.0
 40
1.0
 40
1.0
 10
4.565548094991973
 20
5.953943510151071
 30
0.0
 10
4.565505306436793
 20
5.954252980415039
 30
0.0
 10
4.565419738519249
 20
5.954871854455505
 30
0.0
 10
4.56482353355449
 20
5.959692699213242
 30
0.0
 10
4.564154331783862
 20
5.966814848844382
 30
0.0
 10
4.563666762241877
 20
5.97575082127946
 30
0.0
 10
4.563590342780567
 20
5.985385233736007
 30
0.0
 10
4.563948843698529
 20
5.994610897032125
 30
0.0
 10
4.564593515226218
 20
6.002511225777232
 30
0.0
 10
4.565213301201116
 20
6.007953115343115
 30
0.0
 10
4.565565127264041
 20
6.010571877442709
 30
0.0
 10
4.565513569268398
 20
6.010184643074322
 30
0.0
 10
4.565500531329597
 20
6.010086719601276
 30
0.0
  0
LINE
  5
204
330
1F
100
AcDbEntity
  8
0
  6
Continuous
 62
   144
370
    18
100
AcDbLine
 10
4.355548095
 20
6.0571935102
 30
0.0
 11
4.145548095
 21
6.0571935102
 31
0.0
  0
LINE
  5
205
330
1F
100
AcDbEntity
  8
0
  6
Continuous
 62
   144
370
    18
100
AcDbLine
 10
4.565548095
 20
6.0571935102
 30
0.0
 11
4.355548095
 21
6.0571935102
 31
0.0
  0
SPLINE
  5
206
330
1F
100
AcDbEntity
  8
0
  6
Continuous
 62
   144
370
    18
100
AcDbSpline
210
0.0
220
0.0
230
1.0
 70
     8
 71
     3
 72
    14
 73
    10
 74
     0
 42
0.000000001
 43
0.00000001
 40
0.0
 40
0.0
 40
0.0
 40
0.0
 40
0.1357591750017214
 40
0.2826319909008779
 40
0.4309570573520704
 40
0.5788461163509294
 40
0.725045819574513
 40
0.87095601408262
 40
1.0
 40
1.0
 40
1.0
 40
1.0
 10
4.21215530445593
 20
5.945111408885621
 30
0.0
 10
4.210061680658328
 20
5.944176407878073
 30
0.0
 10
4.205703042930112
 20
5.942229863961215
 30
0.0
 10
4.200726543276144
 20
5.935374832781116
 30
0.0
 10
4.197381711740388
 20
5.926288698484285
 30
0.0
 10
4.19610854747075
 20
5.915792053990852
 30
0.0
 10
4.196964550316309
 20
5.905302888268381
 30
0.0
 10
4.199633786886617
 20
5.896098697730421
 30
0.0
 10
4.202710809085626
 20
5.891739437594926
 30
0.0
 10
4.204154945009298
 20
5.889693510151071
 30
0.0
  0
SPLINE
  5
207
330
1F
100
AcDbEntity
  8
0
  6
Continuous
 62
   144
370
    18
100
AcDbSpline
210
0.0
220
0.0
230
1.0
 70
     8
 71
     3
 72
     9
 73
     5
 74
     0
 42
0.000000001
 43
0.00000001
 40
0.0
 40
0.0
 40
0.0
 40
0.0
 40
0.793357769179391
 40
1.0
 40
1.0
 40
1.0
 40
1.0
 10
4.204154945009298
 20
5.889693510151071
 30
0.0
 10
4.206812319596223
 20
5.888024241106078
 30
0.0
 10
4.210161848258018
 20
5.885920185269177
 30
0.0
 10
4.213296622812857
 20
5.885173085309112
 30
0.0
 10
4.213944399619988
 20
5.885018702906718
 30
0.0
  0
LINE
  5
208
330
1F
100
AcDbEntity
  8
0
  6
Continuous
 62
   144
370
    18
100
AcDbLine
 10
4.3016714658
 20
5.0771935102
 30
0.0
 11
4.261798095
 21
5.0771935102
 31
0.0
  0
LINE
  5
209
330
1F
100
AcDbEntity
  8
0
  6
Continuous
 62
   144
370
    18
100
AcDbLine
 10
4.449298095
 20
5.0771935102
 30
0.0
 11
4.3016714658
 21
5.0771935102
 31
0.0
  0
SPLINE
  5
20A
330
1F
100
AcDbEntity
  8
0
  6
Continuous
 62
     7
370
    25
100
AcDbSpline
210
0.0
220
0.0
230
1.0
 70
     8
 71
     3
 72
    20
 73
    16
 74
     0
 42
0.000000001
 43
0.00000001
 40
0.0
 40
0.0
 40
0.0
 40
0.0
 40
0.0881847377429337
 40
0.1759895799777459
 40
0.2947087042034626
 40
0.3541691114469961
 40
0.4155312890092657
 40
0.4818801179170049
 40
0.5485824525771585
 40
0.629577738726575
 40
0.7496054035733798
 40
0.8100793758077678
 40
0.8726114803854769
 40
0.9592203309780166
 40
1.0
 40
1.0
 40
1.0
 40
1.0
 10
4.413048094991967
 20
6.679920797600728
 30
0.0
 10
4.412554657181921
 20
6.680485056227842
 30
0.0
 10
4.411569907267621
 20
6.681611142683688
 30
0.0
 10
4.403625370152779
 20
6.688152329358825
 30
0.0
 10
4.393147455123117
 20
6.695884093820538
 30
0.0
 10
4.381507706738345
 20
6.702762577117762
 30
0.0
 10
4.371217231146162
 20
6.70742011826132
 30
0.0
 10
4.359106858877327
 20
6.710277410726828
 30
0.0
 10
4.345185530751691
 20
6.709261922180032
 30
0.0
 10
4.3296200264213
 20
6.703255253013918
 30
0.0
 10
4.317262729451153
 20
6.695311818405512
 30
0.0
 10
4.308127229471719
 20
6.688578506569968
 30
0.0
 10
4.302074373184587
 20
6.683738670965937
 30
0.0
 10
4.298124763582702
 20
6.680328071551891
 30
0.0
 10
4.298522156143314
 20
6.680368510079657
 30
0.0
 10
4.298649369624895
 20
6.680381455278982
 30
0.0
  0
SPLINE
  5
20B
330
1F
100
AcDbEntity
  8
0
  6
Continuous
 62
     7
370
    25
100
AcDbSpline
210
0.0
220
0.0
230
1.0
 70
     8
 71
     3
 72
    19
 73
    15
 74
     0
 42
0.000000001
 43
0.00000001
 40
0.0
 40
0.0
 40
0.0
 40
0.0
 40
0.0349487701385668
 40
0.1192935499545722
 40
0.2094350820770959
 40
0.3160765049615142
 40
0.4175424095376899
 40
0.4935232960156825
 40
0.5697070904573938
 40
0.666486829156131
 40
0.7901013111092523
 40
0.8935462353363792
 40
0.9814179321006495
 40
1.0
 40
1.0
 40
1.0
 40
1.0
 10
4.298671027775918
 20
6.680319153381726
 30
0.0
 10
4.298613806312078
 20
6.680206528340565
 30
0.0
 10
4.29841848752037
 20
6.679822095900726
 30
0.0
 10
4.30275084138724
 20
6.682710553534196
 30
0.0
 10
4.311225661694346
 20
6.688252139224125
 30
0.0
 10
4.323951282651176
 20
6.695765389652644
 30
0.0
 10
4.338922196522293
 20
6.702112466924
 30
0.0
 10
4.354327233567785
 20
6.704618727184441
 30
0.0
 10
4.369644488304981
 20
6.70283114625513
 30
0.0
 10
4.385727577303379
 20
6.696597458676851
 30
0.0
 10
4.399831757090297
 20
6.688315760981363
 30
0.0
 10
4.409298720324081
 20
6.682055948717958
 30
0.0
 10
4.412639406231912
 20
6.67991033564963
 30
0.0
 10
4.412883226323798
 20
6.679932660187035
 30
0.0
 10
4.412925786410959
 20
6.679936557053164
 30
0.0
  0
LINE
  5
20C
330
1F
100
AcDbEntity
  8
0
  6
Continuous
 62
     7
370
    25
100
AcDbLine
 10
4.4763947389
 20
4.8461935102
 30
0.0
 11
4.4638012705
 21
4.8461935102
 31
0.0
  0
SPLINE
  5
20D
330
1F
100
AcDbEntity
  8
0
  6
Continuous
 62
     7
370
    25
100
AcDbSpline
210
0.0
220
0.0
230
1.0
 70
     8
 71
     3
 72
    18
 73
    14
 74
     0
 42
0.000000001
 43
0.00000001
 40
0.0
 40
0.0
 40
0.0
 40
0.0
 40
0.1249999999999999
 40
0.1249999999999999
 40
0.2499999999999998
 40
0.2499999999999998
 40
0.5
 40
0.5
 40
0.6250000000000002
 40
0.6250000000000002
 40
0.7500000000000004
 40
0.7500000000000004
 40
1.0
 40
1.0
 40
1.0
 40
1.0
 10
4.55946097751614
 20
4.846193510151071
 30
0.0
 10
4.555982597390256
 20
4.846193510151071
 30
0.0
 10
4.552512710811246
 20
4.846785188166524
 30
0.0
 10
4.545624712254104
 20
4.84856135332231
 30
0.0
 10
4.54220297272122
 20
4.849755154703882
 30
0.0
 10
4.531945551110397
 20
4.853475327943858
 30
0.0
 10
4.525114543436278
 20
4.856135460396443
 30
0.0
 10
4.514710267813383
 20
4.856220990475028
 30
0.0
 10
4.511201473927436
 20
4.85560751609344
 30
0.0
 10
4.504234835206385
 20
4.853644437472569
 30
0.0
 10
4.500778012530612
 20
4.852341322891449
 30
0.0
 10
4.4903961456199
 20
4.848570320946178
 30
0.0
 10
4.483436031044074
 20
4.846193510151071
 30
0.0
 10
4.476394738886959
 20
4.846193510151071
 30
0.0
  0
LINE
  5
20E
330
1F
100
AcDbEntity
  8
0
  6
Continuous
 62
     7
370
    25
100
AcDbLine
 10
4.5720544459
 20
4.8461935102
 30
0.0
 11
4.5594609775
 21
4.8461935102
 31
0.0
  0
LINE
  5
20F
330
1F
100
AcDbEntity
  8
0
  6
Continuous
 62
     7
370
    25
100
AcDbLine
 10
4.5720544459
 20
4.8461935102
 30
0.0
 11
4.5720544459
 21
4.5511935102
 31
0.0
  0
LINE
  5
210
330
1F
100
AcDbEntity
  8
0
  6
Continuous
 62
     7
370
    25
100
AcDbLine
 10
4.4638012705
 20
4.5511935102
 30
0.0
 11
4.5720544459
 21
4.5511935102
 31
0.0
  0
LINE
  5
211
330
1F
100
AcDbEntity
  8
0
  6
Continuous
 62
     7
370
    25
100
AcDbLine
 10
4.4638012705
 20
4.8461935102
 30
0.0
 11
4.4638012705
 21
4.5511935102
 31
0.0
  0
ELLIPSE
  5
212
330
1F
100
AcDbEntity
  8
0
  6
Continuous
 62
     7
370
    25
100
AcDbEllipse
 10
4.5431869325
 20
4.5511935102
 30
0.0
 11
-0.02886751345948113
 21
0.0
 31
0.0
210
0.0
220
0.0
230
1.0
 40
0.8660254038
 41
1.570796326794897
 42
3.14159265358979
  0
LINE
  5
213
330
1F
100
AcDbEntity
  8
0
  6
Continuous
 62
     7
370
    25
100
AcDbLine
 10
4.5431869325
 20
4.5261935102
 30
0.0
 11
4.4493675137
 21
4.5261935102
 31
0.0
  0
ELLIPSE
  5
214
330
1F
100
AcDbEntity
  8
0
  6
Continuous
 62
     7
370
    25
100
AcDbEllipse
 10
4.4493675137
 20
4.5511935102
 30
0.0
 11
0.0
 21
0.02499999999999947
 31
0.0
210
0.0
220
0.0
230
1.0
 40
0.5773502692
 41
3.141592653589793
 42
4.712388980384698
  0
ELLIPSE
  5
215
330
1F
100
AcDbEntity
  8
0
  6
Continuous
 62
     7
370
    25
100
AcDbEllipse
 10
4.4493675137
 20
4.8461935102
 30
0.0
 11
0.0
 21
0.02499999999999947
 31
0.0
210
0.0
220
0.0
230
1.0
 40
0.5773502692
 41
4.712388980384698
 42
6.283185307179586
  0
LINE
  5
216
330
1F
100
AcDbEntity
  8
0
  6
Continuous
 62
     7
370
    25
100
AcDbLine
 10
4.4493675137
 20
4.8711935102
 30
0.0
 11
4.4547441038
 21
4.8711935102
 31
0.0
  0
ARC
  5
217
330
1F
100
AcDbEntity
  8
0
  6
Continuous
 62
     7
370
    25
100
AcDbCircle
 10
4.4529398842
 20
4.8477560102
 30
0.0
 40
0.0235068418674928
100
AcDbArc
 50
356.1887389505
 51
85.5980503477
  0
LINE
  5
218
330
1F
100
AcDbEntity
  8
0
  6
Continuous
 62
     7
370
    25
100
AcDbLine
 10
4.4638012705
 20
4.8461935102
 30
0.0
 11
4.4386143336
 21
4.8461935102
 31
0.0
  0
LINE
  5
219
330
1F
100
AcDbEntity
  8
0
  6
Continuous
 62
     7
370
    25
100
AcDbLine
 10
4.4386143336
 20
4.8461935102
 30
0.0
 11
4.4386143336
 21
4.8711935102
 31
0.0
  0
LINE
  5
21A
330
1F
100
AcDbEntity
  8
0
  6
Continuous
 62
     7
370
    25
100
AcDbLine
 10
4.4386143336
 20
4.8711935102
 30
0.0
 11
4.4493675137
 21
4.8711935102
 31
0.0
  0
LINE
  5
21B
330
1F
100
AcDbEntity
  8
0
  6
Continuous
 62
     7
370
    25
100
AcDbLine
 10
4.2724818564
 20
4.8461935102
 30
0.0
 11
4.2472949195
 21
4.8461935102
 31
0.0
  0
SPLINE
  5
21C
330
1F
100
AcDbEntity
  8
0
  6
Continuous
 62
     7
370
    25
100
AcDbSpline
210
0.0
220
0.0
230
1.0
 70
     8
 71
     3
 72
    18
 73
    14
 74
     0
 42
0.000000001
 43
0.00000001
 40
0.0
 40
0.0
 40
0.0
 40
0.0
 40
0.125
 40
0.125
 40
0.2500000000000001
 40
0.2500000000000001
 40
0.5
 40
0.5
 40
0.625
 40
0.625
 40
0.75
 40
0.75
 40
1.0
 40
1.0
 40
1.0
 40
1.0
 10
4.438614333621148
 20
4.846193510151071
 30
0.0
 10
4.431657573369379
 20
4.846193510151071
 30
0.0
 10
4.42471780021136
 20
4.846785188166524
 30
0.0
 10
4.410941803097076
 20
4.84856135332231
 30
0.0
 10
4.40409832403131
 20
4.849755154703882
 30
0.0
 10
4.383583480809662
 20
4.853475327943858
 30
0.0
 10
4.369921465461424
 20
4.856135460396443
 30
0.0
 10
4.349112914215634
 20
4.856220990475028
 30
0.0
 10
4.342095326443736
 20
4.85560751609344
 30
0.0
 10
4.328162049001637
 20
4.853644437472569
 30
0.0
 10
4.32124840365009
 20
4.852341322891448
 30
0.0
 10
4.300484669828667
 20
4.848570320946178
 30
0.0
 10
4.286564440677016
 20
4.846193510151071
 30
0.0
 10
4.272481856362786
 20
4.846193510151071
 30
0.0
  0
LINE
  5
21D
330
1F
100
AcDbEntity
  8
0
  6
Continuous
 62
     7
370
    25
100
AcDbLine
 10
4.2472949195
 20
4.5511935102
 30
0.0
 11
4.4638012705
 21
4.5511935102
 31
0.0
  0
LINE
  5
21E
330
1F
100
AcDbEntity
  8
0
  6
Continuous
 62
     7
370
    25
100
AcDbLine
 10
4.2472949195
 20
4.8461935102
 30
0.0
 11
4.2472949195
 21
4.5511935102
 31
0.0
  0
CIRCLE
  5
21F
330
1F
100
AcDbEntity
  8
0
  6
Continuous
 62
     7
370
    25
100
AcDbCircle
 10
4.355548095
 20
4.7686935102
 30
0.0
 40
0.0225
  0
LINE
  5
220
330
1F
100
AcDbEntity
  8
0
  6
Continuous
 62
     7
370
    25
100
AcDbLine
 10
4.4493675137
 20
4.5261935102
 30
0.0
 11
4.2617286762
 21
4.5261935102
 31
0.0
  0
ELLIPSE
  5
221
330
1F
100
AcDbEntity
  8
0
  6
Continuous
 62
     7
370
    25
100
AcDbEllipse
 10
4.2617286762
 20
4.5511935102
 30
0.0
 11
0.0
 21
0.02499999999999947
 31
0.0
210
0.0
220
0.0
230
1.0
 40
0.5773502692
 41
1.570796326794897
 42
3.141592653589731
  0
LINE
  5
222
330
1F
100
AcDbEntity
  8
0
  6
Continuous
 62
     7
370
    25
100
AcDbLine
 10
4.2724818564
 20
4.8461935102
 30
0.0
 11
4.2724818564
 21
4.8711935102
 31
0.0
  0
LINE
  5
223
330
1F
100
AcDbEntity
  8
0
  6
Continuous
 62
     7
370
    25
100
AcDbLine
 10
4.2724818564
 20
4.8711935102
 30
0.0
 11
4.4386143336
 21
4.8711935102
 31
0.0
  0
LINE
  5
224
330
1F
100
AcDbEntity
  8
0
  6
Continuous
 62
     7
370
    25
100
AcDbLine
 10
4.2617286762
 20
4.5261935102
 30
0.0
 11
4.1679092575
 21
4.5261935102
 31
0.0
  0
ELLIPSE
  5
225
330
1F
100
AcDbEntity
  8
0
  6
Continuous
 62
     7
370
    25
100
AcDbEllipse
 10
4.1679092575
 20
4.5511935102
 30
0.0
 11
0.02886751345948113
 21
0.0
 31
6.409875621278562E-18
210
-2.220446049250330E-16
220
0.0
230
1.0
 40
0.8660254038
 41
3.141592653589793
 42
4.712388980384702
  0
LINE
  5
226
330
1F
100
AcDbEntity
  8
0
  6
Continuous
 62
     7
370
    25
100
AcDbLine
 10
4.139041744
 20
4.5511935102
 30
0.0
 11
4.2472949195
 21
4.5511935102
 31
0.0
  0
LINE
  5
227
330
1F
100
AcDbEntity
  8
0
  6
Continuous
 62
     7
370
    25
100
AcDbLine
 10
4.2617286762
 20
4.8711935102
 30
0.0
 11
4.2724818564
 21
4.8711935102
 31
0.0
  0
ELLIPSE
  5
228
330
1F
100
AcDbEntity
  8
0
  6
Continuous
 62
     7
370
    25
100
AcDbEllipse
 10
4.2617286762
 20
4.8461935102
 30
0.0
 11
0.0
 21
0.02499999999999947
 31
0.0
210
0.0
220
0.0
230
1.0
 40
0.5773502692
 41
0.0
 42
1.570796326794897
  0
LINE
  5
229
330
1F
100
AcDbEntity
  8
0
  6
Continuous
 62
     7
370
    25
100
AcDbLine
 10
4.2563520862
 20
4.8711935102
 30
0.0
 11
4.2617286762
 21
4.8711935102
 31
0.0
  0
LINE
  5
22A
330
1F
100
AcDbEntity
  8
0
  6
Continuous
 62
     7
370
    25
100
AcDbLine
 10
4.2472949195
 20
4.8461935102
 30
0.0
 11
4.2347014511
 21
4.8461935102
 31
0.0
  0
ARC
  5
22B
330
1F
100
AcDbEntity
  8
0
  6
Continuous
 62
     7
370
    25
100
AcDbCircle
 10
4.2581563058
 20
4.8477560102
 30
0.0
 40
0.0235068418674941
100
AcDbArc
 50
94.4019496523
 51
183.8112610495
  0
LINE
  5
22C
330
1F
100
AcDbEntity
  8
0
  6
Continuous
 62
     7
370
    25
100
AcDbLine
 10
4.1516352125
 20
4.8461935102
 30
0.0
 11
4.139041744
 21
4.8461935102
 31
0.0
  0
SPLINE
  5
22D
330
1F
100
AcDbEntity
  8
0
  6
Continuous
 62
     7
370
    25
100
AcDbSpline
210
0.0
220
0.0
230
1.0
 70
     8
 71
     3
 72
    18
 73
    14
 74
     0
 42
0.000000001
 43
0.00000001
 40
0.0
 40
0.0
 40
0.0
 40
0.0
 40
0.125
 40
0.125
 40
0.25
 40
0.25
 40
0.5000000000000004
 40
0.5000000000000004
 40
0.6250000000000003
 40
0.6250000000000003
 40
0.7500000000000002
 40
0.7500000000000002
 40
1.0
 40
1.0
 40
1.0
 40
1.0
 10
4.234701451096975
 20
4.846193510151071
 30
0.0
 10
4.231223070971091
 20
4.846193510151071
 30
0.0
 10
4.227753184392081
 20
4.846785188166524
 30
0.0
 10
4.220865185834939
 20
4.84856135332231
 30
0.0
 10
4.217443446302056
 20
4.849755154703882
 30
0.0
 10
4.207186024691232
 20
4.853475327943858
 30
0.0
 10
4.200355017017113
 20
4.856135460396443
 30
0.0
 10
4.189950741394218
 20
4.856220990475028
 30
0.0
 10
4.186441947508269
 20
4.85560751609344
 30
0.0
 10
4.17947530878722
 20
4.853644437472569
 30
0.0
 10
4.176018486111446
 20
4.852341322891448
 30
0.0
 10
4.165636619200735
 20
4.848570320946178
 30
0.0
 10
4.158676504624909
 20
4.846193510151071
 30
0.0
 10
4.151635212467794
 20
4.846193510151071
 30
0.0
  0
LINE
  5
22E
330
1F
100
AcDbEntity
  8
0
  6
Continuous
 62
     7
370
    25
100
AcDbLine
 10
4.139041744
 20
4.8461935102
 30
0.0
 11
4.139041744
 21
4.5511935102
 31
0.0
  0
LINE
  5
22F
330
1F
100
AcDbEntity
  8
0
  6
Continuous
 62
     7
370
    25
100
AcDbLine
 10
4.173048095
 20
4.9311935102
 30
0.0
 11
4.538048095
 21
4.9311935102
 31
0.0
  0
LINE
  5
230
330
1F
100
AcDbEntity
  8
0
  6
Continuous
 62
     7
370
    25
100
AcDbLine
 10
4.4547441038
 20
4.8711935102
 30
0.0
 11
4.5378103424
 21
4.8711935102
 31
0.0
  0
LINE
  5
231
330
1F
100
AcDbEntity
  8
0
  6
Continuous
 62
     7
370
    25
100
AcDbLine
 10
4.1732858476
 20
4.8711935102
 30
0.0
 11
4.2563520862
 21
4.8711935102
 31
0.0
  0
ARC
  5
232
330
1F
100
AcDbEntity
  8
0
  6
Continuous
 62
     7
370
    25
100
AcDbCircle
 10
4.5360061228
 20
4.8477560102
 30
0.0
 40
0.0235068418674942
100
AcDbArc
 50
356.1887389505
 51
85.5980503477
  0
ARC
  5
233
330
1F
100
AcDbEntity
  8
0
  6
Continuous
 62
     7
370
    25
100
AcDbCircle
 10
4.1750900672
 20
4.8477560102
 30
0.0
 40
0.0235068418674942
100
AcDbArc
 50
94.4019496523
 51
183.8112610495
  0
ELLIPSE
  5
234
330
1F
100
AcDbEntity
  8
0
  6
Continuous
 62
     7
370
    25
100
AcDbEllipse
 10
4.5431869325
 20
4.8461935102
 30
0.0
 11
0.02886751345948202
 21
0.0
 31
0.0
210
0.0
220
0.0
230
1.0
 40
0.8660254038
 41
0.0
 42
1.570796326794897
  0
LINE
  5
235
330
1F
100
AcDbEntity
  8
0
  6
Continuous
 62
   144
370
    18
100
AcDbLine
 10
4.5378103424
 20
4.8711935102
 30
0.0
 11
4.5431869325
 21
4.8711935102
 31
0.0
  0
ELLIPSE
  5
236
330
1F
100
AcDbEntity
  8
0
  6
Continuous
 62
     7
370
    25
100
AcDbEllipse
 10
4.1679092575
 20
4.8461935102
 30
0.0
 11
0.02886751345948113
 21
0.0
 31
6.409875621278562E-18
210
-2.220446049250330E-16
220
0.0
230
1.0
 40
0.8660254038
 41
1.570796326794897
 42
3.141592653589793
  0
LINE
  5
237
330
1F
100
AcDbEntity
  8
0
  6
Continuous
 62
   144
370
    18
100
AcDbLine
 10
4.1679092575
 20
4.8711935102
 30
0.0
 11
4.1732858476
 21
4.8711935102
 31
0.0
  0
LINE
  5
238
330
1F
100
AcDbEntity
  8
0
  6
Continuous
 62
     7
370
    25
100
AcDbLine
 10
4.565548095
 20
6.0546935102
 30
0.0
 11
4.145548095
 21
6.0546935102
 31
0.0
  0
LINE
  5
239
330
1F
100
AcDbEntity
  8
0
  6
Continuous
 62
     7
370
    25
100
AcDbLine
 10
4.565548095
 20
6.1296935102
 30
0.0
 11
4.145548095
 21
6.1296935102
 31
0.0
  0
SPLINE
  5
23A
330
1F
100
AcDbEntity
  8
0
  6
Continuous
 62
     7
370
    25
100
AcDbSpline
210
0.0
220
0.0
230
1.0
 70
     8
 71
     3
 72
    13
 73
     9
 74
     0
 42
0.000000001
 43
0.00000001
 40
0.0
 40
0.0
 40
0.0
 40
0.0
 40
0.1753579784347052
 40
0.3506806347692411
 40
0.5269186402970827
 40
0.7037643671836874
 40
0.8796215227923243
 40
1.0
 40
1.0
 40
1.0
 40
1.0
 10
4.201657242363163
 20
5.912193510151071
 30
0.0
 10
4.201825214875902
 20
5.914992078676399
 30
0.0
 10
4.202161126066924
 20
5.920588652015505
 30
0.0
 10
4.204820226543011
 20
5.928039544891815
 30
0.0
 10
4.208882643904393
 20
5.933760446042275
 30
0.0
 10
4.214173912613341
 20
5.936966206144311
 30
0.0
 10
4.219581098374636
 20
5.937661107775363
 30
0.0
 10
4.222877030981178
 20
5.936093248988093
 30
0.0
 10
4.224216367996049
 20
5.935456133015602
 30
0.0
  0
LINE
  5
23B
330
1F
100
AcDbEntity
  8
0
  6
Continuous
 62
   144
370
    18
100
AcDbLine
 10
4.2016572424
 20
5.8984435102
 30
0.0
 11
4.2016572424
 21
5.9121935102
 31
0.0
  0
LINE
  5
23C
330
1F
100
AcDbEntity
  8
0
  6
Continuous
 62
   144
370
    18
100
AcDbLine
 10
4.2266205904
 20
5.8984435102
 30
0.0
 11
4.2016572424
 21
5.8984435102
 31
0.0
  0
LINE
  5
23D
330
1F
100
AcDbEntity
  8
0
  6
Continuous
 62
   144
370
    18
100
AcDbLine
 10
4.2016572424
 20
5.9121935102
 30
0.0
 11
4.2247333405
 21
5.9121935102
 31
0.0
  0
ARC
  5
23E
330
1F
100
AcDbEntity
  8
0
  6
Continuous
 62
   144
370
    18
100
AcDbCircle
 10
4.2561782222
 20
5.9126985853
 30
0.0
 40
0.0314489377421827
100
AcDbArc
 50
152.5584165446
 51
180.9202192323
  0
LINE
  5
23F
330
1F
100
AcDbEntity
  8
0
  6
Continuous
 62
     7
370
    25
100
AcDbLine
 10
4.5605480947
 20
5.1646935102
 30
0.0
 11
4.150548095
 21
5.1646935102
 31
0.0
  0
LINE
  5
240
330
1F
100
AcDbEntity
  8
0
  6
Continuous
 62
     7
370
    25
100
AcDbLine
 10
4.261798095
 20
5.0771935102
 30
0.0
 11
4.449298095
 21
5.0771935102
 31
0.0
  0
LINE
  5
241
330
1F
100
AcDbEntity
  8
0
  6
Continuous
 62
     8
370
    25
100
AcDbLine
 10
4.490548095
 20
6.4548818904
 30
0.0
 11
4.220548095
 21
6.4548818904
 31
0.0
  0
LINE
  5
242
330
1F
100
AcDbEntity
  8
0
  6
Continuous
 62
     8
370
    25
100
AcDbLine
 10
4.145548095
 20
5.1696935102
 30
0.0
 11
4.565548095
 21
5.1696935102
 31
0.0
  0
LINE
  5
243
330
1F
100
AcDbEntity
  8
0
  6
Continuous
 62
     8
370
    25
100
AcDbLine
 10
4.565548095
 20
5.2646935102
 30
0.0
 11
4.145548095
 21
5.2646935102
 31
0.0
  0
LINE
  5
244
330
1F
100
AcDbEntity
  8
0
  6
Continuous
 62
     8
370
    25
100
AcDbLine
 10
4.449298095
 20
5.1546935102
 30
0.0
 11
4.261798095
 21
5.1546935102
 31
0.0
  0
SPLINE
  5
245
330
1F
100
AcDbEntity
  8
0
  6
Continuous
 62
     7
370
    25
100
AcDbSpline
210
0.0
220
0.0
230
1.0
 70
     8
 71
     3
 72
    17
 73
    13
 74
     0
 42
0.000000001
 43
0.00000001
 40
0.0
 40
0.0
 40
0.0
 40
0.0
 40
0.0217277166181254
 40
0.1233672987623946
 40
0.2245888568863392
 40
0.327043418617564
 40
0.4322156525155117
 40
0.5409496226866854
 40
0.6531799907015622
 40
0.7679796350618885
 40
0.8840738419328994
 40
1.0
 40
1.0
 40
1.0
 40
1.0
 10
6.640230737552154
 20
6.685761213916544
 30
0.0
 10
6.640282991529566
 20
6.686560713320933
 30
0.0
 10
6.640579683177209
 20
6.691100172464997
 30
0.0
 10
6.639087283793085
 20
6.699357978368616
 30
0.0
 10
6.635759805668933
 20
6.710158523788122
 30
0.0
 10
6.630398093905018
 20
6.720430970829549
 30
0.0
 10
6.623279208133876
 20
6.730118522144402
 30
0.0
 10
6.614359087171298
 20
6.739152213486006
 30
0.0
 10
6.603709547457748
 20
6.747425463275979
 30
0.0
 10
6.591433455144261
 20
6.754762687618166
 30
0.0
 10
6.57784443152679
 20
6.7611235526114
 30
0.0
 10
6.567883698664251
 20
6.764368891142903
 30
0.0
 10
6.562906939436265
 20
6.765990385134107
 30
0.0
  0
SPLINE
  5
246
330
1F
100
AcDbEntity
  8
0
  6
Continuous
 62
     7
370
    25
100
AcDbSpline
210
0.0
220
0.0
230
1.0
 70
     8
 71
     3
 72
    16
 73
    12
 74
     0
 42
0.000000001
 43
0.00000001
 40
0.0
 40
0.0
 40
0.0
 40
0.0
 40
0.1025862349026084
 40
0.2198490549402255
 40
0.3380274494676976
 40
0.4567528758956448
 40
0.5747428000057345
 40
0.6786278933753301
 40
0.7903864552013067
 40
0.8979892586271809
 40
1.0
 40
1.0
 40
1.0
 40
1.0
 10
6.447906939436264
 20
6.765913901633818
 30
0.0
 10
6.443469005511395
 20
6.764512591639552
 30
0.0
 10
6.433958220948575
 20
6.761509492069619
 30
0.0
 10
6.420590282651571
 20
6.755397190795731
 30
0.0
 10
6.407779268751916
 20
6.747914308482198
 30
0.0
 10
6.396440978051048
 20
6.739198371935093
 30
0.0
 10
6.38716090821727
 20
6.729713417715683
 30
0.0
 10
6.379745460220749
 20
6.719412818267768
 30
0.0
 10
6.374406524245732
 20
6.708548867193468
 30
0.0
 10
6.371007889148299
 20
6.697044390171778
 30
0.0
 10
6.370616516177444
 20
6.689298928858894
 30
0.0
 10
6.370426050208517
 20
6.685529514761342
 30
0.0
  0
LINE
  5
247
330
1F
100
AcDbEntity
  8
0
  6
Continuous
 62
     7
370
    25
100
AcDbLine
 10
6.6404069394
 20
6.6447506611
 30
0.0
 11
6.6404069394
 21
6.6855777017
 31
0.0
  0
LINE
  5
248
330
1F
100
AcDbEntity
  8
0
  6
Continuous
 62
     7
370
    25
100
AcDbLine
 10
6.3704069394
 20
6.6855777017
 30
0.0
 11
6.3704069394
 21
6.6447506611
 31
0.0
  0
LINE
  5
249
330
1F
100
AcDbEntity
  8
0
  6
Continuous
 62
     7
370
    25
100
AcDbLine
 10
6.6404069394
 20
6.5483988453
 30
0.0
 11
6.6404069394
 21
6.5789526785
 31
0.0
  0
LINE
  5
24A
330
1F
100
AcDbEntity
  8
0
  6
Continuous
 62
     7
370
    25
100
AcDbLine
 10
6.3704069394
 20
6.5674550198
 30
0.0
 11
6.3704069394
 21
6.5483988453
 31
0.0
  0
LINE
  5
24B
330
1F
100
AcDbEntity
  8
0
  6
Continuous
 62
     7
370
    25
100
AcDbLine
 10
6.6266569394
 20
6.4912409885
 30
0.0
 11
6.6266569394
 21
6.5141318836
 31
0.0
  0
LINE
  5
24C
330
1F
100
AcDbEntity
  8
0
  6
Continuous
 62
     7
370
    25
100
AcDbLine
 10
6.3841569394
 20
6.5141318836
 30
0.0
 11
6.3841569394
 21
6.4912409885
 31
0.0
  0
LINE
  5
24D
330
1F
100
AcDbEntity
  8
0
  6
Continuous
 62
     7
370
    25
100
AcDbLine
 10
6.3521249
 20
6.6329378486
 30
0.0
 11
6.3521249
 21
6.5855784815
 31
0.0
  0
LINE
  5
24E
330
1F
100
AcDbEntity
  8
0
  6
Continuous
 62
     7
370
    25
100
AcDbLine
 10
6.6586889789
 20
6.6092041065
 30
0.0
 11
6.6586889789
 21
6.6565634736
 31
0.0
  0
LINE
  5
24F
330
1F
100
AcDbEntity
  8
0
  6
Continuous
 62
     7
370
    25
100
AcDbLine
 10
6.3521249
 20
6.479428176
 30
0.0
 11
6.3521249
 21
6.4320688089
 31
0.0
  0
LINE
  5
250
330
1F
100
AcDbEntity
  8
0
  6
Continuous
 62
     7
370
    25
100
AcDbLine
 10
6.6586889789
 20
6.4556944339
 30
0.0
 11
6.6586889789
 21
6.503053801
 31
0.0
  0
LINE
  5
251
330
1F
100
AcDbEntity
  8
0
  6
Continuous
 62
     7
370
    25
100
AcDbLine
 10
6.4893501397
 20
7.6825819154
 30
0.0
 11
6.4893501397
 21
7.5398976695
 31
0.0
  0
LINE
  5
252
330
1F
100
AcDbEntity
  8
0
  6
Continuous
 62
     7
370
    25
100
AcDbLine
 10
6.4347163973
 20
7.7141213036
 30
0.0
 11
6.4347163973
 21
7.5714370577
 31
0.0
  0
LINE
  5
253
330
1F
100
AcDbEntity
  8
0
  6
Continuous
 62
     7
370
    25
100
AcDbLine
 10
6.4270607136
 20
7.7185408357
 30
0.0
 11
6.4270607136
 21
7.5758565898
 31
0.0
  0
LINE
  5
254
330
1F
100
AcDbEntity
  8
0
  6
Continuous
 62
     7
370
    25
100
AcDbLine
 10
6.6769536067
 20
7.7592925104
 30
0.0
 11
6.6769536067
 21
7.7753661484
 31
0.0
  0
LINE
  5
255
330
1F
100
AcDbEntity
  8
0
  6
Continuous
 62
     7
370
    25
100
AcDbLine
 10
6.3800826548
 20
7.7456606918
 30
0.0
 11
6.3800826548
 21
7.6029764459
 31
0.0
  0
LINE
  5
256
330
1F
100
AcDbEntity
  8
0
  6
Continuous
 62
     7
370
    25
100
AcDbLine
 10
6.3724269712
 20
7.7500802239
 30
0.0
 11
6.3724269712
 21
7.607395978
 31
0.0
  0
LINE
  5
257
330
1F
100
AcDbEntity
  8
0
  6
Continuous
 62
     7
370
    25
100
AcDbLine
 10
6.3647712875
 20
7.754499756
 30
0.0
 11
6.3647712875
 21
7.6118155101
 31
0.0
  0
LINE
  5
258
330
1F
100
AcDbEntity
  8
0
  6
Continuous
 62
     7
370
    25
100
AcDbLine
 10
6.3282925023
 20
7.7930442768
 30
0.0
 11
6.3282925023
 21
7.7769706388
 31
0.0
  0
LINE
  5
259
330
1F
100
AcDbEntity
  8
0
  6
Continuous
 62
     7
370
    25
100
AcDbLine
 10
6.5813227427
 20
7.4149769976
 30
0.0
 11
6.5922759282
 21
7.4301896696
 31
0.0
  0
SPLINE
  5
25A
330
1F
100
AcDbEntity
  8
0
  6
Continuous
 62
     7
370
    25
100
AcDbSpline
210
0.0
220
0.0
230
1.0
 70
     8
 71
     3
 72
    10
 73
     6
 74
     0
 42
0.000000001
 43
0.00000001
 40
0.0
 40
0.0
 40
0.0
 40
0.0
 40
0.2152752767177636
 40
0.5867243566463584
 40
1.0
 40
1.0
 40
1.0
 40
1.0
 10
6.54047995790701
 20
7.396197180064687
 30
0.0
 10
6.538490299072827
 20
7.391446832030399
 30
0.0
 10
6.533067561649233
 20
7.378499944042341
 30
0.0
 10
6.527881198243454
 20
7.354167309063828
 30
0.0
 10
6.527396289966713
 20
7.333835195063867
 30
0.0
 10
6.527140912795468
 20
7.323127277695179
 30
0.0
  0
SPLINE
  5
25B
330
1F
100
AcDbEntity
  8
0
  6
Continuous
 62
     7
370
    25
100
AcDbSpline
210
0.0
220
0.0
230
1.0
 70
     8
 71
     3
 72
    11
 73
     7
 74
     0
 42
0.000000001
 43
0.00000001
 40
0.0
 40
0.0
 40
0.0
 40
0.0
 40
0.2772589452351433
 40
0.5361782007703356
 40
0.7770139831695854
 40
1.0
 40
1.0
 40
1.0
 40
1.0
 10
6.554383322129451
 20
7.334892178287605
 30
0.0
 10
6.554989104771805
 20
7.34339319290487
 30
0.0
 10
6.55616059969674
 20
7.359832910362288
 30
0.0
 10
6.562288092802963
 20
7.381381619707347
 30
0.0
 10
6.570433192270047
 20
7.399764801067429
 30
0.0
 10
6.577677901673336
 20
7.409893878358622
 30
0.0
 10
6.58116085330609
 20
7.414763512780897
 30
0.0
  0
LINE
  5
25C
330
1F
100
AcDbEntity
  8
0
  6
Continuous
 62
     7
370
    25
100
AcDbLine
 10
6.5271403837
 20
7.3232751542
 30
0.0
 11
6.5271403837
 21
7.2989393016
 31
0.0
  0
LINE
  5
25D
330
1F
100
AcDbEntity
  8
0
  6
Continuous
 62
     7
370
    25
100
AcDbLine
 10
6.5543841733
 20
7.3186012208
 30
0.0
 11
6.5543841733
 21
7.3348722435
 31
0.0
  0
LINE
  5
25E
330
1F
100
AcDbEntity
  8
0
  6
Continuous
 62
     7
370
    25
100
AcDbLine
 10
6.5097238088
 20
7.4023857283
 30
0.0
 11
6.5096487894
 21
7.4010705491
 31
0.0
  0
LINE
  5
25F
330
1F
100
AcDbEntity
  8
0
  6
Continuous
 62
     7
370
    25
100
AcDbLine
 10
6.5390087541
 20
7.3924388105
 30
0.0
 11
6.5392115157
 21
7.395464924
 31
0.0
  0
LINE
  5
260
330
1F
100
AcDbEntity
  8
0
  6
Continuous
 62
     7
370
    25
100
AcDbLine
 10
6.5347589549
 20
7.3887279376
 30
0.0
 11
6.5376262505
 21
7.3945497698
 31
0.0
  0
LINE
  5
261
330
1F
100
AcDbEntity
  8
0
  6
Continuous
 62
     7
370
    25
100
AcDbLine
 10
6.5101697388
 20
7.4021282984
 30
0.0
 11
6.5059312767
 21
7.3935224136
 31
0.0
  0
SPLINE
  5
262
330
1F
100
AcDbEntity
  8
0
  6
Continuous
 62
     7
370
    25
100
AcDbSpline
210
0.0
220
0.0
230
1.0
 70
     8
 71
     3
 72
    11
 73
     7
 74
     0
 42
0.000000001
 43
0.00000001
 40
0.0
 40
0.0
 40
0.0
 40
0.0
 40
0.2973304409651631
 40
0.5630077348589801
 40
0.797178264209013
 40
1.0
 40
1.0
 40
1.0
 40
1.0
 10
6.519991034756977
 20
7.312106021116378
 30
0.0
 10
6.52031572933953
 20
7.321539862855255
 30
0.0
 10
6.520930552231028
 20
7.339403240218106
 30
0.0
 10
6.524588106163487
 20
7.360717752601413
 30
0.0
 10
6.52916070674483
 20
7.377007725010987
 30
0.0
 10
6.532924566598028
 20
7.384896866182602
 30
0.0
 10
6.534671491314083
 20
7.388558462585942
 30
0.0
  0
SPLINE
  5
263
330
1F
100
AcDbEntity
  8
0
  6
Continuous
 62
     7
370
    25
100
AcDbSpline
210
0.0
220
0.0
230
1.0
 70
     8
 71
     3
 72
    11
 73
     7
 74
     0
 42
0.000000001
 43
0.00000001
 40
0.0
 40
0.0
 40
0.0
 40
0.0
 40
0.2037946108307113
 40
0.4385001046782542
 40
0.7039556805992744
 40
1.0
 40
1.0
 40
1.0
 40
1.0
 10
6.50584737496097
 20
7.393347931606772
 30
0.0
 10
6.503877128180527
 20
7.388595543122841
 30
0.0
 10
6.49963779419645
 20
7.378369939809875
 30
0.0
 10
6.494911131550822
 20
7.35906334041341
 30
0.0
 10
6.491357205782316
 20
7.334859509487343
 30
0.0
 10
6.491007324514479
 20
7.315433092813655
 30
0.0
 10
6.49082285366654
 20
7.305190739519428
 30
0.0
  0
LINE
  5
264
330
1F
100
AcDbEntity
  8
0
  6
Continuous
 62
     7
370
    25
100
AcDbLine
 10
6.519991043
 20
7.294812075
 30
0.0
 11
6.519991043
 21
7.312088969
 31
0.0
  0
LINE
  5
265
330
1F
100
AcDbEntity
  8
0
  6
Continuous
 62
     7
370
    25
100
AcDbLine
 10
6.4908228359
 20
7.3052093366
 30
0.0
 11
6.4908228359
 21
7.2935355685
 31
0.0
  0
LINE
  5
266
330
1F
100
AcDbEntity
  8
0
  6
Continuous
 62
     7
370
    25
100
AcDbLine
 10
6.5007518379
 20
7.3855355083
 30
0.0
 11
6.4974129179
 21
7.4094926544
 31
0.0
  0
LINE
  5
267
330
1F
100
AcDbEntity
  8
0
  6
Continuous
 62
     7
370
    25
100
AcDbLine
 10
6.464431421
 20
7.4301896696
 30
0.0
 11
6.4708505934
 21
7.3841313483
 31
0.0
  0
LINE
  5
268
330
1F
100
AcDbEntity
  8
0
  6
Continuous
 62
     7
370
    25
100
AcDbLine
 10
6.5010401848
 20
7.3808445736
 30
0.0
 11
6.5007557474
 21
7.3855068702
 31
0.0
  0
LINE
  5
269
330
1F
100
AcDbEntity
  8
0
  6
Continuous
 62
     7
370
    25
100
AcDbLine
 10
6.4708543293
 20
7.3841057426
 30
0.0
 11
6.4728109468
 21
7.3572225084
 31
0.0
  0
LINE
  5
26A
330
1F
100
AcDbEntity
  8
0
  6
Continuous
 62
     7
370
    25
100
AcDbLine
 10
6.4728108899
 20
7.3572385718
 30
0.0
 11
6.4728108899
 21
7.3039336437
 31
0.0
  0
LINE
  5
26B
330
1F
100
AcDbEntity
  8
0
  6
Continuous
 62
     7
370
    25
100
AcDbLine
 10
6.4137777984
 20
7.4639388239
 30
0.0
 11
6.4289301927
 21
7.43312304
 31
0.0
  0
LINE
  5
26C
330
1F
100
AcDbEntity
  8
0
  6
Continuous
 62
     7
370
    25
100
AcDbLine
 10
6.466118899
 20
7.4180818153
 30
0.0
 11
6.460843422
 21
7.430603775
 31
0.0
  0
SPLINE
  5
26D
330
1F
100
AcDbEntity
  8
0
  6
Continuous
 62
     7
370
    25
100
AcDbSpline
210
0.0
220
0.0
230
1.0
 70
     8
 71
     3
 72
    11
 73
     7
 74
     0
 42
0.000000001
 43
0.00000001
 40
0.0
 40
0.0
 40
0.0
 40
0.0
 40
0.2622122153302162
 40
0.5162466001453467
 40
0.7621548333561218
 40
1.0
 40
1.0
 40
1.0
 40
1.0
 10
6.428920722507598
 20
7.433143495440399
 30
0.0
 10
6.433124342146447
 20
7.424312776147522
 30
0.0
 10
6.44140047964114
 20
7.406926748551346
 30
0.0
 10
6.449638572313627
 20
7.381015894311315
 30
0.0
 10
6.454983826735549
 20
7.356198851792985
 30
0.0
 10
6.455955275806156
 20
7.340534577839207
 30
0.0
 10
6.456432904420557
 20
7.332832984734102
 30
0.0
  0
LINE
  5
26E
330
1F
100
AcDbEntity
  8
0
  6
Continuous
 62
     7
370
    25
100
AcDbLine
 10
6.4564297056
 20
7.3330473449
 30
0.0
 11
6.4564297056
 21
7.3167339944
 31
0.0
  0
SPLINE
  5
26F
330
1F
100
AcDbEntity
  8
0
  6
Continuous
 62
     7
370
    25
100
AcDbSpline
210
0.0
220
0.0
230
1.0
 70
     8
 71
     3
 72
    22
 73
    18
 74
     0
 42
0.000000001
 43
0.00000001
 40
0.0
 40
0.0
 40
0.0
 40
0.0
 40
0.0565945475701137
 40
0.1016038016229858
 40
0.1355934942733265
 40
0.1588160637290701
 40
0.1738111685064139
 40
0.1838004925801378
 40
0.1944429996258134
 40
0.2181855960867414
 40
0.2548430887160046
 40
0.3088020878553476
 40
0.3965553202019185
 40
0.5095961142371601
 40
0.6480393749943609
 40
0.8117286898926915
 40
1.0
 40
1.0
 40
1.0
 40
1.0
 10
6.451914785759145
 20
7.319863706467297
 30
0.0
 10
6.450554795674202
 20
7.315003023970241
 30
0.0
 10
6.448113214837662
 20
7.306276674147029
 30
0.0
 10
6.446033312698878
 20
7.294575627995298
 30
0.0
 10
6.444800536323313
 20
7.285875510072644
 30
0.0
 10
6.444088722566566
 20
7.279731806012219
 30
0.0
 10
6.443688602320315
 20
7.276017591991846
 30
0.0
 10
6.443439197832719
 20
7.273550319381128
 30
0.0
 10
6.443119181288168
 20
7.270137962456193
 30
0.0
 10
6.442605307561852
 20
7.264278066809295
 30
0.0
 10
6.44184412512254
 20
7.254486905666002
 30
0.0
 10
6.440890732927588
 20
7.239125485097603
 30
0.0
 10
6.440011921724811
 20
7.21702788155856
 30
0.0
 10
6.439616139318313
 20
7.187531717876976
 30
0.0
 10
6.44000784959285
 20
7.151387664542379
 30
0.0
 10
6.441261199087339
 20
7.108683929313842
 30
0.0
 10
6.442345364773947
 20
7.077981663781535
 30
0.0
 10
6.442925308323564
 20
7.06155836144498
 30
0.0
  0
SPLINE
  5
270
330
1F
100
AcDbEntity
  8
0
  6
Continuous
 62
     7
370
    25
100
AcDbSpline
210
0.0
220
0.0
230
1.0
 70
     8
 71
     3
 72
    21
 73
    17
 74
     0
 42
0.000000001
 43
0.00000001
 40
0.0
 40
0.0
 40
0.0
 40
0.0
 40
0.157352943050594
 40
0.2942196719192974
 40
0.4101452598729509
 40
0.504982059904587
 40
0.5787633896477068
 40
0.6316139820012923
 40
0.6647363143581353
 40
0.6950297725443796
 40
0.7285009850070645
 40
0.7648753045393064
 40
0.8218203070833681
 40
0.8713711055442667
 40
0.9305246272066219
 40
1.0
 40
1.0
 40
1.0
 40
1.0
 10
6.567887018392256
 20
7.061518574802606
 30
0.0
 10
6.56837340834556
 20
7.074973391883055
 30
0.0
 10
6.569282863800995
 20
7.100131306253117
 30
0.0
 10
6.570425603112837
 20
7.135326302526031
 30
0.0
 10
6.571001001908249
 20
7.165268864149795
 30
0.0
 10
6.571072900210558
 20
7.189885582405958
 30
0.0
 10
6.570801708621418
 20
7.209241139113201
 30
0.0
 10
6.570405520250858
 20
7.223278912721168
 30
0.0
 10
6.569979289486922
 20
7.234000972814275
 30
0.0
 10
6.56955844042281
 20
7.242766047252943
 30
0.0
 10
6.569076660636052
 20
7.251399348691669
 30
0.0
 10
6.568349443842893
 20
7.262298289694777
 30
0.0
 10
6.567358332617789
 20
7.274727100615764
 30
0.0
 10
6.565801581956106
 20
7.289117532298513
 30
0.0
 10
6.563496393320287
 20
7.304587261016206
 30
0.0
 10
6.560541917369359
 20
7.315596798068598
 30
0.0
 10
6.558946138139752
 20
7.321543297836276
 30
0.0
  0
LINE
  5
271
330
1F
100
AcDbEntity
  8
0
  6
Continuous
 62
     7
370
    25
100
AcDbLine
 10
6.4479069394
 20
7.0490117085
 30
0.0
 11
6.4479069394
 21
6.9724611307
 31
0.0
  0
LINE
  5
272
330
1F
100
AcDbEntity
  8
0
  6
Continuous
 62
     7
370
    25
100
AcDbLine
 10
6.5629069394
 20
6.9724715226
 30
0.0
 11
6.5629069394
 21
7.0483956423
 31
0.0
  0
LINE
  5
273
330
1F
100
AcDbEntity
  8
0
  6
Continuous
 62
     7
370
    25
100
AcDbLine
 10
6.7154069394
 20
5.7178230195
 30
0.0
 11
6.7154069394
 21
6.3608489088
 31
0.0
  0
LINE
  5
274
330
1F
100
AcDbEntity
  8
0
  6
Continuous
 62
     7
370
    25
100
AcDbLine
 10
6.2954069394
 20
6.3608489088
 30
0.0
 11
6.2954069394
 21
5.7178230195
 31
0.0
  0
SPLINE
  5
275
330
1F
100
AcDbEntity
  8
0
  6
Continuous
 62
     7
370
    25
100
AcDbSpline
210
0.0
220
0.0
230
1.0
 70
     8
 71
     3
 72
    26
 73
    22
 74
     0
 42
0.000000001
 43
0.00000001
 40
0.0
 40
0.0
 40
0.0
 40
0.0
 40
0.0293648302525891
 40
0.0844010230813464
 40
0.1393381708804543
 40
0.1941549158715692
 40
0.2488561760976925
 40
0.303475691559944
 40
0.3580595230742314
 40
0.4126588741284758
 40
0.4673115578338188
 40
0.5220705042642194
 40
0.5769895583903781
 40
0.6321156238017143
 40
0.6874738346971347
 40
0.7430357214817199
 40
0.7986047589138996
 40
0.8537744208177774
 40
0.9080080583494823
 40
0.9608632620389478
 40
1.0
 40
1.0
 40
1.0
 40
1.0
 10
6.411790867339312
 20
6.369292504390629
 30
0.0
 10
6.414024269326737
 20
6.368054962834494
 30
0.0
 10
6.420443561080483
 20
6.364497994428925
 30
0.0
 10
6.432054531208481
 20
6.359421371137582
 30
0.0
 10
6.446806938090148
 20
6.354466402568683
 30
0.0
 10
6.4624273334774
 20
6.350683807511122
 30
0.0
 10
6.478658753494981
 20
6.348094838013677
 30
0.0
 10
6.495271694631821
 20
6.346729433242373
 30
0.0
 10
6.512026859722165
 20
6.346599385886234
 30
0.0
 10
6.528685589489505
 20
6.347705887490306
 30
0.0
 10
6.545010907959449
 20
6.350037581433591
 30
0.0
 10
6.560771483891433
 20
6.353572040704889
 30
0.0
 10
6.575745004089148
 20
6.358277875931861
 30
0.0
 10
6.589717542596222
 20
6.364116579539662
 30
0.0
 10
6.60248043062756
 20
6.371043449784431
 30
0.0
 10
6.613823849252354
 20
6.379001897549016
 30
0.0
 10
6.623519705196428
 20
6.387909902903769
 30
0.0
 10
6.631372434322499
 20
6.397635862120761
 30
0.0
 10
6.63709387235607
 20
6.407992804784961
 30
0.0
 10
6.640613454766943
 20
6.417872953719252
 30
0.0
 10
6.641214259236532
 20
6.424308765306588
 30
0.0
 10
6.641469863441317
 20
6.427046795042032
 30
0.0
  0
SPLINE
  5
276
330
1F
100
AcDbEntity
  8
0
  6
Continuous
 62
     7
370
    25
100
AcDbSpline
210
0.0
220
0.0
230
1.0
 70
     8
 71
     3
 72
    13
 73
     9
 74
     0
 42
0.000000001
 43
0.00000001
 40
0.0
 40
0.0
 40
0.0
 40
0.0
 40
0.1328019834418414
 40
0.3326754424294547
 40
0.5372534513562995
 40
0.7464883209741716
 40
0.9508745171868861
 40
1.0
 40
1.0
 40
1.0
 40
1.0
 10
6.372501989615633
 20
6.412455160792636
 30
0.0
 10
6.373317770337605
 20
6.410169873557692
 30
0.0
 10
6.375361340814294
 20
6.404445117629654
 30
0.0
 10
6.380811118763178
 20
6.395845243202032
 30
0.0
 10
6.388486066195451
 20
6.38668506072622
 30
0.0
 10
6.397924678897933
 20
6.378310294762908
 30
0.0
 10
6.406045538840531
 20
6.37267030787138
 30
0.0
 10
6.410858258684422
 20
6.369840805286102
 30
0.0
 10
6.411790867339312
 20
6.369292504390629
 30
0.0
  0
LINE
  5
277
330
1F
100
AcDbEntity
  8
0
  6
Continuous
 62
     7
370
    25
100
AcDbLine
 10
6.4116569394
 20
5.5258660295
 30
0.0
 11
6.4116569394
 21
5.4198399277
 31
0.0
  0
LINE
  5
278
330
1F
100
AcDbEntity
  8
0
  6
Continuous
 62
     7
370
    25
100
AcDbLine
 10
6.5991569394
 20
5.4198399277
 30
0.0
 11
6.5991569394
 21
5.5257256021
 31
0.0
  0
LINE
  5
279
330
1F
100
AcDbEntity
  8
0
  6
Continuous
 62
     7
370
    25
100
AcDbLine
 10
6.5629069394
 20
6.6937431098
 30
0.0
 11
6.5629069394
 21
6.8778992195
 31
0.0
  0
LINE
  5
27A
330
1F
100
AcDbEntity
  8
0
  6
Continuous
 62
     7
370
    25
100
AcDbLine
 10
6.4479069394
 20
6.8804164765
 30
0.0
 11
6.4479069394
 21
6.6937431098
 31
0.0
  0
LINE
  5
27B
330
1F
100
AcDbEntity
  8
0
  6
Continuous
 62
     7
370
    25
100
AcDbLine
 10
6.6879069394
 20
5.3924315059
 30
0.0
 11
6.6879069394
 21
5.4414239546
 31
0.0
  0
LINE
  5
27C
330
1F
100
AcDbEntity
  8
0
  6
Continuous
 62
     7
370
    25
100
AcDbLine
 10
6.3229069394
 20
5.4414239546
 30
0.0
 11
6.3229069394
 21
5.3924315059
 31
0.0
  0
LINE
  5
27D
330
1F
100
AcDbEntity
  8
0
  6
Continuous
 62
     7
370
    25
100
AcDbLine
 10
6.3779069394
 20
5.3170517885
 30
0.0
 11
6.3779069394
 21
5.315035202
 31
0.0
  0
LINE
  5
27E
330
1F
100
AcDbEntity
  8
0
  6
Continuous
 62
     7
370
    25
100
AcDbLine
 10
6.7128365702
 20
5.3469496049
 30
0.0
 11
6.7065453938
 21
5.3605037374
 31
0.0
  0
LINE
  5
27F
330
1F
100
AcDbEntity
  8
0
  6
Continuous
 62
     7
370
    25
100
AcDbLine
 10
6.3606701017
 20
5.031111081
 30
0.0
 11
6.5583842989
 21
5.0005279023
 31
0.0
  0
SPLINE
  5
280
330
1F
100
AcDbEntity
  8
0
  6
Continuous
 62
     7
370
    25
100
AcDbSpline
210
0.0
220
0.0
230
1.0
 70
     8
 71
     3
 72
    13
 73
     9
 74
     0
 42
0.000000001
 43
0.00000001
 40
0.0
 40
0.0
 40
0.0
 40
0.0
 40
0.0290610217324371
 40
0.1726145624176241
 40
0.3501615107959718
 40
0.579813988245483
 40
0.9242110351311555
 40
1.0
 40
1.0
 40
1.0
 40
1.0
 10
6.706506889866882
 20
5.360478773500318
 30
0.0
 10
6.706358253619938
 20
5.360782800116081
 30
0.0
 10
6.705475394752759
 20
5.36258863549677
 30
0.0
 10
6.703355392024181
 20
5.367687046544652
 30
0.0
 10
6.700034397183294
 20
5.376286769414318
 30
0.0
 10
6.695343928439041
 20
5.389089097308537
 30
0.0
 10
6.69130597068303
 20
5.400483800770031
 30
0.0
 10
6.688426338744478
 20
5.407098833545763
 30
0.0
 10
6.687906939436264
 20
5.408291987226802
 30
0.0
  0
LINE
  5
281
330
1F
100
AcDbEntity
  8
0
  6
Continuous
 62
     7
370
    25
100
AcDbLine
 10
6.5592541365
 20
5.0006907216
 30
0.0
 11
6.7063674146
 21
5.0856174093
 31
0.0
  0
LINE
  5
282
330
1F
100
AcDbEntity
  8
0
  6
Continuous
 62
     7
370
    25
100
AcDbLine
 10
6.3192664027
 20
5.4260943907
 30
0.0
 11
6.3044464643
 21
5.4175390224
 31
0.0
  0
SPLINE
  5
283
330
1F
100
AcDbEntity
  8
0
  6
Continuous
 62
     7
370
    25
100
AcDbSpline
210
0.0
220
0.0
230
1.0
 70
     8
 71
     3
 72
     9
 73
     5
 74
     0
 42
0.000000001
 43
0.00000001
 40
0.0
 40
0.0
 40
0.0
 40
0.0
 40
0.4015053626164479
 40
1.0
 40
1.0
 40
1.0
 40
1.0
 10
6.322906939436264
 20
5.428246713771363
 30
0.0
 10
6.322405002563965
 20
5.427902526265738
 30
0.0
 10
6.321154865158507
 20
5.427045283654129
 30
0.0
 10
6.320028287561126
 20
5.426468521209353
 30
0.0
 10
6.319354036910498
 20
5.42612333197911
 30
0.0
  0
LINE
  5
284
330
1F
100
AcDbEntity
  8
0
  6
Continuous
 62
     7
370
    25
100
AcDbLine
 10
6.2979773086
 20
5.1562068269
 30
0.0
 11
6.3535579107
 21
5.0364602499
 31
0.0
  0
LINE
  5
285
330
1F
100
AcDbEntity
  8
0
  6
Continuous
 62
     7
370
    25
100
AcDbLine
 10
6.2954069394
 20
6.4200481177
 30
0.0
 11
6.2954069394
 21
6.3588075568
 31
0.0
  0
LINE
  5
286
330
1F
100
AcDbEntity
  8
0
  6
Continuous
 62
     7
370
    25
100
AcDbLine
 10
6.7154069394
 20
6.3588075568
 30
0.0
 11
6.7154069394
 21
6.4200481177
 31
0.0
  0
LINE
  5
287
330
1F
100
AcDbEntity
  8
0
  6
Continuous
 62
     7
370
    25
100
AcDbLine
 10
6.7154069394
 20
5.6361689383
 30
0.0
 11
6.7154069394
 21
5.7137403154
 31
0.0
  0
LINE
  5
288
330
1F
100
AcDbEntity
  8
0
  6
Continuous
 62
     7
370
    25
100
AcDbLine
 10
6.2954069394
 20
5.7137403154
 30
0.0
 11
6.2954069394
 21
5.6361689383
 31
0.0
  0
SPLINE
  5
289
330
1F
100
AcDbEntity
  8
0
  6
Continuous
 62
     7
370
    25
100
AcDbSpline
210
0.0
220
0.0
230
1.0
 70
     8
 71
     3
 72
    12
 73
     8
 74
     0
 42
0.000000001
 43
0.00000001
 40
0.0
 40
0.0
 40
0.0
 40
0.0
 40
0.0796067418157515
 40
0.3175997950199591
 40
0.556719142929888
 40
0.7965683022739128
 40
1.0
 40
1.0
 40
1.0
 40
1.0
 10
6.310431017339159
 20
5.590504628915688
 30
0.0
 10
6.311230605812533
 20
5.589217993636576
 30
0.0
 10
6.314420651397259
 20
5.584084821601257
 30
0.0
 10
6.321928585402827
 20
5.57561850158653
 30
0.0
 10
6.332901795728507
 20
5.565241410531033
 30
0.0
 10
6.344967521644913
 20
5.556034503935808
 30
0.0
 10
6.353866368591328
 20
5.550634875268936
 30
0.0
 10
6.357950252461431
 20
5.548156862493802
 30
0.0
  0
SPLINE
  5
28A
330
1F
100
AcDbEntity
  8
0
  6
Continuous
 62
     7
370
    25
100
AcDbSpline
210
0.0
220
0.0
230
1.0
 70
     8
 71
     3
 72
    28
 73
    24
 74
     0
 42
0.000000001
 43
0.00000001
 40
0.0
 40
0.0
 40
0.0
 40
0.0
 40
0.0264613045685129
 40
0.0766571673144203
 40
0.126842633301033
 40
0.1770036098733241
 40
0.2271397354978457
 40
0.2772543942510216
 40
0.3273528799955723
 40
0.3774414051930742
 40
0.4275266088653187
 40
0.4776149648513234
 40
0.5277115118202883
 40
0.5778232728360049
 40
0.6279572089540976
 40
0.6781199159784155
 40
0.7283169671907335
 40
0.7785516175240843
 40
0.8288224453984697
 40
0.8791193970160391
 40
0.9294076586717561
 40
0.9796306558870715
 40
0.9999999999999999
 40
0.9999999999999999
 40
0.9999999999999999
 40
0.9999999999999999
 10
6.357950252461431
 20
5.548156862493802
 30
0.0
 10
6.360596114873649
 20
5.546677156333073
 30
0.0
 10
6.368261055092266
 20
5.542390516479565
 30
0.0
 10
6.381999830560111
 20
5.535991312301572
 30
0.0
 10
6.399434126017079
 20
5.52933869960256
 30
0.0
 10
6.417916235628671
 20
5.523745164448149
 30
0.0
 10
6.43723897854715
 20
5.519246700288012
 30
0.0
 10
6.457221394897308
 20
5.515887503862941
 30
0.0
 10
6.477668208513133
 20
5.51369657595464
 30
0.0
 10
6.498382377492532
 20
5.512693782009901
 30
0.0
 10
6.519163821890447
 20
5.512887975906165
 30
0.0
 10
6.539811838229141
 20
5.51427733525429
 30
0.0
 10
6.560127055965776
 20
5.516849241760268
 30
0.0
 10
6.579913482221541
 20
5.520580524857557
 30
0.0
 10
6.598980403029931
 20
5.525437914947648
 30
0.0
 10
6.617144123079097
 20
5.531378424386496
 30
0.0
 10
6.634228158795633
 20
5.538350251227437
 30
0.0
 10
6.650069064174119
 20
5.546292119255033
 30
0.0
 10
6.664499706117924
 20
5.555138273929408
 30
0.0
 10
6.677414120855736
 20
5.564800545210739
 30
0.0
 10
6.688524520915678
 20
5.575231278109198
 30
0.0
 10
6.696349355307669
 20
5.584021483429983
 30
0.0
 10
6.699746629551329
 20
5.589483018111722
 30
0.0
 10
6.700726909377909
 20
5.591058938065981
 30
0.0
  0
LWPOLYLINE
  5
28B
330
1F
100
AcDbEntity
  8
0
  6
Continuous
 62
     7
370
    25
100
AcDbPolyline
 90
       19
 70
   128
 43
0.0
 10
6.409947524
 20
6.5896431136
 10
6.4232241465
 20
6.5829215879
 10
6.4379069394
 20
6.5772579749
 10
6.4537446761
 20
6.5727491804
 10
6.4704663683
 20
6.5694723512
 10
6.4877859035
 20
6.5674835548
 10
6.5054069394
 20
6.56681682
 10
6.5230279754
 20
6.5674835548
 10
6.5403475105
 20
6.5694723512
 10
6.5570692028
 20
6.5727491804
 10
6.5729069394
 20
6.5772579749
 10
6.5875897324
 20
6.5829215879
 10
6.6008663549
 20
6.5896431136
 10
6.6125096404
 20
6.5973075446
 10
6.6223203689
 20
6.6057837405
 10
6.6301306763
 20
6.6149266713
 10
6.635806926
 20
6.6245798988
 10
6.6392519957
 20
6.6345782536
 10
6.6404069394
 20
6.6447506611
  0
ARC
  5
28C
330
1F
100
AcDbEntity
  8
0
  6
Continuous
 62
     7
370
    25
100
AcDbCircle
 10
6.4382598966
 20
6.6516970014
 30
0.0
 40
0.0682075907870343
100
AcDbArc
 50
185.8452026488
 51
245.4749383088
  0
ARC
  5
28D
330
1F
100
AcDbEntity
  8
0
  6
Continuous
 62
     7
370
    25
100
AcDbCircle
 10
6.5907613873
 20
6.5984848315
 30
0.0
 40
0.0262176390177082
100
AcDbArc
 50
270.9741664487
 51
319.2349393523
  0
LINE
  5
28E
330
1F
100
AcDbEntity
  8
0
  6
Continuous
 62
     7
370
    25
100
AcDbLine
 10
6.4629250894
 20
6.5604581694
 30
0.0
 11
6.5912071289
 21
6.5722709819
 31
0.0
  0
ARC
  5
28F
330
1F
100
AcDbEntity
  8
0
  6
Continuous
 62
     7
370
    25
100
AcDbCircle
 10
6.4585751061
 20
6.5961994773
 30
0.0
 40
0.0360050475335428
100
AcDbArc
 50
238.15073647
 51
276.9391945639
  0
LINE
  5
290
330
1F
100
AcDbEntity
  8
0
  6
Continuous
 62
     7
370
    25
100
AcDbLine
 10
6.3577135755
 20
6.6238430388
 30
0.0
 11
6.4395757341
 21
6.5656153751
 31
0.0
  0
ARC
  5
291
330
1F
100
AcDbEntity
  8
0
  6
Continuous
 62
     7
370
    25
100
AcDbCircle
 10
6.3623532698
 20
6.6327951253
 30
0.0
 40
0.0100829865205806
100
AcDbArc
 50
148.2892770585
 51
242.6031609696
  0
LINE
  5
292
330
1F
100
AcDbEntity
  8
0
  6
Continuous
 62
     7
370
    25
100
AcDbLine
 10
6.3704069394
 20
6.6631892766
 30
0.0
 11
6.3537755446
 21
6.6380950543
 31
0.0
  0
LINE
  5
293
330
1F
100
AcDbEntity
  8
0
  6
Continuous
 62
     7
370
    25
100
AcDbLine
 10
6.6531003034
 20
6.6656582835
 30
0.0
 11
6.6404069394
 21
6.6746869353
 31
0.0
  0
ARC
  5
294
330
1F
100
AcDbEntity
  8
0
  6
Continuous
 62
     7
370
    25
100
AcDbCircle
 10
6.648460609
 20
6.6567061969
 30
0.0
 40
0.0100829865205788
100
AcDbArc
 50
328.2892770585
 51
62.6031609696
  0
LINE
  5
295
330
1F
100
AcDbEntity
  8
0
  6
Continuous
 62
     7
370
    25
100
AcDbLine
 10
6.6106184534
 20
6.5813657917
 30
0.0
 11
6.6570383342
 21
6.6514062679
 31
0.0
  0
LWPOLYLINE
  5
296
330
1F
100
AcDbEntity
  8
0
  6
Continuous
 62
     7
370
    25
100
AcDbPolyline
 90
       18
 70
   128
 43
0.0
 10
6.4559094648
 20
6.6774169381
 10
6.4658473904
 20
6.6726529587
 10
6.4771324691
 20
6.6690242738
 10
6.4893804009
 20
6.6666544541
 10
6.5021740973
 20
6.6656242008
 10
6.5150778843
 20
6.665968598
 10
6.5276523388
 20
6.6676759176
 10
6.5394692529
 20
6.670688019
 10
6.5501262158
 20
6.6749023286
 10
6.5592603174
 20
6.6801753332
 10
6.5665605068
 20
6.686327467
 10
6.5717781848
 20
6.6931492263
 10
6.5747356696
 20
6.7004083044
 10
6.5753322477
 20
6.707857502
 10
6.5735476032
 20
6.7152431457
 10
6.5694425102
 20
6.7223137263
 10
6.5631567627
 20
6.7288284635
 10
6.5629069394
 20
6.7290375857
  0
LWPOLYLINE
  5
297
330
1F
100
AcDbEntity
  8
0
  6
Continuous
 62
     7
370
    25
100
AcDbPolyline
 90
        9
 70
   128
 43
0.0
 10
6.4479069394
 20
6.7290375857
 10
6.4442533721
 20
6.725654977
 10
6.4390356941
 20
6.7188332177
 10
6.4360782093
 20
6.7115741396
 10
6.4354816312
 20
6.704124942
 10
6.4372662756
 20
6.6967392983
 10
6.4413713686
 20
6.6896687177
 10
6.4476571162
 20
6.6831539805
 10
6.4559094648
 20
6.6774169381
  0
LINE
  5
298
330
1F
100
AcDbEntity
  8
0
  6
Continuous
 62
     7
370
    25
100
AcDbLine
 10
6.4629250894
 20
6.5604581694
 30
0.0
 11
6.4629250894
 21
6.5130988023
 31
0.0
  0
LINE
  5
299
330
1F
100
AcDbEntity
  8
0
  6
Continuous
 62
     7
370
    25
100
AcDbLine
 10
6.5912071289
 20
6.5249116148
 30
0.0
 11
6.5912071289
 21
6.5722709819
 31
0.0
  0
LINE
  5
29A
330
1F
100
AcDbEntity
  8
0
  6
Continuous
 62
     7
370
    25
100
AcDbLine
 10
6.4629250894
 20
6.5130988023
 30
0.0
 11
6.5912071289
 21
6.5249116148
 31
0.0
  0
ARC
  5
29B
330
1F
100
AcDbEntity
  8
0
  6
Continuous
 62
     7
370
    25
100
AcDbCircle
 10
6.36351946
 20
6.5863158327
 30
0.0
 40
0.0114183924116738
100
AcDbArc
 50
183.7024937641
 51
239.438177559
  0
LINE
  5
29C
330
1F
100
AcDbEntity
  8
0
  6
Continuous
 62
     7
370
    25
100
AcDbLine
 10
6.3577135755
 20
6.5764836717
 30
0.0
 11
6.4395757341
 21
6.518256008
 31
0.0
  0
ARC
  5
29D
330
1F
100
AcDbEntity
  8
0
  6
Continuous
 62
     7
370
    25
100
AcDbCircle
 10
6.4585751061
 20
6.5488401102
 30
0.0
 40
0.0360050475335285
100
AcDbArc
 50
238.1507364699
 51
276.9391945639
  0
ARC
  5
29E
330
1F
100
AcDbEntity
  8
0
  6
Continuous
 62
     7
370
    25
100
AcDbCircle
 10
6.5907613873
 20
6.5511254644
 30
0.0
 40
0.0262176390176992
100
AcDbArc
 50
270.9741664487
 51
319.2349393524
  0
LINE
  5
29F
330
1F
100
AcDbEntity
  8
0
  6
Continuous
 62
     7
370
    25
100
AcDbLine
 10
6.6106184534
 20
6.5340064247
 30
0.0
 11
6.6570383342
 21
6.6040469008
 31
0.0
  0
ARC
  5
2A0
330
1F
100
AcDbEntity
  8
0
  6
Continuous
 62
     7
370
    25
100
AcDbCircle
 10
6.6494252363
 20
6.6093263526
 30
0.0
 40
0.0092645492062136
100
AcDbArc
 50
325.2598692625
 51
359.2439580513
  0
LINE
  5
2A1
330
1F
100
AcDbEntity
  8
0
  6
Continuous
 62
     7
370
    25
100
AcDbLine
 10
6.4395757341
 20
6.518256008
 30
0.0
 11
6.4395757341
 21
6.5656153751
 31
0.0
  0
LWPOLYLINE
  5
2A2
330
1F
100
AcDbEntity
  8
0
  6
Continuous
 62
     7
370
    25
100
AcDbPolyline
 90
       19
 70
   128
 43
0.0
 10
6.409947524
 20
6.4932912978
 10
6.4232241465
 20
6.4865697721
 10
6.4379069394
 20
6.4809061591
 10
6.4537446761
 20
6.4763973646
 10
6.4704663683
 20
6.4731205354
 10
6.4877859035
 20
6.471131739
 10
6.5054069394
 20
6.4704650042
 10
6.5230279754
 20
6.471131739
 10
6.5403475105
 20
6.4731205354
 10
6.5570692028
 20
6.4763973646
 10
6.5729069394
 20
6.4809061591
 10
6.5875897324
 20
6.4865697721
 10
6.6008663549
 20
6.4932912978
 10
6.6125096404
 20
6.5009557288
 10
6.6223203689
 20
6.5094319247
 10
6.6301306763
 20
6.5185748555
 10
6.635806926
 20
6.528228083
 10
6.6392519957
 20
6.5382264378
 10
6.6404069394
 20
6.5483988453
  0
ARC
  5
2A3
330
1F
100
AcDbEntity
  8
0
  6
Continuous
 62
     7
370
    25
100
AcDbCircle
 10
6.4382598966
 20
6.5553451856
 30
0.0
 40
0.0682075907870344
100
AcDbArc
 50
185.8452026488
 51
245.4749383088
  0
LINE
  5
2A4
330
1F
100
AcDbEntity
  8
0
  6
Continuous
 62
     7
370
    25
100
AcDbLine
 10
6.3577135755
 20
6.6238430388
 30
0.0
 11
6.3577135755
 21
6.5764836717
 31
0.0
  0
LINE
  5
2A5
330
1F
100
AcDbEntity
  8
0
  6
Continuous
 62
     7
370
    25
100
AcDbLine
 10
6.6106184534
 20
6.5813657917
 30
0.0
 11
6.6106184534
 21
6.5340064247
 31
0.0
  0
LINE
  5
2A6
330
1F
100
AcDbEntity
  8
0
  6
Continuous
 62
     7
370
    25
100
AcDbLine
 10
6.6570383342
 20
6.6040469008
 30
0.0
 11
6.6570383342
 21
6.6514062679
 31
0.0
  0
LWPOLYLINE
  5
2A7
330
1F
100
AcDbEntity
  8
0
  6
Continuous
 62
     7
370
    25
100
AcDbPolyline
 90
       18
 70
   128
 43
0.0
 10
6.4196702422
 20
6.4417462467
 10
6.4324368679
 20
6.4353395894
 10
6.446623773
 20
6.4300209893
 10
6.4619548256
 20
6.4258939668
 10
6.4781316241
 20
6.4230388498
 10
6.4948393056
 20
6.4215112098
 10
6.5117526741
 20
6.4213407806
 10
6.5285425301
 20
6.4225308795
 10
6.5448820782
 20
6.4250583425
 10
6.5604532875
 20
6.4288739754
 10
6.5749530823
 20
6.4339035113
 10
6.5880992406
 20
6.440049056
 10
6.5996358873
 20
6.4471909934
 10
6.6093384746
 20
6.4551903138
 10
6.6170181529
 20
6.4638913196
 10
6.6225254459
 20
6.4731246556
 10
6.6257531603
 20
6.4827106054
 10
6.6266569394
 20
6.4912409885
  0
ARC
  5
2A8
330
1F
100
AcDbEntity
  8
0
  6
Continuous
 62
     7
370
    25
100
AcDbCircle
 10
6.4445164854
 20
6.497061905
 30
0.0
 40
0.0606395733576097
100
AcDbArc
 50
185.5084206774
 51
245.8117202802
  0
ARC
  5
2A9
330
1F
100
AcDbEntity
  8
0
  6
Continuous
 62
     7
370
    25
100
AcDbCircle
 10
6.5907613873
 20
6.4449751588
 30
0.0
 40
0.0262176390177058
100
AcDbArc
 50
270.9741664487
 51
319.2349393523
  0
LINE
  5
2AA
330
1F
100
AcDbEntity
  8
0
  6
Continuous
 62
     7
370
    25
100
AcDbLine
 10
6.4629250894
 20
6.4069484968
 30
0.0
 11
6.5912071289
 21
6.4187613093
 31
0.0
  0
ARC
  5
2AB
330
1F
100
AcDbEntity
  8
0
  6
Continuous
 62
     7
370
    25
100
AcDbCircle
 10
6.4585751061
 20
6.4426898047
 30
0.0
 40
0.0360050475335343
100
AcDbArc
 50
238.15073647
 51
276.9391945639
  0
LINE
  5
2AC
330
1F
100
AcDbEntity
  8
0
  6
Continuous
 62
     7
370
    25
100
AcDbLine
 10
6.3577135755
 20
6.4703333661
 30
0.0
 11
6.4395757341
 21
6.4121057024
 31
0.0
  0
ARC
  5
2AD
330
1F
100
AcDbEntity
  8
0
  6
Continuous
 62
     7
370
    25
100
AcDbCircle
 10
6.3623532698
 20
6.4792854527
 30
0.0
 40
0.0100829865205782
100
AcDbArc
 50
148.2892770585
 51
242.6031609696
  0
LINE
  5
2AE
330
1F
100
AcDbEntity
  8
0
  6
Continuous
 62
     7
370
    25
100
AcDbLine
 10
6.3784774486
 20
6.5218567637
 30
0.0
 11
6.3537755446
 21
6.4845853817
 31
0.0
  0
LINE
  5
2AF
330
1F
100
AcDbEntity
  8
0
  6
Continuous
 62
     7
370
    25
100
AcDbLine
 10
6.6531003034
 20
6.5121486108
 30
0.0
 11
6.6344154225
 21
6.5254389635
 31
0.0
  0
ARC
  5
2B0
330
1F
100
AcDbEntity
  8
0
  6
Continuous
 62
     7
370
    25
100
AcDbCircle
 10
6.648460609
 20
6.5031965243
 30
0.0
 40
0.0100829865205802
100
AcDbArc
 50
328.2892770585
 51
62.6031609696
  0
LINE
  5
2B1
330
1F
100
AcDbEntity
  8
0
  6
Continuous
 62
     7
370
    25
100
AcDbLine
 10
6.6106184534
 20
6.4278561191
 30
0.0
 11
6.6570383342
 21
6.4978965953
 31
0.0
  0
LINE
  5
2B2
330
1F
100
AcDbEntity
  8
0
  6
Continuous
 62
     7
370
    25
100
AcDbLine
 10
6.4629250894
 20
6.4069484968
 30
0.0
 11
6.4629250894
 21
6.3595891297
 31
0.0
  0
LINE
  5
2B3
330
1F
100
AcDbEntity
  8
0
  6
Continuous
 62
     7
370
    25
100
AcDbLine
 10
6.5912071289
 20
6.3714019422
 30
0.0
 11
6.5912071289
 21
6.4187613093
 31
0.0
  0
LINE
  5
2B4
330
1F
100
AcDbEntity
  8
0
  6
Continuous
 62
   144
370
    18
100
AcDbLine
 10
6.4629250894
 20
6.3595891297
 30
0.0
 11
6.5912071289
 21
6.3714019422
 31
0.0
  0
LINE
  5
2B5
330
1F
100
AcDbEntity
  8
0
  6
Continuous
 62
     7
370
    25
100
AcDbLine
 10
6.4395757341
 20
6.3647463354
 30
0.0
 11
6.4395757341
 21
6.4121057024
 31
0.0
  0
ARC
  5
2B6
330
1F
100
AcDbEntity
  8
0
  6
Continuous
 62
   144
370
    18
100
AcDbCircle
 10
6.4585751061
 20
6.3953304376
 30
0.0
 40
0.0360050475335393
100
AcDbArc
 50
238.15073647
 51
276.9391945639
  0
LINE
  5
2B7
330
1F
100
AcDbEntity
  8
0
  6
Continuous
 62
     7
370
    25
100
AcDbLine
 10
6.3577135755
 20
6.4703333661
 30
0.0
 11
6.3577135755
 21
6.422973999
 31
0.0
  0
LINE
  5
2B8
330
1F
100
AcDbEntity
  8
0
  6
Continuous
 62
   144
370
    18
100
AcDbLine
 10
6.3577135755
 20
6.422973999
 30
0.0
 11
6.4395757341
 21
6.3647463354
 31
0.0
  0
LINE
  5
2B9
330
1F
100
AcDbEntity
  8
0
  6
Continuous
 62
     7
370
    25
100
AcDbLine
 10
6.6106184534
 20
6.4278561191
 30
0.0
 11
6.6106184534
 21
6.380496752
 31
0.0
  0
ARC
  5
2BA
330
1F
100
AcDbEntity
  8
0
  6
Continuous
 62
   144
370
    18
100
AcDbCircle
 10
6.5907613873
 20
6.3976157918
 30
0.0
 40
0.0262176390176978
100
AcDbArc
 50
270.9741664487
 51
319.2349393523
  0
LINE
  5
2BB
330
1F
100
AcDbEntity
  8
0
  6
Continuous
 62
     7
370
    25
100
AcDbLine
 10
6.6570383342
 20
6.4505372282
 30
0.0
 11
6.6570383342
 21
6.4978965953
 31
0.0
  0
LINE
  5
2BC
330
1F
100
AcDbEntity
  8
0
  6
Continuous
 62
   144
370
    18
100
AcDbLine
 10
6.6106184534
 20
6.380496752
 30
0.0
 11
6.6570383342
 21
6.4505372282
 31
0.0
  0
ARC
  5
2BD
330
1F
100
AcDbEntity
  8
0
  6
Continuous
 62
   144
370
    18
100
AcDbCircle
 10
6.36351946
 20
6.43280616
 30
0.0
 40
0.0114183924116898
100
AcDbArc
 50
183.7024937641
 51
239.4381775589
  0
ARC
  5
2BE
330
1F
100
AcDbEntity
  8
0
  6
Continuous
 62
   144
370
    18
100
AcDbCircle
 10
6.6494252363
 20
6.45581668
 30
0.0
 40
0.0092645492062133
100
AcDbArc
 50
325.2598692625
 51
359.2439580513
  0
ARC
  5
2BF
330
1F
100
AcDbEntity
  8
0
  6
Continuous
 62
     7
370
    25
100
AcDbCircle
 10
6.5179344218
 20
7.69262417
 30
0.0
 40
0.0090769010309721
100
AcDbArc
 50
242.6096722366
 51
297.3903277634
  0
LINE
  5
2C0
330
1F
100
AcDbEntity
  8
0
  6
Continuous
 62
     7
370
    25
100
AcDbLine
 10
6.3300221866
 20
7.790633623
 30
0.0
 11
6.5137585943
 21
7.6845648525
 31
0.0
  0
ARC
  5
2C1
330
1F
100
AcDbEntity
  8
0
  6
Continuous
 62
     7
370
    25
100
AcDbCircle
 10
6.33093711
 20
7.7930442768
 30
0.0
 40
0.0025784369104406
100
AcDbArc
 50
110.7834207995
 51
249.2165792005
  0
LINE
  5
2C2
330
1F
100
AcDbEntity
  8
0
  6
Continuous
 62
     7
370
    25
100
AcDbLine
 10
6.4831358597
 20
7.8838455727
 30
0.0
 11
6.3300221866
 21
7.7954549307
 31
0.0
  0
ARC
  5
2C3
330
1F
100
AcDbEntity
  8
0
  6
Continuous
 62
     7
370
    25
100
AcDbCircle
 10
6.4873116872
 20
7.8757862553
 30
0.0
 40
0.0090769010309772
100
AcDbArc
 50
62.6096722366
 51
117.3903277634
  0
LINE
  5
2C4
330
1F
100
AcDbEntity
  8
0
  6
Continuous
 62
     7
370
    25
100
AcDbLine
 10
6.5346377316
 20
7.8589354827
 30
0.0
 11
6.4914875146
 21
7.8838455727
 31
0.0
  0
LINE
  5
2C5
330
1F
100
AcDbEntity
  8
0
  6
Continuous
 62
     7
370
    25
100
AcDbLine
 10
6.5207183067
 20
7.8508999698
 30
0.0
 11
6.5346377316
 21
7.8589354827
 31
0.0
  0
LINE
  5
2C6
330
1F
100
AcDbEntity
  8
0
  6
Continuous
 62
     7
370
    25
100
AcDbLine
 10
6.5207183067
 20
7.8508999698
 30
0.0
 11
6.6181542805
 21
7.7946513794
 31
0.0
  0
LINE
  5
2C7
330
1F
100
AcDbEntity
  8
0
  6
Continuous
 62
     7
370
    25
100
AcDbLine
 10
6.6181542805
 20
7.7946513794
 30
0.0
 11
6.6320737054
 21
7.8026868923
 31
0.0
  0
LINE
  5
2C8
330
1F
100
AcDbEntity
  8
0
  6
Continuous
 62
     7
370
    25
100
AcDbLine
 10
6.6752239223
 20
7.7777768023
 30
0.0
 11
6.6320737054
 21
7.8026868923
 31
0.0
  0
ARC
  5
2C9
330
1F
100
AcDbEntity
  8
0
  6
Continuous
 62
     7
370
    25
100
AcDbCircle
 10
6.6743089989
 20
7.7753661484
 30
0.0
 40
0.0025784369104393
100
AcDbArc
 50
290.7834207995
 51
69.2165792005
  0
LINE
  5
2CA
330
1F
100
AcDbEntity
  8
0
  6
Continuous
 62
     7
370
    25
100
AcDbLine
 10
6.5221102492
 20
7.6845648525
 30
0.0
 11
6.6752239223
 21
7.7729554945
 31
0.0
  0
LINE
  5
2CB
330
1F
100
AcDbEntity
  8
0
  6
Continuous
 62
     7
370
    25
100
AcDbLine
 10
6.524198163
 20
7.7677324112
 30
0.0
 11
6.4747842048
 21
7.7392063403
 31
0.0
  0
LINE
  5
2CC
330
1F
100
AcDbEntity
  8
0
  6
Continuous
 62
     7
370
    25
100
AcDbLine
 10
6.4740882336
 20
7.7966602576
 30
0.0
 11
6.524198163
 21
7.7677324112
 31
0.0
  0
LINE
  5
2CD
330
1F
100
AcDbEntity
  8
0
  6
Continuous
 62
     7
370
    25
100
AcDbLine
 10
6.4246742754
 20
7.7681341868
 30
0.0
 11
6.4740882336
 21
7.7966602576
 31
0.0
  0
LINE
  5
2CE
330
1F
100
AcDbEntity
  8
0
  6
Continuous
 62
     7
370
    25
100
AcDbLine
 10
6.4747842048
 20
7.7392063403
 30
0.0
 11
6.4246742754
 21
7.7681341868
 31
0.0
  0
LINE
  5
2CF
330
1F
100
AcDbEntity
  8
0
  6
Continuous
 62
     7
370
    25
100
AcDbLine
 10
6.4657365787
 20
7.8014815654
 30
0.0
 11
6.4163226205
 21
7.7729554945
 31
0.0
  0
LINE
  5
2D0
330
1F
100
AcDbEntity
  8
0
  6
Continuous
 62
     7
370
    25
100
AcDbLine
 10
6.4156266493
 20
7.8304094119
 30
0.0
 11
6.4657365787
 21
7.8014815654
 31
0.0
  0
LINE
  5
2D1
330
1F
100
AcDbEntity
  8
0
  6
Continuous
 62
     7
370
    25
100
AcDbLine
 10
6.3662126912
 20
7.801883341
 30
0.0
 11
6.4156266493
 21
7.8304094119
 31
0.0
  0
LINE
  5
2D2
330
1F
100
AcDbEntity
  8
0
  6
Continuous
 62
     7
370
    25
100
AcDbLine
 10
6.4163226205
 20
7.7729554945
 30
0.0
 11
6.3662126912
 21
7.801883341
 31
0.0
  0
LINE
  5
2D3
330
1F
100
AcDbEntity
  8
0
  6
Continuous
 62
     7
370
    25
100
AcDbLine
 10
6.5917073734
 20
7.7970620333
 30
0.0
 11
6.6418173027
 21
7.7681341868
 31
0.0
  0
LINE
  5
2D4
330
1F
100
AcDbEntity
  8
0
  6
Continuous
 62
     7
370
    25
100
AcDbLine
 10
6.5409014727
 20
7.7677324112
 30
0.0
 11
6.5917073734
 21
7.7970620333
 31
0.0
  0
LINE
  5
2D5
330
1F
100
AcDbEntity
  8
0
  6
Continuous
 62
     7
370
    25
100
AcDbLine
 10
6.5910114021
 20
7.7388045647
 30
0.0
 11
6.5409014727
 21
7.7677324112
 31
0.0
  0
LINE
  5
2D6
330
1F
100
AcDbEntity
  8
0
  6
Continuous
 62
     7
370
    25
100
AcDbLine
 10
6.6418173027
 20
7.7681341868
 30
0.0
 11
6.5910114021
 21
7.7388045647
 31
0.0
  0
LINE
  5
2D7
330
1F
100
AcDbEntity
  8
0
  6
Continuous
 62
     7
370
    25
100
AcDbLine
 10
6.5332457891
 20
7.8308111875
 30
0.0
 11
6.5833557185
 21
7.801883341
 31
0.0
  0
LINE
  5
2D8
330
1F
100
AcDbEntity
  8
0
  6
Continuous
 62
     7
370
    25
100
AcDbLine
 10
6.4824398885
 20
7.8014815654
 30
0.0
 11
6.5332457891
 21
7.8308111875
 31
0.0
  0
LINE
  5
2D9
330
1F
100
AcDbEntity
  8
0
  6
Continuous
 62
     7
370
    25
100
AcDbLine
 10
6.5325498178
 20
7.7725537189
 30
0.0
 11
6.4824398885
 21
7.8014815654
 31
0.0
  0
LINE
  5
2DA
330
1F
100
AcDbEntity
  8
0
  6
Continuous
 62
     7
370
    25
100
AcDbLine
 10
6.5833557185
 20
7.801883341
 30
0.0
 11
6.5325498178
 21
7.7725537189
 31
0.0
  0
LINE
  5
2DB
330
1F
100
AcDbEntity
  8
0
  6
Continuous
 62
     7
370
    25
100
AcDbLine
 10
6.4747842048
 20
7.8645603417
 30
0.0
 11
6.5248941342
 21
7.8356324953
 31
0.0
  0
LINE
  5
2DC
330
1F
100
AcDbEntity
  8
0
  6
Continuous
 62
     7
370
    25
100
AcDbLine
 10
6.4239783042
 20
7.8352307196
 30
0.0
 11
6.4747842048
 21
7.8645603417
 31
0.0
  0
LINE
  5
2DD
330
1F
100
AcDbEntity
  8
0
  6
Continuous
 62
     7
370
    25
100
AcDbLine
 10
6.4740882336
 20
7.8063028731
 30
0.0
 11
6.4239783042
 21
7.8352307196
 31
0.0
  0
LINE
  5
2DE
330
1F
100
AcDbEntity
  8
0
  6
Continuous
 62
     7
370
    25
100
AcDbLine
 10
6.5248941342
 20
7.8356324953
 30
0.0
 11
6.4740882336
 21
7.8063028731
 31
0.0
  0
LINE
  5
2DF
330
1F
100
AcDbEntity
  8
0
  6
Continuous
 62
     7
370
    25
100
AcDbLine
 10
6.5826597472
 20
7.7339832569
 30
0.0
 11
6.5332457891
 21
7.7054571861
 31
0.0
  0
LINE
  5
2E0
330
1F
100
AcDbEntity
  8
0
  6
Continuous
 62
     7
370
    25
100
AcDbLine
 10
6.5325498178
 20
7.7629111034
 30
0.0
 11
6.5826597472
 21
7.7339832569
 31
0.0
  0
LINE
  5
2E1
330
1F
100
AcDbEntity
  8
0
  6
Continuous
 62
     7
370
    25
100
AcDbLine
 10
6.4831358597
 20
7.7343850326
 30
0.0
 11
6.5325498178
 21
7.7629111034
 31
0.0
  0
LINE
  5
2E2
330
1F
100
AcDbEntity
  8
0
  6
Continuous
 62
     7
370
    25
100
AcDbLine
 10
6.5332457891
 20
7.7054571861
 30
0.0
 11
6.4831358597
 21
7.7343850326
 31
0.0
  0
LINE
  5
2E3
330
1F
100
AcDbEntity
  8
0
  6
Continuous
 62
     7
370
    25
100
AcDbLine
 10
6.5221102492
 20
7.6684912145
 30
0.0
 11
6.5221102492
 21
7.6845648525
 31
0.0
  0
ARC
  5
2E4
330
1F
100
AcDbEntity
  8
0
  6
Continuous
 62
     7
370
    25
100
AcDbCircle
 10
6.5179344218
 20
7.6765505319
 30
0.0
 40
0.0090769010309666
100
AcDbArc
 50
242.6096722366
 51
297.3903277634
  0
LINE
  5
2E5
330
1F
100
AcDbEntity
  8
0
  6
Continuous
 62
     7
370
    25
100
AcDbLine
 10
6.5137585943
 20
7.6845648525
 30
0.0
 11
6.5137585943
 21
7.6684912145
 31
0.0
  0
LINE
  5
2E6
330
1F
100
AcDbEntity
  8
0
  6
Continuous
 62
     7
370
    25
100
AcDbLine
 10
6.6752239223
 20
7.7729554945
 30
0.0
 11
6.6752239223
 21
7.7568818565
 31
0.0
  0
LINE
  5
2E7
330
1F
100
AcDbEntity
  8
0
  6
Continuous
 62
     7
370
    25
100
AcDbLine
 10
6.6752239223
 20
7.7568818565
 30
0.0
 11
6.6654803249
 21
7.7512569975
 31
0.0
  0
LINE
  5
2E8
330
1F
100
AcDbEntity
  8
0
  6
Continuous
 62
     7
370
    25
100
AcDbLine
 10
6.6654803249
 20
7.7512569975
 30
0.0
 11
6.6654803249
 21
7.5953427086
 31
0.0
  0
LINE
  5
2E9
330
1F
100
AcDbEntity
  8
0
  6
Continuous
 62
     7
370
    25
100
AcDbLine
 10
6.6654803249
 20
7.5953427086
 30
0.0
 11
6.5318538466
 21
7.5182017846
 31
0.0
  0
LINE
  5
2EA
330
1F
100
AcDbEntity
  8
0
  6
Continuous
 62
     7
370
    25
100
AcDbLine
 10
6.5318538466
 20
7.5182017846
 30
0.0
 11
6.5318538466
 21
7.6741160735
 31
0.0
  0
LINE
  5
2EB
330
1F
100
AcDbEntity
  8
0
  6
Continuous
 62
     7
370
    25
100
AcDbLine
 10
6.5318538466
 20
7.6741160735
 30
0.0
 11
6.5221102492
 21
7.6684912145
 31
0.0
  0
LINE
  5
2EC
330
1F
100
AcDbEntity
  8
0
  6
Continuous
 62
     7
370
    25
100
AcDbLine
 10
6.3300221866
 20
7.790633623
 30
0.0
 11
6.3300221866
 21
7.7745599849
 31
0.0
  0
LINE
  5
2ED
330
1F
100
AcDbEntity
  8
0
  6
Continuous
 62
     7
370
    25
100
AcDbLine
 10
6.3300221866
 20
7.7745599849
 30
0.0
 11
6.5137585943
 21
7.6684912145
 31
0.0
  0
ARC
  5
2EE
330
1F
100
AcDbEntity
  8
0
  6
Continuous
 62
     7
370
    25
100
AcDbCircle
 10
6.3312479574
 20
7.7772653615
 30
0.0
 40
0.002970113849374
100
AcDbArc
 50
185.6947992512
 51
245.6253417064
  0
LINE
  5
2EF
330
1F
100
AcDbEntity
  8
0
  6
Continuous
 62
     7
370
    25
100
AcDbLine
 10
6.5318538466
 20
7.5182017846
 30
0.0
 11
6.4977512558
 21
7.5378887913
 31
0.0
  0
LINE
  5
2F0
330
1F
100
AcDbEntity
  8
0
  6
Continuous
 62
     7
370
    25
100
AcDbLine
 10
6.4977512558
 20
7.6777320543
 30
0.0
 11
6.4977512558
 21
7.5378887913
 31
0.0
  0
LINE
  5
2F1
330
1F
100
AcDbEntity
  8
0
  6
Continuous
 62
     7
370
    25
100
AcDbLine
 10
6.5555168688
 20
7.7191149458
 30
0.0
 11
6.5826597472
 21
7.7339832569
 31
0.0
  0
LINE
  5
2F2
330
1F
100
AcDbEntity
  8
0
  6
Continuous
 62
     7
370
    25
100
AcDbLine
 10
6.5555168688
 20
7.7191149458
 30
0.0
 11
6.5363776597
 21
7.7080661156
 31
0.0
  0
LINE
  5
2F3
330
1F
100
AcDbEntity
  8
0
  6
Continuous
 62
   144
370
    18
100
AcDbLine
 10
6.5325520803
 20
7.7058576556
 30
0.0
 11
6.5363776597
 21
7.7080661156
 31
0.0
  0
LWPOLYLINE
  5
2F4
330
1F
100
AcDbEntity
  8
0
  6
Continuous
 62
     7
370
    25
100
AcDbPolyline
 90
        7
 70
   128
 43
0.0
 10
6.4893501397
 20
7.5398976695
 10
6.4897247483
 20
7.5388104724
 10
6.4907915434
 20
7.5378887913
 10
6.492388115
 20
7.5372729436
 10
6.4942713996
 20
7.5370566867
 10
6.4961546842
 20
7.5372729436
 10
6.4977512558
 20
7.5378887913
  0
LINE
  5
2F5
330
1F
100
AcDbEntity
  8
0
  6
Continuous
 62
     7
370
    25
100
AcDbLine
 10
6.4893501397
 20
7.5427386523
 30
0.0
 11
6.4431175133
 21
7.5694281795
 31
0.0
  0
LINE
  5
2F6
330
1F
100
AcDbEntity
  8
0
  6
Continuous
 62
     7
370
    25
100
AcDbLine
 10
6.4431175133
 20
7.7092714425
 30
0.0
 11
6.4431175133
 21
7.5694281795
 31
0.0
  0
LINE
  5
2F7
330
1F
100
AcDbEntity
  8
0
  6
Continuous
 62
     7
370
    25
100
AcDbLine
 10
6.5325498178
 20
7.7629111034
 30
0.0
 11
6.5346377316
 21
7.7311682152
 31
0.0
  0
LINE
  5
2F8
330
1F
100
AcDbEntity
  8
0
  6
Continuous
 62
     7
370
    25
100
AcDbLine
 10
6.5346377316
 20
7.7311682152
 30
0.0
 11
6.5154985224
 21
7.7201193849
 31
0.0
  0
LINE
  5
2F9
330
1F
100
AcDbEntity
  8
0
  6
Continuous
 62
   144
370
    18
100
AcDbLine
 10
6.5154985224
 20
7.7201193849
 30
0.0
 11
6.5116729431
 21
7.717910925
 31
0.0
  0
LINE
  5
2FA
330
1F
100
AcDbEntity
  8
0
  6
Continuous
 62
     7
370
    25
100
AcDbLine
 10
6.5346377316
 20
7.7311682152
 30
0.0
 11
6.5555168688
 21
7.7191149458
 31
0.0
  0
LINE
  5
2FB
330
1F
100
AcDbEntity
  8
0
  6
Continuous
 62
   144
370
    18
100
AcDbLine
 10
6.5363776597
 20
7.7080661156
 30
0.0
 11
6.528726501
 21
7.7080661156
 31
0.0
  0
LINE
  5
2FC
330
1F
100
AcDbEntity
  8
0
  6
Continuous
 62
   144
370
    18
100
AcDbLine
 10
6.5154985224
 20
7.7157024651
 30
0.0
 11
6.5154985224
 21
7.7201193849
 31
0.0
  0
LINE
  5
2FD
330
1F
100
AcDbEntity
  8
0
  6
Continuous
 62
     7
370
    25
100
AcDbLine
 10
6.6139784531
 20
7.7528641001
 30
0.0
 11
6.6418173027
 21
7.7681341868
 31
0.0
  0
LINE
  5
2FE
330
1F
100
AcDbEntity
  8
0
  6
Continuous
 62
     7
370
    25
100
AcDbLine
 10
6.6139784531
 20
7.7528641001
 30
0.0
 11
6.5948392439
 21
7.7418152698
 31
0.0
  0
LINE
  5
2FF
330
1F
100
AcDbEntity
  8
0
  6
Continuous
 62
   144
370
    18
100
AcDbLine
 10
6.5903176934
 20
7.7392050342
 30
0.0
 11
6.5948392439
 21
7.7418152698
 31
0.0
  0
LINE
  5
300
330
1F
100
AcDbEntity
  8
0
  6
Continuous
 62
     7
370
    25
100
AcDbLine
 10
6.4970552845
 20
7.7528641001
 30
0.0
 11
6.524198163
 21
7.7677324112
 31
0.0
  0
LINE
  5
301
330
1F
100
AcDbEntity
  8
0
  6
Continuous
 62
     7
370
    25
100
AcDbLine
 10
6.4970552845
 20
7.7528641001
 30
0.0
 11
6.4779160754
 21
7.7418152698
 31
0.0
  0
LINE
  5
302
330
1F
100
AcDbEntity
  8
0
  6
Continuous
 62
   144
370
    18
100
AcDbLine
 10
6.4740904961
 20
7.7396068099
 30
0.0
 11
6.4779160754
 21
7.7418152698
 31
0.0
  0
LINE
  5
303
330
1F
100
AcDbEntity
  8
0
  6
Continuous
 62
     7
370
    25
100
AcDbLine
 10
6.5346377316
 20
7.7311682152
 30
0.0
 11
6.5346377316
 21
7.7080661156
 31
0.0
  0
LWPOLYLINE
  5
304
330
1F
100
AcDbEntity
  8
0
  6
Continuous
 62
     7
370
    25
100
AcDbPolyline
 90
        7
 70
   128
 43
0.0
 10
6.4347163973
 20
7.5714370577
 10
6.4350910059
 20
7.5703498606
 10
6.4361578009
 20
7.5694281795
 10
6.4377543725
 20
7.5688123318
 10
6.4396376571
 20
7.5685960748
 10
6.4415209417
 20
7.5688123318
 10
6.4431175133
 20
7.5694281795
  0
LWPOLYLINE
  5
305
330
1F
100
AcDbEntity
  8
0
  6
Continuous
 62
     7
370
    25
100
AcDbPolyline
 90
        7
 70
   128
 43
0.0
 10
6.4270607136
 20
7.5758565898
 10
6.4274353222
 20
7.5747693927
 10
6.4285021173
 20
7.5738477116
 10
6.4300986889
 20
7.5732318639
 10
6.4319819735
 20
7.573015607
 10
6.4338652581
 20
7.5732318639
 10
6.4347163973
 20
7.5734945217
  0
LINE
  5
306
330
1F
100
AcDbEntity
  8
0
  6
Continuous
 62
     7
370
    25
100
AcDbLine
 10
6.4270607136
 20
7.5786975726
 30
0.0
 11
6.3884837709
 21
7.6009675676
 31
0.0
  0
LINE
  5
307
330
1F
100
AcDbEntity
  8
0
  6
Continuous
 62
     7
370
    25
100
AcDbLine
 10
6.3884837709
 20
7.7408108307
 30
0.0
 11
6.3884837709
 21
7.6009675676
 31
0.0
  0
LINE
  5
308
330
1F
100
AcDbEntity
  8
0
  6
Continuous
 62
     7
370
    25
100
AcDbLine
 10
6.5930993158
 20
7.7649173694
 30
0.0
 11
6.5917073734
 21
7.7970620333
 31
0.0
  0
LINE
  5
309
330
1F
100
AcDbEntity
  8
0
  6
Continuous
 62
     7
370
    25
100
AcDbLine
 10
6.5739601067
 20
7.7538685392
 30
0.0
 11
6.5930993158
 21
7.7649173694
 31
0.0
  0
LINE
  5
30A
330
1F
100
AcDbEntity
  8
0
  6
Continuous
 62
   144
370
    18
100
AcDbLine
 10
6.5739601067
 20
7.7538685392
 30
0.0
 11
6.5694385561
 21
7.7512583036
 31
0.0
  0
LINE
  5
30B
330
1F
100
AcDbEntity
  8
0
  6
Continuous
 62
     7
370
    25
100
AcDbLine
 10
6.4740882336
 20
7.7966602576
 30
0.0
 11
6.4761761473
 21
7.7649173694
 31
0.0
  0
LINE
  5
30C
330
1F
100
AcDbEntity
  8
0
  6
Continuous
 62
     7
370
    25
100
AcDbLine
 10
6.4761761473
 20
7.7649173694
 30
0.0
 11
6.4570369382
 21
7.7538685392
 31
0.0
  0
LINE
  5
30D
330
1F
100
AcDbEntity
  8
0
  6
Continuous
 62
   144
370
    18
100
AcDbLine
 10
6.4570369382
 20
7.7538685392
 30
0.0
 11
6.4532113588
 21
7.7516600792
 31
0.0
  0
LINE
  5
30E
330
1F
100
AcDbEntity
  8
0
  6
Continuous
 62
     7
370
    25
100
AcDbLine
 10
6.4761761473
 20
7.7649173694
 30
0.0
 11
6.4970552845
 21
7.7528641001
 31
0.0
  0
LINE
  5
30F
330
1F
100
AcDbEntity
  8
0
  6
Continuous
 62
     7
370
    25
100
AcDbLine
 10
6.6139784531
 20
7.7528641001
 30
0.0
 11
6.5930993158
 21
7.7649173694
 31
0.0
  0
LINE
  5
310
330
1F
100
AcDbEntity
  8
0
  6
Continuous
 62
   144
370
    18
100
AcDbLine
 10
6.5948392439
 20
7.7418152698
 30
0.0
 11
6.5857961428
 21
7.7418152698
 31
0.0
  0
LINE
  5
311
330
1F
100
AcDbEntity
  8
0
  6
Continuous
 62
   144
370
    18
100
AcDbLine
 10
6.4779160754
 20
7.7418152698
 30
0.0
 11
6.4702649167
 21
7.7418152698
 31
0.0
  0
LINE
  5
312
330
1F
100
AcDbEntity
  8
0
  6
Continuous
 62
   144
370
    18
100
AcDbLine
 10
6.5739601067
 20
7.748648068
 30
0.0
 11
6.5739601067
 21
7.7538685392
 31
0.0
  0
LINE
  5
313
330
1F
100
AcDbEntity
  8
0
  6
Continuous
 62
   144
370
    18
100
AcDbLine
 10
6.4570369382
 20
7.7494516193
 30
0.0
 11
6.4570369382
 21
7.7538685392
 31
0.0
  0
LINE
  5
314
330
1F
100
AcDbEntity
  8
0
  6
Continuous
 62
     7
370
    25
100
AcDbLine
 10
6.5555168688
 20
7.7866132543
 30
0.0
 11
6.5833557185
 21
7.801883341
 31
0.0
  0
LINE
  5
315
330
1F
100
AcDbEntity
  8
0
  6
Continuous
 62
     7
370
    25
100
AcDbLine
 10
6.5555168688
 20
7.7866132543
 30
0.0
 11
6.5363776597
 21
7.775564424
 31
0.0
  0
LINE
  5
316
330
1F
100
AcDbEntity
  8
0
  6
Continuous
 62
   144
370
    18
100
AcDbLine
 10
6.5318561091
 20
7.7729541884
 30
0.0
 11
6.5363776597
 21
7.775564424
 31
0.0
  0
ARC
  5
317
330
1F
100
AcDbEntity
  8
0
  6
Continuous
 62
     7
370
    25
100
AcDbCircle
 10
6.6739981516
 20
7.7595872331
 30
0.0
 40
0.002970113849373
100
AcDbArc
 50
294.3746582936
 51
354.3052007488
  0
LINE
  5
318
330
1F
100
AcDbEntity
  8
0
  6
Continuous
 62
     7
370
    25
100
AcDbLine
 10
6.4385937003
 20
7.7866132543
 30
0.0
 11
6.4657365787
 21
7.8014815654
 31
0.0
  0
LINE
  5
319
330
1F
100
AcDbEntity
  8
0
  6
Continuous
 62
     7
370
    25
100
AcDbLine
 10
6.4385937003
 20
7.7866132543
 30
0.0
 11
6.4194544911
 21
7.775564424
 31
0.0
  0
LINE
  5
31A
330
1F
100
AcDbEntity
  8
0
  6
Continuous
 62
   144
370
    18
100
AcDbLine
 10
6.4156289118
 20
7.7733559641
 30
0.0
 11
6.4194544911
 21
7.775564424
 31
0.0
  0
LINE
  5
31B
330
1F
100
AcDbEntity
  8
0
  6
Continuous
 62
     7
370
    25
100
AcDbLine
 10
6.3647712875
 20
7.6146564929
 30
0.0
 11
6.339765784
 21
7.6290918628
 31
0.0
  0
LWPOLYLINE
  5
31C
330
1F
100
AcDbEntity
  8
0
  6
Continuous
 62
     7
370
    25
100
AcDbPolyline
 90
        7
 70
   128
 43
0.0
 10
6.3647712875
 20
7.6118155101
 10
6.3651458961
 20
7.610728313
 10
6.3662126912
 20
7.6098066318
 10
6.3678092628
 20
7.6091907842
 10
6.3696925474
 20
7.6089745272
 10
6.371575832
 20
7.6091907842
 10
6.3724269712
 20
7.609453442
  0
LWPOLYLINE
  5
31D
330
1F
100
AcDbEntity
  8
0
  6
Continuous
 62
     7
370
    25
100
AcDbPolyline
 90
        7
 70
   128
 43
0.0
 10
6.3724269712
 20
7.607395978
 10
6.3728015798
 20
7.6063087809
 10
6.3738683748
 20
7.6053870997
 10
6.3754649464
 20
7.6047712521
 10
6.377348231
 20
7.6045549951
 10
6.3792315156
 20
7.6047712521
 10
6.3800826548
 20
7.6050339099
  0
LWPOLYLINE
  5
31E
330
1F
100
AcDbEntity
  8
0
  6
Continuous
 62
     7
370
    25
100
AcDbPolyline
 90
        7
 70
   128
 43
0.0
 10
6.3800826548
 20
7.6029764459
 10
6.3804572634
 20
7.6018892488
 10
6.3815240585
 20
7.6009675676
 10
6.3831206301
 20
7.60035172
 10
6.3850039147
 20
7.600135463
 10
6.3868871993
 20
7.60035172
 10
6.3884837709
 20
7.6009675676
  0
LINE
  5
31F
330
1F
100
AcDbEntity
  8
0
  6
Continuous
 62
     7
370
    25
100
AcDbLine
 10
6.5930993158
 20
7.7418152698
 30
0.0
 11
6.5930993158
 21
7.7649173694
 31
0.0
  0
LINE
  5
320
330
1F
100
AcDbEntity
  8
0
  6
Continuous
 62
     7
370
    25
100
AcDbLine
 10
6.4761761473
 20
7.7649173694
 30
0.0
 11
6.4761761473
 21
7.7418152698
 31
0.0
  0
LINE
  5
321
330
1F
100
AcDbEntity
  8
0
  6
Continuous
 62
     7
370
    25
100
AcDbLine
 10
6.4831358597
 20
7.4177346246
 30
0.0
 11
6.5304619041
 21
7.3904138807
 31
0.0
  0
LINE
  5
322
330
1F
100
AcDbEntity
  8
0
  6
Continuous
 62
     7
370
    25
100
AcDbLine
 10
6.4831358597
 20
7.5463260798
 30
0.0
 11
6.4831358597
 21
7.4177346246
 31
0.0
  0
LINE
  5
323
330
1F
100
AcDbEntity
  8
0
  6
Continuous
 62
     7
370
    25
100
AcDbLine
 10
6.5304619041
 20
7.3904138807
 30
0.0
 11
6.5304619041
 21
7.5190053359
 31
0.0
  0
LINE
  5
324
330
1F
100
AcDbEntity
  8
0
  6
Continuous
 62
     7
370
    25
100
AcDbLine
 10
6.5304619041
 20
7.3904138807
 30
0.0
 11
6.5777879485
 21
7.4177346246
 31
0.0
  0
LINE
  5
325
330
1F
100
AcDbEntity
  8
0
  6
Continuous
 62
     7
370
    25
100
AcDbLine
 10
6.5777879485
 20
7.5447189773
 30
0.0
 11
6.5777879485
 21
7.4177346246
 31
0.0
  0
LINE
  5
326
330
1F
100
AcDbEntity
  8
0
  6
Continuous
 62
     7
370
    25
100
AcDbLine
 10
6.5346377316
 20
7.7986665237
 30
0.0
 11
6.5332457891
 21
7.8308111875
 31
0.0
  0
LINE
  5
327
330
1F
100
AcDbEntity
  8
0
  6
Continuous
 62
     7
370
    25
100
AcDbLine
 10
6.5154985224
 20
7.7876176934
 30
0.0
 11
6.5346377316
 21
7.7986665237
 31
0.0
  0
LINE
  5
328
330
1F
100
AcDbEntity
  8
0
  6
Continuous
 62
   144
370
    18
100
AcDbLine
 10
6.5154985224
 20
7.7876176934
 30
0.0
 11
6.5109769718
 21
7.7850074578
 31
0.0
  0
LINE
  5
329
330
1F
100
AcDbEntity
  8
0
  6
Continuous
 62
     7
370
    25
100
AcDbLine
 10
6.4156266493
 20
7.8304094119
 30
0.0
 11
6.417714563
 21
7.7986665237
 31
0.0
  0
LINE
  5
32A
330
1F
100
AcDbEntity
  8
0
  6
Continuous
 62
     7
370
    25
100
AcDbLine
 10
6.417714563
 20
7.7986665237
 30
0.0
 11
6.3985753539
 21
7.7876176934
 31
0.0
  0
LINE
  5
32B
330
1F
100
AcDbEntity
  8
0
  6
Continuous
 62
   144
370
    18
100
AcDbLine
 10
6.3985753539
 20
7.7876176934
 30
0.0
 11
6.3947497745
 21
7.7854092335
 31
0.0
  0
LINE
  5
32C
330
1F
100
AcDbEntity
  8
0
  6
Continuous
 62
     7
370
    25
100
AcDbLine
 10
6.339765784
 20
7.6290918628
 30
0.0
 11
6.339765784
 21
7.7689351259
 31
0.0
  0
LINE
  5
32D
330
1F
100
AcDbEntity
  8
0
  6
Continuous
 62
     7
370
    25
100
AcDbLine
 10
6.5555168688
 20
7.7866132543
 30
0.0
 11
6.5346377316
 21
7.7986665237
 31
0.0
  0
LINE
  5
32E
330
1F
100
AcDbEntity
  8
0
  6
Continuous
 62
     7
370
    25
100
AcDbLine
 10
6.417714563
 20
7.7986665237
 30
0.0
 11
6.4385937003
 21
7.7866132543
 31
0.0
  0
LINE
  5
32F
330
1F
100
AcDbEntity
  8
0
  6
Continuous
 62
   144
370
    18
100
AcDbLine
 10
6.5363776597
 20
7.775564424
 30
0.0
 11
6.5273345585
 21
7.775564424
 31
0.0
  0
LINE
  5
330
330
1F
100
AcDbEntity
  8
0
  6
Continuous
 62
   144
370
    18
100
AcDbLine
 10
6.4194544911
 20
7.775564424
 30
0.0
 11
6.4118033324
 21
7.775564424
 31
0.0
  0
LINE
  5
331
330
1F
100
AcDbEntity
  8
0
  6
Continuous
 62
   144
370
    18
100
AcDbLine
 10
6.5154985224
 20
7.7823972222
 30
0.0
 11
6.5154985224
 21
7.7876176934
 31
0.0
  0
LINE
  5
332
330
1F
100
AcDbEntity
  8
0
  6
Continuous
 62
   144
370
    18
100
AcDbLine
 10
6.3985753539
 20
7.7832007735
 30
0.0
 11
6.3985753539
 21
7.7876176934
 31
0.0
  0
LINE
  5
333
330
1F
100
AcDbEntity
  8
0
  6
Continuous
 62
     7
370
    25
100
AcDbLine
 10
6.4970552845
 20
7.8203624085
 30
0.0
 11
6.5248941342
 21
7.8356324953
 31
0.0
  0
LINE
  5
334
330
1F
100
AcDbEntity
  8
0
  6
Continuous
 62
     7
370
    25
100
AcDbLine
 10
6.4970552845
 20
7.8203624085
 30
0.0
 11
6.4779160754
 21
7.8093135783
 31
0.0
  0
LINE
  5
335
330
1F
100
AcDbEntity
  8
0
  6
Continuous
 62
   144
370
    18
100
AcDbLine
 10
6.4733945248
 20
7.8067033427
 30
0.0
 11
6.4779160754
 21
7.8093135783
 31
0.0
  0
LINE
  5
336
330
1F
100
AcDbEntity
  8
0
  6
Continuous
 62
     7
370
    25
100
AcDbLine
 10
6.5346377316
 20
7.775564424
 30
0.0
 11
6.5346377316
 21
7.7986665237
 31
0.0
  0
LINE
  5
337
330
1F
100
AcDbEntity
  8
0
  6
Continuous
 62
     7
370
    25
100
AcDbLine
 10
6.417714563
 20
7.7986665237
 30
0.0
 11
6.417714563
 21
7.775564424
 31
0.0
  0
LINE
  5
338
330
1F
100
AcDbEntity
  8
0
  6
Continuous
 62
     7
370
    25
100
AcDbLine
 10
6.6515658776
 20
7.7914343008
 30
0.0
 11
6.659912555
 21
7.7962527351
 31
0.0
  0
LINE
  5
339
330
1F
100
AcDbEntity
  8
0
  6
Continuous
 62
     7
370
    25
100
AcDbLine
 10
6.659912555
 20
7.7962527351
 30
0.0
 11
6.659912555
 21
7.7866158665
 31
0.0
  0
LINE
  5
33A
330
1F
100
AcDbEntity
  8
0
  6
Continuous
 62
     7
370
    25
100
AcDbLine
 10
6.4615607512
 20
7.4301896696
 30
0.0
 11
6.4824398885
 21
7.4301896696
 31
0.0
  0
LINE
  5
33B
330
1F
100
AcDbEntity
  8
0
  6
Continuous
 62
     7
370
    25
100
AcDbLine
 10
6.4615607512
 20
7.4301896696
 30
0.0
 11
6.4615607512
 21
7.5587811248
 31
0.0
  0
LINE
  5
33C
330
1F
100
AcDbEntity
  8
0
  6
Continuous
 62
     7
370
    25
100
AcDbLine
 10
6.4824398885
 20
7.5467278555
 30
0.0
 11
6.4824398885
 21
7.4301896696
 31
0.0
  0
LINE
  5
33D
330
1F
100
AcDbEntity
  8
0
  6
Continuous
 62
     7
370
    25
100
AcDbLine
 10
6.5784839198
 20
7.4301896696
 30
0.0
 11
6.599363057
 21
7.4301896696
 31
0.0
  0
LINE
  5
33E
330
1F
100
AcDbEntity
  8
0
  6
Continuous
 62
     7
370
    25
100
AcDbLine
 10
6.5784839198
 20
7.4301896696
 30
0.0
 11
6.5784839198
 21
7.5451207529
 31
0.0
  0
LINE
  5
33F
330
1F
100
AcDbEntity
  8
0
  6
Continuous
 62
     7
370
    25
100
AcDbLine
 10
6.599363057
 20
7.5571740223
 30
0.0
 11
6.599363057
 21
7.4301896696
 31
0.0
  0
LINE
  5
340
330
1F
100
AcDbEntity
  8
0
  6
Continuous
 62
     7
370
    25
100
AcDbLine
 10
6.4761761473
 20
7.8324156779
 30
0.0
 11
6.4747842048
 21
7.8645603417
 31
0.0
  0
LINE
  5
341
330
1F
100
AcDbEntity
  8
0
  6
Continuous
 62
     7
370
    25
100
AcDbLine
 10
6.4570369382
 20
7.8213668476
 30
0.0
 11
6.4761761473
 21
7.8324156779
 31
0.0
  0
LINE
  5
342
330
1F
100
AcDbEntity
  8
0
  6
Continuous
 62
   144
370
    18
100
AcDbLine
 10
6.4570369382
 20
7.8213668476
 30
0.0
 11
6.4525153876
 21
7.818756612
 31
0.0
  0
LINE
  5
343
330
1F
100
AcDbEntity
  8
0
  6
Continuous
 62
     7
370
    25
100
AcDbLine
 10
6.4970552845
 20
7.8203624085
 30
0.0
 11
6.4761761473
 21
7.8324156779
 31
0.0
  0
LINE
  5
344
330
1F
100
AcDbEntity
  8
0
  6
Continuous
 62
   144
370
    18
100
AcDbLine
 10
6.4779160754
 20
7.8093135783
 30
0.0
 11
6.4688729742
 21
7.8093135783
 31
0.0
  0
LINE
  5
345
330
1F
100
AcDbEntity
  8
0
  6
Continuous
 62
     7
370
    25
100
AcDbLine
 10
6.599363057
 20
7.4301896696
 30
0.0
 11
6.6362495328
 21
7.4514837788
 31
0.0
  0
LINE
  5
346
330
1F
100
AcDbEntity
  8
0
  6
Continuous
 62
     7
370
    25
100
AcDbLine
 10
6.6362495328
 20
7.4514837788
 30
0.0
 11
6.6362495328
 21
7.5784681315
 31
0.0
  0
LINE
  5
347
330
1F
100
AcDbEntity
  8
0
  6
Continuous
 62
     7
370
    25
100
AcDbLine
 10
6.4824398885
 20
7.4301896696
 30
0.0
 11
6.4831358597
 21
7.4305914453
 31
0.0
  0
LINE
  5
348
330
1F
100
AcDbEntity
  8
0
  6
Continuous
 62
     7
370
    25
100
AcDbLine
 10
6.4351138441
 20
7.4454571442
 30
0.0
 11
6.4615607512
 21
7.4301896696
 31
0.0
  0
LINE
  5
349
330
1F
100
AcDbEntity
  8
0
  6
Continuous
 62
     7
370
    25
100
AcDbLine
 10
6.4351138441
 20
7.5703185616
 30
0.0
 11
6.4351138441
 21
7.4454571442
 31
0.0
  0
LINE
  5
34A
330
1F
100
AcDbEntity
  8
0
  6
Continuous
 62
     7
370
    25
100
AcDbLine
 10
6.5777879485
 20
7.4305914453
 30
0.0
 11
6.5784839198
 21
7.4301896696
 31
0.0
  0
LINE
  5
34B
330
1F
100
AcDbEntity
  8
0
  6
Continuous
 62
     7
370
    25
100
AcDbLine
 10
6.5624815587
 20
7.8267905576
 30
0.0
 11
6.5847476609
 21
7.8396445049
 31
0.0
  0
LINE
  5
34C
330
1F
100
AcDbEntity
  8
0
  6
Continuous
 62
     7
370
    25
100
AcDbLine
 10
6.659912555
 20
7.7962527351
 30
0.0
 11
6.5847476609
 21
7.8396445049
 31
0.0
  0
LINE
  5
34D
330
1F
100
AcDbEntity
  8
0
  6
Continuous
 62
   144
370
    18
100
AcDbLine
 10
6.4570369382
 20
7.8161463764
 30
0.0
 11
6.4570369382
 21
7.8213668476
 31
0.0
  0
LINE
  5
34E
330
1F
100
AcDbEntity
  8
0
  6
Continuous
 62
     7
370
    25
100
AcDbLine
 10
6.6390334178
 20
7.5800752341
 30
0.0
 11
6.6390334178
 21
7.5768464005
 31
0.0
  0
LINE
  5
34F
330
1F
100
AcDbEntity
  8
0
  6
Continuous
 62
     7
370
    25
100
AcDbLine
 10
6.6390334178
 20
7.5768464005
 30
0.0
 11
6.6362495328
 21
7.5720245704
 31
0.0
  0
LINE
  5
350
330
1F
100
AcDbEntity
  8
0
  6
Continuous
 62
     7
370
    25
100
AcDbLine
 10
6.4761761473
 20
7.8093135783
 30
0.0
 11
6.4761761473
 21
7.8324156779
 31
0.0
  0
LINE
  5
351
330
1F
100
AcDbEntity
  8
0
  6
Continuous
 62
     7
370
    25
100
AcDbLine
 10
6.5346377316
 20
7.8428644569
 30
0.0
 11
6.5346377316
 21
7.8589354827
 31
0.0
  0
LINE
  5
352
330
1F
100
AcDbEntity
  8
0
  6
Continuous
 62
     7
370
    25
100
AcDbLine
 10
6.403099167
 20
7.4639388239
 30
0.0
 11
6.4239783042
 21
7.4639388239
 31
0.0
  0
LINE
  5
353
330
1F
100
AcDbEntity
  8
0
  6
Continuous
 62
     7
370
    25
100
AcDbLine
 10
6.403099167
 20
7.4639388239
 30
0.0
 11
6.403099167
 21
7.5925302791
 31
0.0
  0
LINE
  5
354
330
1F
100
AcDbEntity
  8
0
  6
Continuous
 62
     7
370
    25
100
AcDbLine
 10
6.4239783042
 20
7.5804770097
 30
0.0
 11
6.4239783042
 21
7.4639388239
 31
0.0
  0
LINE
  5
355
330
1F
100
AcDbEntity
  8
0
  6
Continuous
 62
     7
370
    25
100
AcDbLine
 10
6.4239783042
 20
7.4639388239
 30
0.0
 11
6.4351138441
 21
7.4703672342
 31
0.0
  0
LINE
  5
356
330
1F
100
AcDbEntity
  8
0
  6
Continuous
 62
     7
370
    25
100
AcDbLine
 10
6.3766522598
 20
7.4792062984
 30
0.0
 11
6.403099167
 21
7.4639388239
 31
0.0
  0
LINE
  5
357
330
1F
100
AcDbEntity
  8
0
  6
Continuous
 62
     7
370
    25
100
AcDbLine
 10
6.3766522598
 20
7.6045835484
 30
0.0
 11
6.3766522598
 21
7.4792062984
 31
0.0
  0
ARC
  5
358
330
1F
100
AcDbEntity
  8
0
  6
Continuous
 62
     7
370
    25
100
AcDbCircle
 10
6.5678521137
 20
7.4289328517
 30
0.0
 40
0.0193879237589802
100
AcDbArc
 50
259.1483239161
 51
314.1272061322
  0
LWPOLYLINE
  5
359
330
1F
100
AcDbEntity
  8
0
  6
Continuous
 62
     7
370
    25
100
AcDbPolyline
 90
       10
 70
   128
 43
0.0
 10
6.5543841597
 20
7.3349581639
 10
6.5543616945
 20
7.3346417281
 10
6.5530271499
 20
7.3320958029
 10
6.5498253898
 20
7.3290879952
 10
6.5452438532
 20
7.3260762163
 10
6.5399800374
 20
7.3235189824
 10
6.5348353108
 20
7.321805609
 10
6.5305929113
 20
7.3211969418
 10
6.5278987057
 20
7.3217856448
 10
6.5271412109
 20
7.3231159029
  0
LWPOLYLINE
  5
35A
330
1F
100
AcDbEntity
  8
0
  6
Continuous
 62
     7
370
    25
100
AcDbPolyline
 90
       10
 70
   128
 43
0.0
 10
6.5059052466
 20
7.3934695219
 10
6.5053398812
 20
7.391114547
 10
6.5064816882
 20
7.3878007703
 10
6.5097332794
 20
7.3849914861
 10
6.5145996297
 20
7.3831143824
 10
6.5203398812
 20
7.3824552313
 10
6.5260801326
 20
7.3831143824
 10
6.5309464829
 20
7.3849914861
 10
6.5341980741
 20
7.3878007703
 10
6.5347705119
 20
7.3887514088
  0
ARC
  5
35B
330
1F
100
AcDbEntity
  8
0
  6
Continuous
 62
     7
370
    25
100
AcDbCircle
 10
6.4984596081
 20
7.3383468438
 30
0.0
 40
0.0339663367325032
100
AcDbArc
 50
257.0125923783
 51
309.3362243628
  0
ARC
  5
35C
330
1F
100
AcDbEntity
  8
0
  6
Continuous
 62
     7
370
    25
100
AcDbCircle
 10
6.4434043083
 20
7.4452290854
 30
0.0
 40
0.0188509855732437
100
AcDbArc
 50
219.6777580448
 51
317.9155299424
  0
ARC
  5
35D
330
1F
100
AcDbEntity
  8
0
  6
Continuous
 62
     7
370
    25
100
AcDbCircle
 10
6.4748246493
 20
7.3354025234
 30
0.0
 40
0.0185472980272919
100
AcDbArc
 50
187.35259926
 51
263.7668649389
  0
SPLINE
  5
35E
330
1F
100
AcDbEntity
  8
0
  6
Continuous
 62
     7
370
    25
100
AcDbSpline
210
0.0
220
0.0
230
1.0
 70
     8
 71
     3
 72
    15
 73
    11
 74
     0
 42
0.000000001
 43
0.00000001
 40
0.0
 40
0.0
 40
0.0
 40
0.0
 40
0.144498822480461
 40
0.2889873795489648
 40
0.4336185230778613
 40
0.5051555418681026
 40
0.6492730718057461
 40
0.7207318550614499
 40
0.8652012735803788
 40
1.0
 40
1.0
 40
1.0
 40
1.0
 10
6.549608300141958
 20
7.036981701497295
 30
0.0
 10
6.544148801120897
 20
7.034395232078405
 30
0.0
 10
6.533230190929736
 20
7.029222476987274
 30
0.0
 10
6.512385683983039
 20
7.02598403419335
 30
0.0
 10
6.494655755242118
 20
7.026550203755814
 30
0.0
 10
6.477991020770064
 20
7.029635280200477
 30
0.0
 10
6.465933249618197
 20
7.034002423736288
 30
0.0
 10
6.453985773672521
 20
7.041335624946594
 30
0.0
 10
6.445153599346821
 20
7.050076365398024
 30
0.0
 10
6.44379714048167
 20
7.057911288472483
 30
0.0
 10
6.443142397250919
 20
7.061693093419357
 30
0.0
  0
SPLINE
  5
35F
330
1F
100
AcDbEntity
  8
0
  6
Continuous
 62
     7
370
    25
100
AcDbSpline
210
0.0
220
0.0
230
1.0
 70
     8
 71
     3
 72
    11
 73
     7
 74
     0
 42
0.000000001
 43
0.00000001
 40
0.0
 40
0.0
 40
0.0
 40
0.0
 40
0.0487918668684681
 40
0.4919313720513385
 40
0.9355945066269304
 40
1.0
 40
1.0
 40
1.0
 40
1.0
 10
6.567544071109975
 20
7.061611579641061
 30
0.0
 10
6.567638165559394
 20
7.061169453065075
 30
0.0
 10
6.568586848497272
 20
7.056711826269785
 30
0.0
 10
6.563627781242437
 20
7.048212822765597
 30
0.0
 10
6.555910494741934
 20
7.04072889712277
 30
0.0
 10
6.550317320755164
 20
7.037403275109159
 30
0.0
 10
6.549608300141958
 20
7.036981701497295
 30
0.0
  0
SPLINE
  5
360
330
1F
100
AcDbEntity
  8
0
  6
Continuous
 62
     7
370
    25
100
AcDbSpline
210
0.0
220
0.0
230
1.0
 70
     8
 71
     3
 72
    14
 73
    10
 74
     0
 42
0.000000001
 43
0.00000001
 40
0.0
 40
0.0
 40
0.0
 40
0.0
 40
0.3064538515975104
 40
0.5794538045270988
 40
0.682674313084442
 40
0.7758941337296158
 40
0.8693126602994466
 40
0.9571489021757523
 40
1.0
 40
1.0
 40
1.0
 40
1.0
 10
6.518965749654424
 20
7.289961830973645
 30
0.0
 10
6.524875969097883
 20
7.293181958550299
 30
0.0
 10
6.536051221502937
 20
7.299270689906192
 30
0.0
 10
6.548491805735956
 20
7.306788507371412
 30
0.0
 10
6.557009634355538
 20
7.312120851692041
 30
0.0
 10
6.55962400245117
 20
7.316424883002459
 30
0.0
 10
6.559601412563425
 20
7.320659738385477
 30
0.0
 10
6.557664984292609
 20
7.324065170081742
 30
0.0
 10
6.555194289780439
 20
7.325484410108598
 30
0.0
 10
6.554384173265118
 20
7.325949765003466
 30
0.0
  0
SPLINE
  5
361
330
1F
100
AcDbEntity
  8
0
  6
Continuous
 62
     7
370
    25
100
AcDbSpline
210
0.0
220
0.0
230
1.0
 70
     8
 71
     3
 72
    19
 73
    15
 74
     0
 42
0.000000001
 43
0.00000001
 40
0.0
 40
0.0
 40
0.0
 40
0.0
 40
0.0639690996365922
 40
0.1300473348246241
 40
0.1962863519226717
 40
0.2581649986902372
 40
0.4779747887010103
 40
0.5875823124310277
 40
0.6541931434384716
 40
0.7576428562000426
 40
0.8179220188422404
 40
0.8780147028096702
 40
0.9417416492898792
 40
0.9999999999999999
 40
0.9999999999999999
 40
0.9999999999999999
 40
0.9999999999999999
 10
6.456429705607412
 20
7.324855544588265
 30
0.0
 10
6.455101195352537
 20
7.323739240209459
 30
0.0
 10
6.452400372315868
 20
7.321469825599256
 30
0.0
 10
6.45092974126451
 20
7.317339382159049
 30
0.0
 10
6.451702959608294
 20
7.313178513237181
 30
0.0
 10
6.458395487331451
 20
7.306828290811538
 30
0.0
 10
6.469396962738574
 20
7.301506675202312
 30
0.0
 10
6.479417622781226
 20
7.295527243349207
 30
0.0
 10
6.486883377432975
 20
7.291576228431783
 30
0.0
 10
6.492639041099279
 20
7.287886227112416
 30
0.0
 10
6.500580088169317
 20
7.286354370804067
 30
0.0
 10
6.507351175078513
 20
7.286400694007523
 30
0.0
 10
6.513820240771335
 20
7.287579604029807
 30
0.0
 10
6.517302618306469
 20
7.289191847596245
 30
0.0
 10
6.518965749654424
 20
7.289961830973645
 30
0.0
  0
SPLINE
  5
362
330
1F
100
AcDbEntity
  8
0
  6
Continuous
 62
   144
370
    18
100
AcDbSpline
210
0.0
220
0.0
230
1.0
 70
     8
 71
     3
 72
    10
 73
     6
 74
     0
 42
0.000000001
 43
0.00000001
 40
0.0
 40
0.0
 40
0.0
 40
0.0
 40
0.4736108572464043
 40
0.9429824149040322
 40
1.0
 40
1.0
 40
1.0
 40
1.0
 10
6.549451234420544
 20
7.311819081509157
 30
0.0
 10
6.550696220554197
 20
7.312738941118985
 30
0.0
 10
6.553175048927476
 20
7.314570426658175
 30
0.0
 10
6.554650889557442
 20
7.317093103018402
 30
0.0
 10
6.554296725284975
 20
7.31838307288943
 30
0.0
 10
6.554258362807669
 20
7.318522800252552
 30
0.0
  0
LINE
  5
363
330
1F
100
AcDbEntity
  8
0
  6
Continuous
 62
   144
370
    18
100
AcDbLine
 10
6.5155379815
 20
7.2922413773
 30
0.0
 11
6.5494512344
 21
7.3118190815
 31
0.0
  0
SPLINE
  5
364
330
1F
100
AcDbEntity
  8
0
  6
Continuous
 62
   144
370
    18
100
AcDbSpline
210
0.0
220
0.0
230
1.0
 70
     8
 71
     3
 72
    17
 73
    13
 74
     0
 42
0.000000001
 43
0.00000001
 40
0.0
 40
0.0
 40
0.0
 40
0.0
 40
0.0578180585136101
 40
0.1164090760285696
 40
0.2352721069864097
 40
0.3573160086383526
 40
0.4825358929676595
 40
0.6104196550309116
 40
0.7400566213946674
 40
0.8702860089970842
 40
0.9351866319867487
 40
1.0
 40
1.0
 40
1.0
 40
1.0
 10
6.494246100768827
 20
7.291559359811481
 30
0.0
 10
6.494578164696413
 20
7.291380106386197
 30
0.0
 10
6.495246731853223
 20
7.291019203129522
 30
0.0
 10
6.496766415121713
 20
7.290407041034178
 30
0.0
 10
6.498900987143021
 20
7.289811646301048
 30
0.0
 10
6.501716287575164
 20
7.289419486371499
 30
0.0
 10
6.504678949731592
 20
7.289353535041169
 30
0.0
 10
6.507667745560183
 20
7.289616778253335
 30
0.0
 10
6.510561347996389
 20
7.290195595213949
 30
0.0
 10
6.512792261725178
 20
7.290925622809924
 30
0.0
 10
6.514428723059008
 20
7.291633875613427
 30
0.0
 10
6.515168394540049
 20
7.292038967584268
 30
0.0
 10
6.515537981502403
 20
7.292241377322664
 30
0.0
  0
LINE
  5
365
330
1F
100
AcDbEntity
  8
0
  6
Continuous
 62
   144
370
    18
100
AcDbLine
 10
6.4601812275
 20
7.3112245926
 30
0.0
 11
6.4942461008
 21
7.2915593598
 31
0.0
  0
SPLINE
  5
366
330
1F
100
AcDbEntity
  8
0
  6
Continuous
 62
   144
370
    18
100
AcDbSpline
210
0.0
220
0.0
230
1.0
 70
     8
 71
     3
 72
    10
 73
     6
 74
     0
 42
0.000000001
 43
0.00000001
 40
0.0
 40
0.0
 40
0.0
 40
0.0
 40
0.4422488007252646
 40
0.7242547295283809
 40
1.0
 40
1.0
 40
1.0
 40
1.0
 10
6.456648604136781
 20
7.316428763804345
 30
0.0
 10
6.456734397653563
 20
7.315575355582567
 30
0.0
 10
6.456874898566602
 20
7.314177760066584
 30
0.0
 10
6.45837193608683
 20
7.312430285394909
 30
0.0
 10
6.459582660392154
 20
7.311623471407162
 30
0.0
 10
6.460181227461972
 20
7.311224592585278
 30
0.0
  0
SPLINE
  5
367
330
1F
100
AcDbEntity
  8
0
  6
Continuous
 62
     7
370
    25
100
AcDbSpline
210
0.0
220
0.0
230
1.0
 70
     8
 71
     3
 72
    10
 73
     6
 74
     0
 42
0.000000001
 43
0.00000001
 40
0.0
 40
0.0
 40
0.0
 40
0.0
 40
0.355408803152834
 40
0.7094166133987783
 40
1.0
 40
1.0
 40
1.0
 40
1.0
 10
6.546065579354491
 20
6.958880613169742
 30
0.0
 10
6.549650084517006
 20
6.961049923925051
 30
0.0
 10
6.556804965011083
 20
6.965379994187209
 30
0.0
 10
6.56219646676455
 20
6.969723015329826
 30
0.0
 10
6.562371431294072
 20
6.971630695898219
 30
0.0
 10
6.562450305758651
 20
6.972490683255831
 30
0.0
  0
SPLINE
  5
368
330
1F
100
AcDbEntity
  8
0
  6
Continuous
 62
     7
370
    25
100
AcDbSpline
210
0.0
220
0.0
230
1.0
 70
     8
 71
     3
 72
    18
 73
    14
 74
     0
 42
0.000000001
 43
0.00000001
 40
0.0
 40
0.0
 40
0.0
 40
0.0
 40
0.0432558577887033
 40
0.1207275789015566
 40
0.2004637324944779
 40
0.2977043157372471
 40
0.3955650076717932
 40
0.5057266888965154
 40
0.6618905469962422
 40
0.7404622122398252
 40
0.8216126003130504
 40
0.937746410451345
 40
1.0
 40
1.0
 40
1.0
 40
1.0
 10
6.448465269991819
 20
6.97244515073506
 30
0.0
 10
6.448299909658749
 20
6.970687714758057
 30
0.0
 10
6.447838387134903
 20
6.965782691451977
 30
0.0
 10
6.449877467112526
 20
6.957515764464933
 30
0.0
 10
6.4537015565656
 20
6.947706024835726
 30
0.0
 10
6.460672972564165
 20
6.938748606603656
 30
0.0
 10
6.471473311827837
 20
6.933317419789518
 30
0.0
 10
6.486195829153469
 20
6.933187747027199
 30
0.0
 10
6.500934944604338
 20
6.937493945763511
 30
0.0
 10
6.514680205854224
 20
6.943017516385515
 30
0.0
 10
6.526630998559848
 20
6.948498414494132
 30
0.0
 10
6.537600362023491
 20
6.954094641109681
 30
0.0
 10
6.543875635875459
 20
6.957642486858989
 30
0.0
 10
6.546065579354491
 20
6.958880613169742
 30
0.0
  0
SPLINE
  5
369
330
1F
100
AcDbEntity
  8
0
  6
Continuous
 62
     7
370
    25
100
AcDbSpline
210
0.0
220
0.0
230
1.0
 70
    11
 71
     3
 72
    54
 73
    50
 74
     0
 42
0.000000001
 43
0.00000001
 40
0.0
 40
0.0
 40
0.0
 40
0.0
 40
0.0312500000000038
 40
0.0312500000000038
 40
0.0625000000000075
 40
0.0625000000000075
 40
0.0937500000000113
 40
0.0937500000000113
 40
0.125000000000015
 40
0.125000000000015
 40
0.1875000000000188
 40
0.1875000000000188
 40
0.2500000000000227
 40
0.2500000000000227
 40
0.2812500000000246
 40
0.2812500000000246
 40
0.3125000000000265
 40
0.3125000000000265
 40
0.3750000000000306
 40
0.3750000000000306
 40
0.4062500000000312
 40
0.4062500000000312
 40
0.4375000000000318
 40
0.4375000000000318
 40
0.4687500000000324
 40
0.4687500000000324
 40
0.500000000000033
 40
0.500000000000033
 40
0.5625000000000336
 40
0.5625000000000336
 40
0.6250000000000342
 40
0.6250000000000342
 40
0.6562500000000347
 40
0.6562500000000347
 40
0.6875000000000353
 40
0.6875000000000353
 40
0.750000000000032
 40
0.750000000000032
 40
0.7812500000000281
 40
0.7812500000000281
 40
0.8125000000000242
 40
0.8125000000000242
 40
0.8437500000000203
 40
0.8437500000000203
 40
0.8750000000000164
 40
0.8750000000000164
 40
0.9375000000000082
 40
0.9375000000000082
 40
1.0
 40
1.0
 40
1.0
 40
1.0
 10
6.356914515387086
 20
6.190818218247546
 30
0.0
 10
6.355593217589145
 20
6.191580987230301
 30
0.0
 10
6.354311916173346
 20
6.19249090015364
 30
0.0
 10
6.351823995943538
 20
6.194591582657441
 30
0.0
 10
6.35060482243938
 20
6.195797772650055
 30
0.0
 10
6.348311273314827
 20
6.198424348481602
 30
0.0
 10
6.347238483818137
 20
6.199837696739752
 30
0.0
 10
6.345230822064585
 20
6.202858342369548
 30
0.0
 10
6.344293594853871
 20
6.204475504554263
 30
0.0
 10
6.341796982889542
 20
6.20940970389027
 30
0.0
 10
6.340485848640689
 20
6.212941304376445
 30
0.0
 10
6.338742038349149
 20
6.219785827153372
 30
0.0
 10
6.338289755766014
 20
6.223170115454032
 30
0.0
 10
6.33828786306622
 20
6.227690250118867
 30
0.0
 10
6.338400053319649
 20
6.229135128656051
 30
0.0
 10
6.338842343545774
 20
6.231761105083876
 30
0.0
 10
6.339170095272498
 20
6.232953212192264
 30
0.0
 10
6.340484070368678
 20
6.236169671421082
 30
0.0
 10
6.341773992923909
 20
6.237762518099537
 30
0.0
 10
6.344300172499652
 20
6.239223766238086
 30
0.0
 10
6.345219955075202
 20
6.239545062516725
 30
0.0
 10
6.347219291190809
 20
6.23987429608856
 30
0.0
 10
6.348312161875881
 20
6.239879569177431
 30
0.0
 10
6.350605076126648
 20
6.239569832970813
 30
0.0
 10
6.351800704202057
 20
6.239259633775662
 30
0.0
 10
6.354295532626808
 20
6.238333199474535
 30
0.0
 10
6.355602680664526
 20
6.237709585251625
 30
0.0
 10
6.359515499066744
 20
6.235452243775938
 30
0.0
 10
6.362219515665091
 20
6.23337073110714
 30
0.0
 10
6.367276719244051
 20
6.22843933677364
 30
0.0
 10
6.369679101369651
 20
6.225540265172363
 30
0.0
 10
6.372707757870617
 20
6.220910022895013
 30
0.0
 10
6.373640974540434
 20
6.219289437017578
 30
0.0
 10
6.375254339255649
 20
6.216043642212804
 30
0.0
 10
6.375943432124666
 20
6.214408486342849
 30
0.0
 10
6.377640781053397
 20
6.20945741212604
 30
0.0
 10
6.37823736145879
 20
6.206204773048477
 30
0.0
 10
6.37824134255275
 20
6.201627611565788
 30
0.0
 10
6.378095180779638
 20
6.200191751186442
 30
0.0
 10
6.377521753706215
 20
6.19749359632232
 30
0.0
 10
6.377087284486395
 20
6.196218988195057
 30
0.0
 10
6.375961234031704
 20
6.193931564073946
 30
0.0
 10
6.375274379056675
 20
6.192917373985607
 30
0.0
 10
6.37366306387699
 20
6.191150644450286
 30
0.0
 10
6.37273216841809
 20
6.190399267315382
 30
0.0
 10
6.369710377073263
 20
6.188649337469927
 30
0.0
 10
6.367309125904892
 20
6.188111519196224
 30
0.0
 10
6.362256418850847
 20
6.188434505201172
 30
0.0
 10
6.359557110982964
 20
6.189292680282032
 30
0.0
 10
6.356914515387086
 20
6.190818218247545
 30
0.0
  0
LWPOLYLINE
  5
36A
330
1F
100
AcDbEntity
  8
0
  6
Continuous
 62
     7
370
    25
100
AcDbPolyline
 90
       24
 70
   128
 43
0.0
 10
6.6538993635
 20
5.6321001677
 10
6.6375642216
 20
5.6236092885
 10
6.6197811368
 20
5.6161506346
 10
6.6007449444
 20
5.6098059247
 10
6.5806642088
 20
5.6046446727
 10
6.5597589389
 20
5.6007234263
 10
6.5382581771
 20
5.5980851476
 10
6.5163974902
 20
5.596758742
 10
6.4944163886
 20
5.596758742
 10
6.4725557018
 20
5.5980851476
 10
6.45105494
 20
5.6007234263
 10
6.43014967
 20
5.6046446727
 10
6.4100689345
 20
5.6098059247
 10
6.3910327421
 20
5.6161506346
 10
6.3732496573
 20
5.6236092885
 10
6.3569145154
 20
5.6321001677
 10
6.3422062875
 20
5.6415302444
 10
6.3292861202
 20
5.6517962007
 10
6.3182955694
 20
5.6627855607
 10
6.3093550499
 20
5.6743779226
 10
6.3025625159
 20
5.686446278
 10
6.2979923879
 20
5.6988584036
 10
6.2956947371
 20
5.7114783095
 10
6.2954069394
 20
5.7178230195
  0
ARC
  5
36B
330
1F
100
AcDbEntity
  8
0
  6
Continuous
 62
     7
370
    25
100
AcDbCircle
 10
6.611394843
 20
5.7275256518
 30
0.0
 40
0.1044636648765041
100
AcDbArc
 50
294.009198236
 51
354.6706608064
  0
LWPOLYLINE
  5
36C
330
1F
100
AcDbEntity
  8
0
  6
Continuous
 62
   144
370
    18
100
AcDbPolyline
 90
       24
 70
   128
 43
0.0
 10
6.6538993635
 20
6.2751260571
 10
6.6375642216
 20
6.2666351779
 10
6.6197811368
 20
6.259176524
 10
6.6007449444
 20
6.2528318141
 10
6.5806642088
 20
6.247670562
 10
6.5597589389
 20
6.2437493157
 10
6.5382581771
 20
6.2411110369
 10
6.5163974902
 20
6.2397846314
 10
6.4944163886
 20
6.2397846314
 10
6.4725557018
 20
6.2411110369
 10
6.45105494
 20
6.2437493157
 10
6.43014967
 20
6.247670562
 10
6.4100689345
 20
6.2528318141
 10
6.3910327421
 20
6.259176524
 10
6.3732496573
 20
6.2666351779
 10
6.3569145154
 20
6.2751260571
 10
6.3422062875
 20
6.2845561338
 10
6.3292861202
 20
6.2948220901
 10
6.3182955694
 20
6.3058114501
 10
6.3093550499
 20
6.3174038119
 10
6.3025625159
 20
6.3294721674
 10
6.2979923879
 20
6.341884293
 10
6.2956947371
 20
6.3545041989
 10
6.2954069394
 20
6.3608489088
  0
ARC
  5
36D
330
1F
100
AcDbEntity
  8
0
  6
Continuous
 62
   144
370
    18
100
AcDbCircle
 10
6.611394843
 20
6.3705515412
 30
0.0
 40
0.1044636648765068
100
AcDbArc
 50
294.009198236
 51
354.6706608064
  0
SPLINE
  5
36E
330
1F
100
AcDbEntity
  8
0
  6
Continuous
 62
     7
370
    25
100
AcDbSpline
210
0.0
220
0.0
230
1.0
 70
    11
 71
     3
 72
    54
 73
    50
 74
     0
 42
0.000000001
 43
0.00000001
 40
0.0
 40
0.0
 40
0.0
 40
0.0
 40
0.0312500000000007
 40
0.0312500000000007
 40
0.0625000000000015
 40
0.0625000000000015
 40
0.0937500000000022
 40
0.0937500000000022
 40
0.125000000000003
 40
0.125000000000003
 40
0.1875000000000041
 40
0.1875000000000041
 40
0.2500000000000053
 40
0.2500000000000053
 40
0.2812500000000059
 40
0.2812500000000059
 40
0.3125000000000067
 40
0.3125000000000067
 40
0.375000000000009
 40
0.375000000000009
 40
0.4062500000000114
 40
0.4062500000000114
 40
0.4375000000000137
 40
0.4375000000000137
 40
0.4687500000000161
 40
0.4687500000000161
 40
0.5000000000000184
 40
0.5000000000000184
 40
0.5625000000000189
 40
0.5625000000000189
 40
0.6250000000000194
 40
0.6250000000000194
 40
0.6562500000000181
 40
0.6562500000000181
 40
0.6875000000000169
 40
0.6875000000000169
 40
0.7500000000000137
 40
0.7500000000000137
 40
0.7812500000000121
 40
0.7812500000000121
 40
0.8125000000000105
 40
0.8125000000000105
 40
0.843750000000009
 40
0.843750000000009
 40
0.8750000000000073
 40
0.8750000000000073
 40
0.9375000000000038
 40
0.9375000000000038
 40
1.0
 40
1.0
 40
1.0
 40
1.0
 10
6.536656939436263
 20
6.124611217807407
 30
0.0
 10
6.536656939436263
 20
6.126299499954082
 30
0.0
 10
6.536453768156947
 20
6.127941278091469
 30
0.0
 10
6.535658250418398
 20
6.131137834180215
 30
0.0
 10
6.535056040174153
 20
6.132708898289074
 30
0.0
 10
6.533486542350959
 20
6.13567209931388
 30
0.0
 10
6.532526527601664
 20
6.137062354167454
 30
0.0
 10
6.530258904909612
 20
6.139671050458704
 30
0.0
 10
6.528940945381662
 20
6.140892323054008
 30
0.0
 10
6.524622888615149
 20
6.144153682499578
 30
0.0
 10
6.521141016512602
 20
6.145878282128757
 30
0.0
 10
6.513623133077626
 20
6.148177165666628
 30
0.0
 10
6.509506881899566
 20
6.148776634183338
 30
0.0
 10
6.503383467110047
 20
6.148779163369664
 30
0.0
 10
6.501309763710363
 20
6.148630621834541
 30
0.0
 10
6.497299741818226
 20
6.148045986195999
 30
0.0
 10
6.495350379867331
 20
6.147612950196256
 30
0.0
 10
6.489669907139023
 20
6.145880254638633
 30
0.0
 10
6.486230495210805
 20
6.144182506235329
 30
0.0
 10
6.481860519903283
 20
6.140883452856208
 30
0.0
 10
6.480569578951074
 20
6.139684986728213
 30
0.0
 10
6.47830641234055
 20
6.137087105332699
 30
0.0
 10
6.477326295120124
 20
6.135670335023533
 30
0.0
 10
6.475757764344282
 20
6.132708555897056
 30
0.0
 10
6.475165380618225
 20
6.131168048395732
 30
0.0
 10
6.474363094092862
 20
6.127962096268934
 30
0.0
 10
6.474157726276552
 20
6.126287339989513
 30
0.0
 10
6.474155372683061
 20
6.121288400986639
 30
0.0
 10
6.474974827149627
 20
6.117852718969438
 30
0.0
 10
6.47808842558613
 20
6.111459422379419
 30
0.0
 10
6.480411061756217
 20
6.10843994032958
 30
0.0
 10
6.484727927842376
 20
6.104644429661595
 30
0.0
 10
6.486333153935441
 20
6.103477543642317
 30
0.0
 10
6.489722180029249
 20
6.101463309035009
 30
0.0
 10
6.491514697007822
 20
6.100604002142302
 30
0.0
 10
6.497192112087937
 20
6.098488481733903
 30
0.0
 10
6.501249203860077
 20
6.097747699624201
 30
0.0
 10
6.507445997631858
 20
6.097742950262913
 30
0.0
 10
6.509478030118599
 20
6.097924555769212
 30
0.0
 10
6.513477634148656
 20
6.098638104437605
 30
0.0
 10
6.515466332742317
 20
6.099179204953997
 30
0.0
 10
6.519248255293057
 20
6.100581713206909
 30
0.0
 10
6.521043069085757
 20
6.1014380217549
 30
0.0
 10
6.524442241024448
 20
6.103451147291258
 30
0.0
 10
6.526047314335286
 20
6.104614687832306
 30
0.0
 10
6.530366735152676
 20
6.108399923195203
 30
0.0
 10
6.532697919227505
 20
6.111418664023369
 30
0.0
 10
6.535823662488541
 20
6.117805556585735
 30
0.0
 10
6.536656939436263
 20
6.121234653514059
 30
0.0
 10
6.536656939436263
 20
6.124611217807407
 30
0.0
  0
SPLINE
  5
36F
330
1F
100
AcDbEntity
  8
0
  6
Continuous
 62
   144
370
    18
100
AcDbSpline
210
0.0
220
0.0
230
1.0
 70
     8
 71
     3
 72
    10
 73
     6
 74
     0
 42
0.000000001
 43
0.00000001
 40
0.0
 40
0.0
 40
0.0
 40
0.0
 40
0.446707932992478
 40
0.8934963019443113
 40
1.0
 40
1.0
 40
1.0
 40
1.0
 10
6.524156939436263
 20
6.111303871706635
 30
0.0
 10
6.526709238893352
 20
6.11341760195389
 30
0.0
 10
6.531814297384447
 20
6.117645443054848
 30
0.0
 10
6.535596726594401
 20
6.124010968235085
 30
0.0
 10
6.535837730953158
 20
6.127587730010269
 30
0.0
 10
6.535884122103486
 20
6.128276224168847
 30
0.0
  0
SPLINE
  5
370
330
1F
100
AcDbEntity
  8
0
  6
Continuous
 62
   144
370
    18
100
AcDbSpline
210
0.0
220
0.0
230
1.0
 70
     8
 71
     3
 72
    10
 73
     6
 74
     0
 42
0.000000001
 43
0.00000001
 40
0.0
 40
0.0
 40
0.0
 40
0.0
 40
0.2008589438099369
 40
0.6249398825600415
 40
1.0
 40
1.0
 40
1.0
 40
1.0
 10
6.47490408524162
 20
6.128998247555908
 30
0.0
 10
6.475049915486686
 20
6.127647259510558
 30
0.0
 10
6.475503642537601
 20
6.123443880291362
 30
0.0
 10
6.479582677558851
 20
6.116981647944055
 30
0.0
 10
6.484397298115737
 20
6.113117451415316
 30
0.0
 10
6.486656939436261
 20
6.111303871706635
 30
0.0
  0
SPLINE
  5
371
330
1F
100
AcDbEntity
  8
0
  6
Continuous
 62
   144
370
    18
100
AcDbSpline
210
0.0
220
0.0
230
1.0
 70
     8
 71
     3
 72
    16
 73
    12
 74
     0
 42
0.000000001
 43
0.00000001
 40
0.0
 40
0.0
 40
0.0
 40
0.0
 40
0.2499999999999966
 40
0.2499999999999966
 40
0.374999999999996
 40
0.374999999999996
 40
0.4999999999999954
 40
0.4999999999999954
 40
0.7499999999999977
 40
0.7499999999999977
 40
1.0
 40
1.0
 40
1.0
 40
1.0
 10
6.486656939436259
 20
6.111303871706641
 30
0.0
 10
6.489154215613747
 20
6.110722359854156
 30
0.0
 10
6.492021154802059
 20
6.11021639785219
 30
0.0
 10
6.496815824220528
 20
6.109674768003657
 30
0.0
 10
6.498463477767279
 20
6.109534160391608
 30
0.0
 10
6.501862383655839
 20
6.109341812875507
 30
0.0
 10
6.503636341343762
 20
6.10929071597532
 30
0.0
 10
6.508878199596583
 20
6.109289409131413
 30
0.0
 10
6.512382047218623
 20
6.109493351987662
 30
0.0
 10
6.518751024289697
 20
6.110210561530914
 30
0.0
 10
6.521657072174699
 20
6.11072175649834
 30
0.0
 10
6.524156939436266
 20
6.111303871706641
 30
0.0
  0
SPLINE
  5
372
330
1F
100
AcDbEntity
  8
0
  6
Continuous
 62
   144
370
    18
100
AcDbSpline
210
0.0
220
0.0
230
1.0
 70
     8
 71
     3
 72
    13
 73
     9
 74
     0
 42
0.000000001
 43
0.00000001
 40
0.0
 40
0.0
 40
0.0
 40
0.0
 40
0.1707548133114932
 40
0.3414677412040907
 40
0.5132716581145224
 40
0.6858379257058717
 40
0.8572028147803998
 40
1.0
 40
1.0
 40
1.0
 40
1.0
 10
6.3666372336284
 20
6.196431024016327
 30
0.0
 10
6.364436002636542
 20
6.197991572450119
 30
0.0
 10
6.360034080605288
 20
6.201112286521909
 30
0.0
 10
6.354534773788528
 20
6.208736100293604
 30
0.0
 10
6.350474164369424
 20
6.217481775144758
 30
0.0
 10
6.34825374355062
 20
6.226458898837009
 30
0.0
 10
6.347796202891575
 20
6.234326202825396
 30
0.0
 10
6.348988699417982
 20
6.237899855349204
 30
0.0
 10
6.349530729030365
 20
6.239524200116149
 30
0.0
  0
SPLINE
  5
373
330
1F
100
AcDbEntity
  8
0
  6
Continuous
 62
   144
370
    18
100
AcDbSpline
210
0.0
220
0.0
230
1.0
 70
     8
 71
     3
 72
     9
 73
     5
 74
     0
 42
0.000000001
 43
0.00000001
 40
0.0
 40
0.0
 40
0.0
 40
0.0
 40
0.4904728978733531
 40
1.0
 40
1.0
 40
1.0
 40
1.0
 10
6.375652691416834
 20
6.194214961748924
 30
0.0
 10
6.374223006024215
 20
6.194150484776552
 30
0.0
 10
6.371308093908135
 20
6.194019025989224
 30
0.0
 10
6.368213839904246
 20
6.195616876086586
 30
0.0
 10
6.3666372336284
 20
6.196431024016327
 30
0.0
  0
ARC
  5
374
330
1F
100
AcDbEntity
  8
0
  6
Continuous
 62
   144
370
    18
100
AcDbCircle
 10
6.5048354461
 20
5.65376866
 30
0.0
 40
0.1473930295199264
100
AcDbArc
 50
248.6950766751
 51
276.5159371594
  0
ARC
  5
375
330
1F
100
AcDbEntity
  8
0
  6
Continuous
 62
   144
370
    18
100
AcDbCircle
 10
6.5088249097
 20
5.6439174084
 30
0.0
 40
0.1371822114128334
100
AcDbArc
 50
275.3272793092
 51
291.7712730183
  0
SPLINE
  5
376
330
1F
100
AcDbEntity
  8
0
  6
Continuous
 62
     7
370
    25
100
AcDbSpline
210
0.0
220
0.0
230
1.0
 70
    11
 71
     3
 72
    70
 73
    66
 74
     0
 42
0.000000001
 43
0.00000001
 40
0.0
 40
0.0
 40
0.0
 40
0.0
 40
0.0312499999999997
 40
0.0312499999999997
 40
0.0624999999999993
 40
0.0624999999999993
 40
0.093749999999999
 40
0.093749999999999
 40
0.1249999999999986
 40
0.1249999999999986
 40
0.1562499999999981
 40
0.1562499999999981
 40
0.1874999999999977
 40
0.1874999999999977
 40
0.2187499999999973
 40
0.2187499999999973
 40
0.2343749999999974
 40
0.2343749999999974
 40
0.2499999999999974
 40
0.2499999999999974
 40
0.2812499999999977
 40
0.2812499999999977
 40
0.3124999999999979
 40
0.3124999999999979
 40
0.3437499999999981
 40
0.3437499999999981
 40
0.3749999999999983
 40
0.3749999999999983
 40
0.4062499999999986
 40
0.4062499999999986
 40
0.4374999999999988
 40
0.4374999999999988
 40
0.468749999999999
 40
0.468749999999999
 40
0.4999999999999992
 40
0.4999999999999992
 40
0.5312499999999994
 40
0.5312499999999994
 40
0.5624999999999997
 40
0.5624999999999997
 40
0.6249999999999996
 40
0.6249999999999996
 40
0.6562499999999997
 40
0.6562499999999997
 40
0.6874999999999998
 40
0.6874999999999998
 40
0.7187499999999999
 40
0.7187499999999999
 40
0.75
 40
0.75
 40
0.78125
 40
0.78125
 40
0.8125
 40
0.8125
 40
0.84375
 40
0.84375
 40
0.875
 40
0.875
 40
0.90625
 40
0.90625
 40
0.9375
 40
0.9375
 40
0.96875
 40
0.96875
 40
1.0
 40
1.0
 40
1.0
 40
1.0
 10
6.546065579354491
 20
6.892802886908592
 30
0.0
 10
6.543238008884855
 20
6.894540422891167
 30
0.0
 10
6.540193879445417
 20
6.896323189201091
 30
0.0
 10
6.533710041176077
 20
6.899966354854524
 30
0.0
 10
6.530245149666975
 20
6.901838004040156
 30
0.0
 10
6.523273192094333
 20
6.905446270792082
 30
0.0
 10
6.519699798650282
 20
6.907218931894007
 30
0.0
 10
6.51253693886699
 20
6.910578864177248
 30
0.0
 10
6.508996147358709
 20
6.912145123307414
 30
0.0
 10
6.501946626989453
 20
6.915003925652805
 30
0.0
 10
6.49840987965178
 20
6.916306636419615
 30
0.0
 10
6.491451439824279
 20
6.91846911042666
 30
0.0
 10
6.488052058640633
 20
6.919327104146942
 30
0.0
 10
6.481335585923962
 20
6.920396614324225
 30
0.0
 10
6.47796972091186
 20
6.920607063599666
 30
0.0
 10
6.473112191423171
 20
6.920128956746989
 30
0.0
 10
6.471530664605962
 20
6.919838950565682
 30
0.0
 10
6.468443072196441
 20
6.918951381543271
 30
0.0
 10
6.466923486204715
 20
6.91834458073815
 30
0.0
 10
6.462634742056936
 20
6.916074505162382
 30
0.0
 10
6.4600808543072
 20
6.91393535880809
 30
0.0
 10
6.455710172780837
 20
6.908738145915733
 30
0.0
 10
6.45394000469228
 20
6.905773516908846
 30
0.0
 10
6.451063539769932
 20
6.899383352786933
 30
0.0
 10
6.449981833195128
 20
6.895994368272172
 30
0.0
 10
6.44847774249248
 20
6.889152316817163
 30
0.0
 10
6.448044889610859
 20
6.885670067613515
 30
0.0
 10
6.447824343087561
 20
6.878656497562808
 30
0.0
 10
6.448043195780023
 20
6.875179507578614
 30
0.0
 10
6.449150571787477
 20
6.868473573856689
 30
0.0
 10
6.450037351311287
 20
6.865223281322139
 30
0.0
 10
6.452589121259021
 20
6.859001265221223
 30
0.0
 10
6.454232659425016
 20
6.856102653281813
 30
0.0
 10
6.458241137463383
 20
6.850937277308407
 30
0.0
 10
6.460655233764296
 20
6.848631037728431
 30
0.0
 10
6.46602859482553
 20
6.84492107987271
 30
0.0
 10
6.469023136379669
 20
6.843474460594028
 30
0.0
 10
6.475521968486941
 20
6.841462179387704
 30
0.0
 10
6.478924636008863
 20
6.840920188387352
 30
0.0
 10
6.48956796407664
 20
6.84051182489085
 30
0.0
 10
6.497051038344129
 20
6.841908656546877
 30
0.0
 10
6.508036584366256
 20
6.845523481673673
 30
0.0
 10
6.51165392814907
 20
6.84697200302216
 30
0.0
 10
6.518860917424141
 20
6.850238774837113
 30
0.0
 10
6.522432846798864
 20
6.852052881490412
 30
0.0
 10
6.529365175964747
 20
6.85579892152913
 30
0.0
 10
6.532793398393311
 20
6.857766791848677
 30
0.0
 10
6.53936481250631
 20
6.861594569273487
 30
0.0
 10
6.542464611306031
 20
6.863423132573352
 30
0.0
 10
6.548236797678832
 20
6.866764712776685
 30
0.0
 10
6.550764595984938
 20
6.868193177420789
 30
0.0
 10
6.555162476969933
 20
6.870683766206562
 30
0.0
 10
6.556981112417912
 20
6.871722772623365
 30
0.0
 10
6.55987023781257
 20
6.873572301202903
 30
0.0
 10
6.560968610502619
 20
6.874403260615411
 30
0.0
 10
6.562451336396969
 20
6.876021065363322
 30
0.0
 10
6.562845787091834
 20
6.876809469166383
 30
0.0
 10
6.56295511890169
 20
6.878504562224626
 30
0.0
 10
6.56265965316949
 20
6.879420349315136
 30
0.0
 10
6.561345237091341
 20
6.88143477404503
 30
0.0
 10
6.560333806498731
 20
6.882535176765629
 30
0.0
 10
6.557514918670598
 20
6.885032308378845
 30
0.0
 10
6.555721582502045
 20
6.886411923658871
 30
0.0
 10
6.551434902036378
 20
6.889412374686928
 30
0.0
 10
6.548893149824127
 20
6.891065350926018
 30
0.0
 10
6.546065579354491
 20
6.892802886908592
 30
0.0
  0
SPLINE
  5
377
330
1F
100
AcDbEntity
  8
0
  6
Continuous
 62
     7
370
    25
100
AcDbSpline
210
0.0
220
0.0
230
1.0
 70
    11
 71
     3
 72
    66
 73
    62
 74
     0
 42
0.000000001
 43
0.00000001
 40
0.0
 40
0.0
 40
0.0
 40
0.0
 40
0.0312500000000005
 40
0.0312500000000005
 40
0.0625000000000011
 40
0.0625000000000011
 40
0.1250000000000022
 40
0.1250000000000022
 40
0.1562500000000022
 40
0.1562500000000022
 40
0.1875000000000022
 40
0.1875000000000022
 40
0.2187500000000022
 40
0.2187500000000022
 40
0.2500000000000022
 40
0.2500000000000022
 40
0.2812500000000023
 40
0.2812500000000023
 40
0.3125000000000022
 40
0.3125000000000022
 40
0.3437500000000022
 40
0.3437500000000022
 40
0.3750000000000022
 40
0.3750000000000022
 40
0.4375000000000022
 40
0.4375000000000022
 40
0.4687500000000021
 40
0.4687500000000021
 40
0.500000000000002
 40
0.500000000000002
 40
0.5312500000000019
 40
0.5312500000000019
 40
0.5625000000000018
 40
0.5625000000000018
 40
0.5937500000000017
 40
0.5937500000000017
 40
0.6250000000000014
 40
0.6250000000000014
 40
0.6562500000000013
 40
0.6562500000000013
 40
0.6875000000000012
 40
0.6875000000000012
 40
0.7187500000000011
 40
0.7187500000000011
 40
0.750000000000001
 40
0.750000000000001
 40
0.7812500000000009
 40
0.7812500000000009
 40
0.8125000000000008
 40
0.8125000000000008
 40
0.8437500000000007
 40
0.8437500000000007
 40
0.8750000000000004
 40
0.8750000000000004
 40
0.9062500000000003
 40
0.9062500000000003
 40
0.9375000000000002
 40
0.9375000000000002
 40
0.9687500000000001
 40
0.9687500000000001
 40
1.0
 40
1.0
 40
1.0
 40
1.0
 10
6.538994511542626
 20
6.888720846349479
 30
0.0
 10
6.536708421963166
 20
6.890125643487641
 30
0.0
 10
6.53424571309247
 20
6.891533944221582
 30
0.0
 10
6.528992855905367
 20
6.894349818708284
 30
0.0
 10
6.526172322918545
 20
6.895770328153429
 30
0.0
 10
6.517590811460639
 20
6.899805517528899
 30
0.0
 10
6.511543433068149
 20
6.90228754710476
 30
0.0
 10
6.502609414054437
 20
6.905127524698018
 30
0.0
 10
6.499603976821917
 20
6.905940135426531
 30
0.0
 10
6.493718577923215
 20
6.907145417629384
 30
0.0
 10
6.490841119151468
 20
6.907542190889406
 30
0.0
 10
6.485182109233728
 20
6.907793597157879
 30
0.0
 10
6.482364671463397
 20
6.9076380718127
 30
0.0
 10
6.477068010644815
 20
6.906608435642981
 30
0.0
 10
6.474550933928105
 20
6.905730895870379
 30
0.0
 10
6.469932616480444
 20
6.903189322209582
 30
0.0
 10
6.467894102652679
 20
6.901567993768043
 30
0.0
 10
6.464329412646841
 20
6.897696416714104
 30
0.0
 10
6.462831405335407
 20
6.89546667738105
 30
0.0
 10
6.460443251418536
 20
6.890705892546633
 30
0.0
 10
6.459533480523707
 20
6.888136692673053
 30
0.0
 10
6.458301401638789
 20
6.882919491404238
 30
0.0
 10
6.457967047914447
 20
6.880253200060784
 30
0.0
 10
6.457808644940717
 20
6.872178289479764
 30
0.0
 10
6.458811554531499
 20
6.866935908836316
 30
0.0
 10
6.462135683444461
 20
6.859792951123726
 30
0.0
 10
6.463522701442337
 20
6.857599153948565
 30
0.0
 10
6.466885001815986
 20
6.853632943776439
 30
0.0
 10
6.468881526141289
 20
6.851858515564856
 30
0.0
 10
6.473287706137817
 20
6.848959046000039
 30
0.0
 10
6.475730069086606
 20
6.847799684631865
 30
0.0
 10
6.481028853371544
 20
6.84610508277098
 30
0.0
 10
6.483804445028109
 20
6.845591089094176
 30
0.0
 10
6.489597654481479
 20
6.845149221818291
 30
0.0
 10
6.492618177180735
 20
6.845229465287185
 30
0.0
 10
6.498656695544347
 20
6.845891994531099
 30
0.0
 10
6.501728382410344
 20
6.846476617615886
 30
0.0
 10
6.50785894299166
 20
6.848041711465207
 30
0.0
 10
6.510882500275287
 20
6.849009759859374
 30
0.0
 10
6.51688183242277
 20
6.851224725581429
 30
0.0
 10
6.519884351295851
 20
6.852485943442404
 30
0.0
 10
6.525650499921295
 20
6.855118766373347
 30
0.0
 10
6.52843373000418
 20
6.856495133009502
 30
0.0
 10
6.533804820040036
 20
6.859291762223852
 30
0.0
 10
6.536310548209849
 20
6.860668645132923
 30
0.0
 10
6.540866915829295
 20
6.863283512134831
 30
0.0
 10
6.542958727195774
 20
6.864546813485708
 30
0.0
 10
6.546524552413977
 20
6.866870286543334
 30
0.0
 10
6.548015801423852
 20
6.867939182479837
 30
0.0
 10
6.550438765343038
 20
6.869989200499032
 30
0.0
 10
6.551336588607657
 20
6.870942212376868
 30
0.0
 10
6.552560530013635
 20
6.87283040895985
 30
0.0
 10
6.552881509402984
 20
6.873770182123804
 30
0.0
 10
6.552929426936685
 20
6.875674732440119
 30
0.0
 10
6.55266444947612
 20
6.876646513318543
 30
0.0
 10
6.551522959555087
 20
6.878724825421374
 30
0.0
 10
6.550645751991629
 20
6.879820990341977
 30
0.0
 10
6.548322398788876
 20
6.882122354906625
 30
0.0
 10
6.54687180985432
 20
6.883337064524865
 30
0.0
 10
6.543322879565785
 20
6.885955175864441
 30
0.0
 10
6.541280601122085
 20
6.887316049211315
 30
0.0
 10
6.538994511542626
 20
6.888720846349479
 30
0.0
  0
ARC
  5
378
330
1F
100
AcDbEntity
  8
0
  6
Continuous
 62
   144
370
    18
100
AcDbCircle
 10
6.5399407746
 20
6.6944189407
 30
0.0
 40
0.0229761066215858
100
AcDbArc
 50
315.0439595287
 51
358.3144295901
  0
ARC
  5
379
330
1F
100
AcDbEntity
  8
0
  6
Continuous
 62
   144
370
    18
100
AcDbCircle
 10
6.4713203683
 20
6.6946117556
 30
0.0
 40
0.0234295368097373
100
AcDbArc
 50
182.1247174764
 51
224.5168934049
  0
ARC
  5
37A
330
1F
100
AcDbEntity
  8
0
  6
Continuous
 62
     7
370
    25
100
AcDbCircle
 10
6.4115185027
 20
5.4005004071
 30
0.0
 40
0.0889781788103008
100
AcDbArc
 50
185.202960891
 51
242.1438229926
  0
LWPOLYLINE
  5
37B
330
1F
100
AcDbEntity
  8
0
  6
Continuous
 62
     7
370
    25
100
AcDbPolyline
 90
        3
 70
   128
 43
0.0
 10
6.6838690108
 20
5.3703919713
 10
6.6871248422
 20
5.3826882671
 10
6.6879069394
 20
5.3924315059
  0
ARC
  5
37C
330
1F
100
AcDbEntity
  8
0
  6
Continuous
 62
     7
370
    25
100
AcDbCircle
 10
6.6149797715
 20
5.3960554921
 30
0.0
 40
0.0735142407051695
100
AcDbArc
 50
330.6351040569
 51
339.5679730542
  0
ARC
  5
37D
330
1F
100
AcDbEntity
  8
0
  6
Continuous
 62
     7
370
    25
100
AcDbCircle
 10
6.5437127066
 20
5.4587862305
 30
0.0
 40
0.1675507238761308
100
AcDbArc
 50
276.1198652171
 51
323.8747582502
  0
ARC
  5
37E
330
1F
100
AcDbEntity
  8
0
  6
Continuous
 62
     7
370
    25
100
AcDbCircle
 10
6.5074990221
 20
5.5822377841
 30
0.0
 40
0.2950452895073247
100
AcDbArc
 50
277.025175543
 51
280.5609023227
  0
ARC
  5
37F
330
1F
100
AcDbEntity
  8
0
  6
Continuous
 62
     7
370
    25
100
AcDbCircle
 10
6.504770367
 20
5.56960067
 30
0.0
 40
0.2828687635403458
100
AcDbArc
 50
244.5271047876
 51
277.8868173467
  0
LWPOLYLINE
  5
380
330
1F
100
AcDbEntity
  8
0
  6
Continuous
 62
     7
370
    25
100
AcDbPolyline
 90
       31
 70
   128
 43
0.0
 10
6.3763599519
 20
5.3669267144
 10
6.3916200506
 20
5.359054093
 10
6.4083110855
 20
5.3522173203
 10
6.426223157
 20
5.3465023728
 10
6.4451310106
 20
5.3419811193
 10
6.464796869
 20
5.3387104172
 10
6.4849734225
 20
5.3367313974
 10
6.5054069394
 20
5.3360689472
 10
6.5258404563
 20
5.3367313974
 10
6.5460170099
 20
5.3387104172
 10
6.5656828682
 20
5.3419811193
 10
6.5845907218
 20
5.3465023728
 10
6.6025027934
 20
5.3522173203
 10
6.6191938283
 20
5.359054093
 10
6.634453927
 20
5.3669267144
 10
6.648091185
 20
5.3757361819
 10
6.6599341058
 20
5.3853717112
 10
6.6698337578
 20
5.3957121301
 10
6.6776656472
 20
5.4066274016
 10
6.6833312834
 20
5.41798026
 10
6.6867594177
 20
5.4296279364
 10
6.6879069394
 20
5.4414239546
 10
6.6867594177
 20
5.4532199728
 10
6.6833312834
 20
5.4648676493
 10
6.6776656472
 20
5.4762205077
 10
6.6698337578
 20
5.4871357792
 10
6.6599341058
 20
5.497476198
 10
6.648091185
 20
5.5071117274
 10
6.634453927
 20
5.5159211948
 10
6.6191938283
 20
5.5237938163
 10
6.6077885954
 20
5.5286388247
  0
LWPOLYLINE
  5
381
330
1F
100
AcDbEntity
  8
0
  6
Continuous
 62
     7
370
    25
100
AcDbPolyline
 90
       17
 70
   128
 43
0.0
 10
6.403144817
 20
5.5286855483
 10
6.3916200506
 20
5.5237938163
 10
6.3763599519
 20
5.5159211948
 10
6.3627226939
 20
5.5071117274
 10
6.3508797731
 20
5.497476198
 10
6.340980121
 20
5.4871357792
 10
6.3331482317
 20
5.4762205077
 10
6.3274825955
 20
5.4648676493
 10
6.3240544611
 20
5.4532199728
 10
6.3229069394
 20
5.4414239546
 10
6.3240544611
 20
5.4296279364
 10
6.3274825955
 20
5.41798026
 10
6.3331482317
 20
5.4066274016
 10
6.340980121
 20
5.3957121301
 10
6.3508797731
 20
5.3853717112
 10
6.3627226939
 20
5.3757361819
 10
6.3763599519
 20
5.3669267144
  0
ARC
  5
382
330
1F
100
AcDbEntity
  8
0
  6
Continuous
 62
   144
370
    18
100
AcDbCircle
 10
6.4624426612
 20
5.4668558827
 30
0.0
 40
0.1720112812158842
100
AcDbArc
 50
237.4692087864
 51
242.5361677463
  0
LWPOLYLINE
  5
383
330
1F
100
AcDbEntity
  8
0
  6
Continuous
 62
     7
370
    25
100
AcDbPolyline
 90
       10
 70
   128
 43
0.0
 10
6.4311607274
 20
5.3985625288
 10
6.4209241726
 20
5.4054294195
 10
6.4125748231
 20
5.4131003687
 10
6.4062991898
 20
5.42140402
 10
6.4022374597
 20
5.4301548836
 10
6.4004803654
 20
5.4391574795
 10
6.4010671574
 20
5.4482107048
 10
6.4039847277
 20
5.4571123253
 10
6.4091679026
 20
5.4656634936
 10
6.4116569394
 20
5.4687214087
  0
LWPOLYLINE
  5
384
330
1F
100
AcDbEntity
  8
0
  6
Continuous
 62
     7
370
    25
100
AcDbPolyline
 90
       20
 70
   128
 43
0.0
 10
6.5991569394
 20
5.4687214087
 10
6.6045146891
 20
5.4614438893
 10
6.6085764191
 20
5.4526930257
 10
6.6103335134
 20
5.4436904297
 10
6.6097467215
 20
5.4346372044
 10
6.6068291512
 20
5.4257355839
 10
6.6016459763
 20
5.4171844157
 10
6.5943129804
 20
5.4091747187
 10
6.5849939704
 20
5.4018854164
 10
6.5738971176
 20
5.3954793396
 10
6.5612703075
 20
5.3900995897
 10
6.547395602
 20
5.3858663412
 10
6.5325829392
 20
5.3828741581
 10
6.5171632094
 20
5.3811898806
 10
6.501480864
 20
5.3808511328
 10
6.4858862207
 20
5.3818654817
 10
6.4707276379
 20
5.3842102686
 10
6.4563437335
 20
5.3878331146
 10
6.44305582
 20
5.3926530914
 10
6.4311607274
 20
5.3985625288
  0
LINE
  5
385
330
1F
100
AcDbEntity
  8
0
  6
Continuous
 62
     7
370
    25
100
AcDbLine
 10
6.3766425433
 20
5.2798759579
 30
0.0
 11
6.3523138305
 21
5.283639215
 31
0.0
  0
SPLINE
  5
386
330
1F
100
AcDbEntity
  8
0
  6
Continuous
 62
     7
370
    25
100
AcDbSpline
210
0.0
220
0.0
230
1.0
 70
     8
 71
     3
 72
    18
 73
    14
 74
     0
 42
0.000000001
 43
0.00000001
 40
0.0
 40
0.0
 40
0.0
 40
0.0
 40
0.125
 40
0.125
 40
0.25
 40
0.25
 40
0.5000000000000004
 40
0.5000000000000004
 40
0.6250000000000003
 40
0.6250000000000003
 40
0.7500000000000002
 40
0.7500000000000002
 40
1.0
 40
1.0
 40
1.0
 40
1.0
 10
6.537114193664158
 20
5.255053597010336
 30
0.0
 10
6.530394479269672
 20
5.256093027808221
 30
0.0
 10
6.523691173147754
 20
5.257613049759658
 30
0.0
 10
6.510384581752183
 20
5.261121674904139
 30
0.0
 10
6.503774288580892
 20
5.263118967563358
 30
0.0
 10
6.483958471690832
 20
5.26922182622719
 30
0.0
 10
6.470761978226809
 20
5.27343521638207
 30
0.0
 10
6.450662461170841
 20
5.276614124380972
 30
0.0
 10
6.443883991903715
 20
5.277161716734818
 30
0.0
 10
6.430425479377541
 20
5.277640596464243
 30
0.0
 10
6.423747410778678
 20
5.277609539095147
 30
0.0
 10
6.403691184030375
 20
5.277632734995962
 30
0.0
 10
6.390245275184932
 20
5.277771835935003
 30
0.0
 10
6.376642543294925
 20
5.279875957871118
 30
0.0
  0
LINE
  5
387
330
1F
100
AcDbEntity
  8
0
  6
Continuous
 62
     7
370
    25
100
AcDbLine
 10
6.5614429064
 20
5.2512903398
 30
0.0
 11
6.5371141937
 21
5.255053597
 31
0.0
  0
LINE
  5
388
330
1F
100
AcDbEntity
  8
0
  6
Continuous
 62
     7
370
    25
100
AcDbLine
 10
6.5614429064
 20
5.2512903398
 30
0.0
 11
6.5614429064
 21
5.0104108003
 31
0.0
  0
LINE
  5
389
330
1F
100
AcDbEntity
  8
0
  6
Continuous
 62
     7
370
    25
100
AcDbLine
 10
6.3523138305
 20
5.0427596755
 30
0.0
 11
6.5614429064
 21
5.0104108003
 31
0.0
  0
LINE
  5
38A
330
1F
100
AcDbEntity
  8
0
  6
Continuous
 62
     7
370
    25
100
AcDbLine
 10
6.3523138305
 20
5.283639215
 30
0.0
 11
6.3523138305
 21
5.0427596755
 31
0.0
  0
ARC
  5
38B
330
1F
100
AcDbEntity
  8
0
  6
Continuous
 62
     7
370
    25
100
AcDbCircle
 10
6.6324836658
 20
5.2548773294
 30
0.0
 40
0.0953696350678386
100
AcDbArc
 50
158.7727964365
 51
179.8941025959
  0
ARC
  5
38C
330
1F
100
AcDbEntity
  8
0
  6
Continuous
 62
     7
370
    25
100
AcDbCircle
 10
6.4720120155
 20
5.2796996902
 30
0.0
 40
0.0953696350679141
100
AcDbArc
 50
158.7727964365
 51
179.8941025959
  0
LINE
  5
38D
330
1F
100
AcDbEntity
  8
0
  6
Continuous
 62
     7
370
    25
100
AcDbLine
 10
6.5435846698
 20
5.2894075451
 30
0.0
 11
6.5539714442
 21
5.2878008796
 31
0.0
  0
ELLIPSE
  5
38E
330
1F
100
AcDbEntity
  8
0
  6
Continuous
 62
     7
370
    25
100
AcDbEllipse
 10
6.5539714442
 20
5.2673873593
 30
0.0
 11
-0.004862082962509007
 21
0.02597495393799676
 31
0.0
210
0.0
220
0.0
230
1.0
 40
0.218402591
 41
4.003812106233401
 42
5.574608433028324
  0
LINE
  5
38F
330
1F
100
AcDbEntity
  8
0
  6
Continuous
 62
     7
370
    25
100
AcDbLine
 10
6.5539714442
 20
5.2878008796
 30
0.0
 11
6.5615750908
 21
5.2921903713
 31
0.0
  0
ARC
  5
390
330
1F
100
AcDbEntity
  8
0
  6
Continuous
 62
     7
370
    25
100
AcDbCircle
 10
6.5408723578
 20
5.2598252283
 30
0.0
 40
0.0384201201893056
100
AcDbArc
 50
2.6054784857
 51
57.39452166
  0
LINE
  5
391
330
1F
100
AcDbEntity
  8
0
  6
Continuous
 62
     7
370
    25
100
AcDbLine
 10
6.5792527603
 20
5.2615717496
 30
0.0
 11
6.5614429064
 21
5.2512903398
 31
0.0
  0
SPLINE
  5
392
330
1F
100
AcDbEntity
  8
0
  6
Continuous
 62
     7
370
    25
100
AcDbSpline
210
0.0
220
0.0
230
1.0
 70
     8
 71
     3
 72
    18
 73
    14
 74
     0
 42
0.000000001
 43
0.00000001
 40
0.0
 40
0.0
 40
0.0
 40
0.0
 40
0.125
 40
0.125
 40
0.2500000000000001
 40
0.2500000000000001
 40
0.5
 40
0.5
 40
0.625
 40
0.625
 40
0.75
 40
0.75
 40
1.0
 40
1.0
 40
1.0
 40
1.0
 10
6.696726161531095
 20
5.329387700656847
 30
0.0
 10
6.69180698918198
 20
5.326547922906071
 30
0.0
 10
6.68689982852205
 20
5.324198208602976
 30
0.0
 10
6.677158727544932
 20
5.320025102045051
 30
0.0
 10
6.67231965709062
 20
5.3182063536832
 30
0.0
 10
6.657813472333615
 20
5.312869784751463
 30
0.0
 10
6.648152968636201
 20
5.309465001386947
 30
0.0
 10
6.633439100943635
 20
5.301040705170584
 30
0.0
 10
6.628476917042555
 20
5.29767517050977
 30
0.0
 10
6.618624602079093
 20
5.290384616334884
 30
0.0
 10
6.613735916568295
 20
5.286498392023201
 30
0.0
 10
6.599053739580414
 20
5.274943374671419
 30
0.0
 10
6.58921065115161
 20
5.267320317656164
 30
0.0
 10
6.579252760286388
 20
5.261571749621382
 30
0.0
  0
LINE
  5
393
330
1F
100
AcDbEntity
  8
0
  6
Continuous
 62
     7
370
    25
100
AcDbLine
 10
6.7145360154
 20
5.3396691104
 30
0.0
 11
6.6967261615
 21
5.3293877007
 31
0.0
  0
LINE
  5
394
330
1F
100
AcDbEntity
  8
0
  6
Continuous
 62
     7
370
    25
100
AcDbLine
 10
6.7145360154
 20
5.3396691104
 30
0.0
 11
6.7145360154
 21
5.0987895709
 31
0.0
  0
LINE
  5
395
330
1F
100
AcDbEntity
  8
0
  6
Continuous
 62
     7
370
    25
100
AcDbLine
 10
6.5614429064
 20
5.0104108003
 30
0.0
 11
6.7145360154
 21
5.0987895709
 31
0.0
  0
LWPOLYLINE
  5
396
330
1F
100
AcDbEntity
  8
0
  6
Continuous
 62
     7
370
    25
100
AcDbPolyline
 90
       20
 70
   128
 43
0.0
 10
6.6538993635
 20
5.2413824035
 10
6.6530373211
 20
5.2468501903
 10
6.6505446095
 20
5.2507301646
 10
6.6466913528
 20
5.2526018709
 10
6.6418951111
 20
5.2522624809
 10
6.6366756316
 20
5.2497487727
 10
6.6315985258
 20
5.2453331456
 10
6.6272139771
 20
5.2394941013
 10
6.6239971192
 20
5.2328643909
 10
6.6222965487
 20
5.2261624463
 10
6.6222965487
 20
5.2201145273
 10
6.6239971192
 20
5.2153760197
 10
6.6272139771
 20
5.2124604143
 10
6.6315985258
 20
5.2116836623
 10
6.6366756316
 20
5.2131299367
 10
6.6418951111
 20
5.2166425113
 10
6.6466913528
 20
5.2218407441
 10
6.6505446095
 20
5.2281613259
 10
6.6530373211
 20
5.2349193237
 10
6.6538993635
 20
5.2413824035
  0
ARC
  5
397
330
1F
100
AcDbEntity
  8
0
  6
Continuous
 62
     7
370
    25
100
AcDbCircle
 10
6.658345759
 20
5.3276411794
 30
0.0
 40
0.0384201201892978
100
AcDbArc
 50
2.6054784857
 51
57.39452166
  0
ARC
  5
398
330
1F
100
AcDbEntity
  8
0
  6
Continuous
 62
   144
370
    18
100
AcDbCircle
 10
6.5605963838
 20
5.4352595233
 30
0.0
 40
0.0415593212004688
100
AcDbArc
 50
293.1197283582
 51
21.8988514526
  0
ARC
  5
399
330
1F
100
AcDbEntity
  8
0
  6
Continuous
 62
   144
370
    18
100
AcDbCircle
 10
6.4519130548
 20
5.435961525
 30
0.0
 40
0.0428899267640049
100
AcDbArc
 50
159.8163261194
 51
245.1650940697
  0
LINE
  5
39A
330
1F
100
AcDbEntity
  8
0
  6
Continuous
 62
   144
370
    18
100
AcDbLine
 10
6.4082626036
 20
5.4401031269
 30
0.0
 11
6.4116569394
 21
5.4423166053
 31
0.0
  0
LWPOLYLINE
  5
39B
330
1F
100
AcDbEntity
  8
0
  6
Continuous
 62
   144
370
    18
100
AcDbPolyline
 90
        3
 70
   128
 43
0.0
 10
6.5991569394
 20
5.4423166053
 10
6.6013834888
 20
5.4408850074
 10
6.6025512753
 20
5.4401031269
  0
ELLIPSE
  5
39C
330
1F
100
AcDbEntity
  8
0
  6
Continuous
 62
     7
370
    25
100
AcDbEllipse
 10
6.372726245
 20
5.2954230511
 30
0.0
 11
0.01631222231772877
 21
0.02168853586064934
 31
0.0
210
0.0
220
0.0
230
1.0
 40
0.565783956
 41
0.9258506503252921
 42
2.496646977120083
  0
LINE
  5
39D
330
1F
100
AcDbEntity
  8
0
  6
Continuous
 62
   144
370
    18
100
AcDbLine
 10
6.372726245
 20
5.3158365714
 30
0.0
 11
6.3831130194
 21
5.3142299059
 31
0.0
  0
LINE
  5
39E
330
1F
100
AcDbEntity
  8
0
  6
Continuous
 62
     7
370
    25
100
AcDbLine
 10
6.3523138305
 20
5.283639215
 30
0.0
 11
6.3457949716
 21
5.297683882
 31
0.0
  0
ARC
  5
39F
330
1F
100
AcDbEntity
  8
0
  6
Continuous
 62
     7
370
    25
100
AcDbCircle
 10
6.3727924747
 20
5.2948353082
 30
0.0
 40
0.0271473672675265
100
AcDbArc
 50
96.0247979745
 51
173.9768652481
  0
LINE
  5
3A0
330
1F
100
AcDbEntity
  8
0
  6
Continuous
 62
   144
370
    18
100
AcDbLine
 10
6.3699431172
 20
5.3218327286
 30
0.0
 11
6.372726245
 21
5.3158365714
 31
0.0
  0
LINE
  5
3A1
330
1F
100
AcDbEntity
  8
0
  6
Continuous
 62
     7
370
    25
100
AcDbLine
 10
6.3027967224
 20
5.3903221939
 30
0.0
 11
6.2962778635
 21
5.4043668608
 31
0.0
  0
SPLINE
  5
3A2
330
1F
100
AcDbEntity
  8
0
  6
Continuous
 62
     7
370
    25
100
AcDbSpline
210
0.0
220
0.0
230
1.0
 70
     8
 71
     3
 72
    18
 73
    14
 74
     0
 42
0.000000001
 43
0.00000001
 40
0.0
 40
0.0
 40
0.0
 40
0.0
 40
0.1249999999999999
 40
0.1249999999999999
 40
0.2499999999999997
 40
0.2499999999999997
 40
0.4999999999999999
 40
0.4999999999999999
 40
0.625
 40
0.625
 40
0.75
 40
0.75
 40
1.0
 40
1.0
 40
1.0
 40
1.0
 10
6.345794971569326
 20
5.297683881975983
 30
0.0
 10
6.343994429523956
 20
5.301563090524644
 30
0.0
 10
6.342198284061969
 20
5.305915956026288
 30
0.0
 10
6.338632793643516
 20
5.315047999067043
 30
0.0
 10
6.336861570926534
 20
5.319838827637452
 30
0.0
 10
6.33155193879348
 20
5.334315928510747
 30
0.0
 10
6.328015949026874
 20
5.3441062087427
 30
0.0
 10
6.32263029966347
 20
5.355779251757773
 30
0.0
 10
6.320814014297425
 20
5.359191451902821
 30
0.0
 10
6.317207816734713
 20
5.365357951996249
 30
0.0
 10
6.315418433646648
 20
5.368149072700788
 30
0.0
 10
6.310044383886225
 20
5.376648108963372
 30
0.0
 10
6.306441563469585
 20
5.382469503901333
 30
0.0
 10
6.302796722444802
 20
5.390322193872229
 30
0.0
  0
LINE
  5
3A3
330
1F
100
AcDbEntity
  8
0
  6
Continuous
 62
     7
370
    25
100
AcDbLine
 10
6.2962778635
 20
5.1634873213
 30
0.0
 11
6.3523138305
 21
5.0427596755
 31
0.0
  0
LINE
  5
3A4
330
1F
100
AcDbEntity
  8
0
  6
Continuous
 62
     7
370
    25
100
AcDbLine
 10
6.2962778635
 20
5.4043668608
 30
0.0
 11
6.2962778635
 21
5.1634873213
 31
0.0
  0
LINE
  5
3A5
330
1F
100
AcDbEntity
  8
0
  6
Continuous
 62
     7
370
    25
100
AcDbLine
 10
6.679048492
 20
5.3600063224
 30
0.0
 11
6.6866521386
 21
5.3643958141
 31
0.0
  0
ELLIPSE
  5
3A6
330
1F
100
AcDbEntity
  8
0
  6
Continuous
 62
     7
370
    25
100
AcDbEllipse
 10
6.6866521386
 20
5.3439822938
 30
0.0
 11
0.02722829240613311
 21
-0.008612282968513796
 31
0.0
210
0.0
220
0.0
230
1.0
 40
0.6979426888
 41
0.2172737761739481
 42
1.788070102968849
  0
LINE
  5
3A7
330
1F
100
AcDbEntity
  8
0
  6
Continuous
 62
     7
370
    25
100
AcDbLine
 10
6.6866521386
 20
5.3643958141
 30
0.0
 11
6.6838690108
 21
5.3703919713
 31
0.0
  0
ELLIPSE
  5
3A8
330
1F
100
AcDbEntity
  8
0
  6
Continuous
 62
     7
370
    25
100
AcDbEllipse
 10
6.372726245
 20
5.0545435116
 30
0.0
 11
0.01631222231772877
 21
0.02168853586064934
 31
0.0
210
0.0
220
0.0
230
1.0
 40
0.565783956
 41
2.496646977120149
 42
3.435606454947945
  0
ELLIPSE
  5
3A9
330
1F
100
AcDbEntity
  8
0
  6
Continuous
 62
     7
370
    25
100
AcDbEllipse
 10
6.5539714442
 20
5.0265078198
 30
0.0
 11
-0.00486208296250723
 21
0.02597495393799676
 31
0.0
210
0.0
220
0.0
230
1.0
 40
0.218402591
 41
3.064852628405839
 42
4.003812106233619
  0
ELLIPSE
  5
3AA
330
1F
100
AcDbEntity
  8
0
  6
Continuous
 62
     7
370
    25
100
AcDbEllipse
 10
6.6866521386
 20
5.1031027543
 30
0.0
 11
0.02722829240613311
 21
-0.008612282968513796
 31
0.0
210
0.0
220
0.0
230
1.0
 40
0.6979426888
 41
5.714979655893992
 42
6.500459083353578
  0
ELLIPSE
  5
3AB
330
1F
100
AcDbEntity
  8
0
  6
Continuous
 62
     7
370
    25
100
AcDbEllipse
 10
6.3241617403
 20
5.4000536775
 30
0.0
 11
0.02722829240613311
 21
-0.008612282968513796
 31
0.0
210
0.0
220
0.0
230
1.0
 40
0.6979426888
 41
1.833086252112082
 42
3.358866429763714
  0
ELLIPSE
  5
3AC
330
1F
100
AcDbEntity
  8
0
  6
Continuous
 62
     7
370
    25
100
AcDbEllipse
 10
6.3241617403
 20
5.1591741379
 30
0.0
 11
0.02722829240613311
 21
-0.008612282968513796
 31
0.0
210
0.0
220
0.0
230
1.0
 40
0.6979426888
 41
3.358866429763705
 42
3.70979830487531
  0
ARC
  5
3AD
330
1F
100
AcDbEntity
  8
0
  6
Continuous
 62
     7
370
    25
100
AcDbCircle
 10
6.3994190359
 20
6.3685101892
 30
0.0
 40
0.1044636648765353
100
AcDbArc
 50
185.3293391936
 51
245.990801764
  0
LWPOLYLINE
  5
3AE
330
1F
100
AcDbEntity
  8
0
  6
Continuous
 62
     7
370
    25
100
AcDbPolyline
 90
       24
 70
   128
 43
0.0
 10
6.7154069394
 20
6.3588075568
 10
6.7151191417
 20
6.3524628469
 10
6.712821491
 20
6.339842941
 10
6.708251363
 20
6.3274308154
 10
6.701458829
 20
6.3153624599
 10
6.6925183095
 20
6.303770098
 10
6.6815277587
 20
6.2927807381
 10
6.6686075913
 20
6.2825147818
 10
6.6538993635
 20
6.273084705
 10
6.6375642216
 20
6.2645938258
 10
6.6197811368
 20
6.257135172
 10
6.6007449444
 20
6.250790462
 10
6.5806642088
 20
6.24562921
 10
6.5597589389
 20
6.2417079636
 10
6.5382581771
 20
6.2390696849
 10
6.5163974902
 20
6.2377432793
 10
6.4944163886
 20
6.2377432793
 10
6.4725557018
 20
6.2390696849
 10
6.45105494
 20
6.2417079636
 10
6.43014967
 20
6.24562921
 10
6.4100689345
 20
6.250790462
 10
6.3910327421
 20
6.257135172
 10
6.3732496573
 20
6.2645938258
 10
6.3569145154
 20
6.273084705
  0
LWPOLYLINE
  5
3AF
330
1F
100
AcDbEntity
  8
0
  6
Continuous
 62
     7
370
    25
100
AcDbPolyline
 90
       18
 70
   128
 43
0.0
 10
6.3569145154
 20
6.3343252659
 10
6.3422062875
 20
6.3437553426
 10
6.3292861202
 20
6.354021299
 10
6.3182955694
 20
6.3650106589
 10
6.3093550499
 20
6.3766030208
 10
6.3025625159
 20
6.3886713763
 10
6.2979923879
 20
6.4010835019
 10
6.2956947371
 20
6.4137034077
 10
6.2956947371
 20
6.4263928276
 10
6.2979923879
 20
6.4390127335
 10
6.3025625159
 20
6.4514248591
 10
6.3093550499
 20
6.4634932146
 10
6.3182955694
 20
6.4750855764
 10
6.3292861202
 20
6.4860749364
 10
6.3422062875
 20
6.4963408927
 10
6.3569145154
 20
6.5057709694
 10
6.3732496573
 20
6.5142618486
 10
6.3735308148
 20
6.5143930525
  0
LWPOLYLINE
  5
3B0
330
1F
100
AcDbEntity
  8
0
  6
Continuous
 62
     7
370
    25
100
AcDbPolyline
 90
       31
 70
   128
 43
0.0
 10
6.6586889789
 20
6.502913775
 10
6.6686075913
 20
6.4963408927
 10
6.6815277587
 20
6.4860749364
 10
6.6925183095
 20
6.4750855764
 10
6.701458829
 20
6.4634932146
 10
6.708251363
 20
6.4514248591
 10
6.712821491
 20
6.4390127335
 10
6.7151191417
 20
6.4263928276
 10
6.7151191417
 20
6.4137034077
 10
6.712821491
 20
6.4010835019
 10
6.708251363
 20
6.3886713763
 10
6.701458829
 20
6.3766030208
 10
6.6925183095
 20
6.3650106589
 10
6.6815277587
 20
6.354021299
 10
6.6686075913
 20
6.3437553426
 10
6.6538993635
 20
6.3343252659
 10
6.6375642216
 20
6.3258343867
 10
6.6197811368
 20
6.3183757329
 10
6.6007449444
 20
6.3120310229
 10
6.5806642088
 20
6.3068697709
 10
6.5597589389
 20
6.3029485245
 10
6.5382581771
 20
6.3003102458
 10
6.5163974902
 20
6.2989838402
 10
6.4944163886
 20
6.2989838402
 10
6.4725557018
 20
6.3003102458
 10
6.45105494
 20
6.3029485245
 10
6.43014967
 20
6.3068697709
 10
6.4100689345
 20
6.3120310229
 10
6.3910327421
 20
6.3183757329
 10
6.3732496573
 20
6.3258343867
 10
6.3569145154
 20
6.3343252659
  0
ARC
  5
3B1
330
1F
100
AcDbEntity
  8
0
  6
Continuous
 62
     7
370
    25
100
AcDbCircle
 10
6.4409619225
 20
6.4294197037
 30
0.0
 40
0.0707097259676866
100
AcDbArc
 50
193.7489268625
 51
244.7787043474
  0
LWPOLYLINE
  5
3B2
330
1F
100
AcDbEntity
  8
0
  6
Continuous
 62
     7
370
    25
100
AcDbPolyline
 90
       18
 70
   128
 43
0.0
 10
6.6372911231
 20
6.4071961761
 10
6.6345995187
 20
6.4000641217
 10
6.6289758269
 20
6.3905002759
 10
6.6212378372
 20
6.3814420019
 10
6.6115179487
 20
6.3730442893
 10
6.5999824714
 20
6.3654508252
 10
6.5868287806
 20
6.3587915359
 10
6.5722819394
 20
6.3531803637
 10
6.5565908485
 20
6.3487133173
 10
6.5400239867
 20
6.3454668292
 10
6.5228648176
 20
6.3434964475
 10
6.5054069394
 20
6.3428358862
 10
6.4879490612
 20
6.3434964475
 10
6.4707898922
 20
6.3454668292
 10
6.4542230304
 20
6.3487133173
 10
6.4385319394
 20
6.3531803637
 10
6.4239850983
 20
6.3587915359
 10
6.4108314075
 20
6.3654508252
  0
SPLINE
  5
3B3
330
1F
100
AcDbEntity
  8
0
  6
Continuous
 62
     7
370
    25
100
AcDbSpline
210
0.0
220
0.0
230
1.0
 70
     8
 71
     3
 72
     9
 73
     5
 74
     0
 42
0.000000001
 43
0.00000001
 40
0.0
 40
0.0
 40
0.0
 40
0.0
 40
0.5177659090133272
 40
1.0
 40
1.0
 40
1.0
 40
1.0
 10
6.480406939436264
 20
6.131244943473373
 30
0.0
 10
6.480645314092793
 20
6.133531838521235
 30
0.0
 10
6.481105704884033
 20
6.137948689858978
 30
0.0
 10
6.484104664628166
 20
6.141481237064881
 30
0.0
 10
6.485550865254284
 20
6.143184751755587
 30
0.0
  0
SPLINE
  5
3B4
330
1F
100
AcDbEntity
  8
0
  6
Continuous
 62
     7
370
    25
100
AcDbSpline
210
0.0
220
0.0
230
1.0
 70
     8
 71
     3
 72
    10
 73
     6
 74
     0
 42
0.000000001
 43
0.00000001
 40
0.0
 40
0.0
 40
0.0
 40
0.0
 40
0.3320966134021945
 40
0.8318928827405445
 40
0.9999999999999999
 40
0.9999999999999999
 40
0.9999999999999999
 40
0.9999999999999999
 10
6.524657233235766
 20
6.143487941538022
 30
0.0
 10
6.525830641218067
 20
6.142365604496204
 30
0.0
 10
6.528769995940862
 20
6.13955418107469
 30
0.0
 10
6.530228491840775
 20
6.135055520347192
 30
0.0
 10
6.530371056740148
 20
6.13201118395767
 30
0.0
 10
6.530406939436265
 20
6.131244943473373
 30
0.0
  0
SPLINE
  5
3B5
330
1F
100
AcDbEntity
  8
0
  6
Continuous
 62
     7
370
    25
100
AcDbSpline
210
0.0
220
0.0
230
1.0
 70
     8
 71
     3
 72
    14
 73
    10
 74
     0
 42
0.000000001
 43
0.00000001
 40
0.0
 40
0.0
 40
0.0
 40
0.0
 40
0.1588372653631244
 40
0.3176496543849512
 40
0.4771091688637838
 40
0.6370093179350317
 40
0.7962002443619878
 40
0.9546378167850925
 40
1.0
 40
1.0
 40
1.0
 40
1.0
 10
6.368051447190777
 20
6.202146676999466
 30
0.0
 10
6.366309173191577
 20
6.203375399542391
 30
0.0
 10
6.362824898059887
 20
6.205832652191527
 30
0.0
 10
6.358410608775343
 20
6.211818446846925
 30
0.0
 10
6.355148258299555
 20
6.218651567684057
 30
0.0
 10
6.353292860379206
 20
6.225758539688229
 30
0.0
 10
6.353113184840277
 20
6.232027539570115
 30
0.0
 10
6.353877894758205
 20
6.236174041145403
 30
0.0
 10
6.355116167044811
 20
6.237391652089586
 30
0.0
 10
6.355391784324915
 20
6.237662670524136
 30
0.0
  0
SPLINE
  5
3B6
330
1F
100
AcDbEntity
  8
0
  6
Continuous
 62
     7
370
    25
100
AcDbSpline
210
0.0
220
0.0
230
1.0
 70
     8
 71
     3
 72
    10
 73
     6
 74
     0
 42
0.000000001
 43
0.00000001
 40
0.0
 40
0.0
 40
0.0
 40
0.0
 40
0.2836899507429825
 40
0.7137842570366596
 40
1.0
 40
1.0
 40
1.0
 40
1.0
 10
6.379495333477164
 20
6.201555306289348
 30
0.0
 10
6.378602253028895
 20
6.201036644786847
 30
0.0
 10
6.37635519858593
 20
6.199731655257798
 30
0.0
 10
6.372189210707525
 20
6.200133442934295
 30
0.0
 10
6.369232756508047
 20
6.201571909459126
 30
0.0
 10
6.368051447190777
 20
6.202146676999466
 30
0.0
  0
LINE
  5
3B7
330
1F
100
AcDbEntity
  8
0
  6
Continuous
 62
   144
370
    18
100
AcDbLine
 10
6.4804069394
 20
6.1200175073
 30
0.0
 11
6.4804069394
 21
6.1312449435
 31
0.0
  0
LINE
  5
3B8
330
1F
100
AcDbEntity
  8
0
  6
Continuous
 62
   144
370
    18
100
AcDbLine
 10
6.5304069394
 20
6.1312449435
 30
0.0
 11
6.5304069394
 21
6.1200175073
 31
0.0
  0
ARC
  5
3B9
330
1F
100
AcDbEntity
  8
0
  6
Continuous
 62
   144
370
    18
100
AcDbCircle
 10
6.5542637644
 20
6.4370940752
 30
0.0
 40
0.0848688083380217
100
AcDbArc
 50
300.4461536942
 51
322.8406035228
  0
ARC
  5
3BA
330
1F
100
AcDbEntity
  8
0
  6
Continuous
 62
   144
370
    18
100
AcDbCircle
 10
6.4560057797
 20
6.4363622324
 30
0.0
 40
0.0839621103072894
100
AcDbArc
 50
216.0250032053
 51
239.6210140707
  0
ARC
  5
3BB
330
1F
100
AcDbEntity
  8
0
  6
Continuous
 62
     7
370
    25
100
AcDbCircle
 10
6.3725296573
 20
5.7145447479
 30
0.0
 40
0.0771028664409525
100
AcDbArc
 50
179.0807953925
 51
214.1107729321
  0
ARC
  5
3BC
330
1F
100
AcDbEntity
  8
0
  6
Continuous
 62
     7
370
    25
100
AcDbCircle
 10
6.6359408822
 20
5.7152100271
 30
0.0
 40
0.0794383403317175
100
AcDbArc
 50
325.4078727982
 51
0.4123054318
  0
ARC
  5
3BD
330
1F
100
AcDbEntity
  8
0
  6
Continuous
 62
     7
370
    25
100
AcDbCircle
 10
6.637741144
 20
5.6371423444
 30
0.0
 40
0.0776718951648698
100
AcDbArc
 50
325.1241767378
 51
359.2819342993
  0
ARC
  5
3BE
330
1F
100
AcDbEntity
  8
0
  6
Continuous
 62
     7
370
    25
100
AcDbCircle
 10
6.3752941116
 20
5.6378383448
 30
0.0
 40
0.0799046130561825
100
AcDbArc
 50
181.1971387724
 51
214.8497648831
  0
ARC
  5
3BF
330
1F
100
AcDbEntity
  8
0
  6
Continuous
 62
     7
370
    25
100
AcDbCircle
 10
6.5054173719
 20
5.6572741735
 30
0.0
 40
0.1508716043302938
100
AcDbArc
 50
248.9622258503
 51
290.8903289405
  0
LWPOLYLINE
  5
3C0
330
1F
100
AcDbEntity
  8
0
  6
Continuous
 62
     8
370
    25
100
AcDbPolyline
 90
       25
 70
   128
 43
0.0
 10
6.4276251935
 20
6.6610887758
 10
6.439779198
 20
6.6550294361
 10
6.4533319438
 20
6.6500562583
 10
6.4679945778
 20
6.6462752372
 10
6.4834545913
 20
6.6437669586
 10
6.499382481
 20
6.6425848822
 10
6.5154387715
 20
6.6427542018
 10
6.531281251
 20
6.6442713087
 10
6.5465722645
 20
6.6471038684
 10
6.5609859105
 20
6.6511915098
 10
6.5742149872
 20
6.6564471119
 10
6.5859775399
 20
6.6627586608
 10
6.5960228701
 20
6.6699916366
 10
6.604136879
 20
6.677991881
 10
6.6101466307
 20
6.6865888828
 10
6.6139240378
 20
6.6955994118
 10
6.6153885912
 20
6.7048314242
 10
6.6145090768
 20
6.7140881557
 10
6.6113042396
 20
6.723172315
 10
6.6058423854
 20
6.7318902892
 10
6.598239924
 20
6.7400562698
 10
6.5886588888
 20
6.747496213
 10
6.5773034827
 20
6.7540515493
 10
6.5644157267
 20
6.7595825633
 10
6.5629069394
 20
6.7601263753
  0
LWPOLYLINE
  5
3C1
330
1F
100
AcDbEntity
  8
0
  6
Continuous
 62
     8
370
    25
100
AcDbPolyline
 90
       14
 70
   128
 43
0.0
 10
6.4479069394
 20
6.7601263753
 10
6.4430470716
 20
6.7583026853
 10
6.4305178324
 20
6.7525036396
 10
6.4195847246
 20
6.7457132625
 10
6.4104807682
 20
6.738076279
 10
6.4033999984
 20
6.7297554583
 10
6.3984933294
 20
6.7209281441
 10
6.3958653385
 20
6.7117824754
 10
6.3955720365
 20
6.7025133761
 10
6.3976196748
 20
6.6933184012
 10
6.4019646116
 20
6.6843935253
 10
6.4085142419
 20
6.6759289669
 10
6.4171289719
 20
6.6681051333
 10
6.4276251935
 20
6.6610887758
  0
ARC
  5
3C2
330
1F
100
AcDbEntity
  8
0
  6
Continuous
 62
     8
370
    25
100
AcDbCircle
 10
6.4382692332
 20
6.6925352553
 30
0.0
 40
0.0682216680256153
100
AcDbArc
 50
185.8836848706
 51
245.4717135513
  0
LWPOLYLINE
  5
3C3
330
1F
100
AcDbEntity
  8
0
  6
Continuous
 62
     8
370
    25
100
AcDbPolyline
 90
       20
 70
   128
 43
0.0
 10
6.6403880342
 20
6.6868819177
 10
6.6404069394
 20
6.6855777017
 10
6.6392519957
 20
6.6754052942
 10
6.635806926
 20
6.6654069394
 10
6.6301306763
 20
6.6557537119
 10
6.6223203689
 20
6.6466107811
 10
6.6125096404
 20
6.6381345852
 10
6.6008663549
 20
6.6304701541
 10
6.5875897324
 20
6.6237486285
 10
6.5729069394
 20
6.6180850155
 10
6.5570692028
 20
6.613576221
 10
6.5403475105
 20
6.6102993918
 10
6.5230279754
 20
6.6083105954
 10
6.5054069394
 20
6.6076438606
 10
6.4877859035
 20
6.6083105954
 10
6.4704663683
 20
6.6102993918
 10
6.4537446761
 20
6.613576221
 10
6.4379069394
 20
6.6180850155
 10
6.4232241465
 20
6.6237486285
 10
6.409947524
 20
6.6304701541
  0
LWPOLYLINE
  5
3C4
330
1F
100
AcDbEntity
  8
0
  6
Continuous
 62
     8
370
    25
100
AcDbPolyline
 90
        3
 70
   128
 43
0.0
 10
6.5321622556
 20
7.3691521206
 10
6.5288691544
 20
7.367624347
 10
6.5267807436
 20
7.3669943314
  0
LWPOLYLINE
  5
3C5
330
1F
100
AcDbEntity
  8
0
  6
Continuous
 62
     8
370
    25
100
AcDbPolyline
 90
       10
 70
   128
 43
0.0
 10
6.4708477731
 20
7.3841516038
 10
6.4719419836
 20
7.3815271073
 10
6.4751935748
 20
7.3787178231
 10
6.4800599251
 20
7.3768407194
 10
6.4858001765
 20
7.3761815683
 10
6.491540428
 20
7.3768407194
 10
6.4964067783
 20
7.3787178231
 10
6.4996583695
 20
7.3815271073
 10
6.5008001765
 20
7.3848408839
 10
6.5007518717
 20
7.3855352656
  0
LWPOLYLINE
  5
3C6
330
1F
100
AcDbEntity
  8
0
  6
Continuous
 62
     8
370
    25
100
AcDbPolyline
 90
        7
 70
   128
 43
0.0
 10
6.4728120006
 20
7.3571532237
 10
6.4739780119
 20
7.3542944049
 10
6.4772384138
 20
7.3516275674
 10
6.4820959534
 20
7.349608017
 10
6.4878111144
 20
7.348543212
 10
6.4935138153
 20
7.3485952593
 10
6.4938710759
 20
7.3486391485
  0
ARC
  5
3C7
330
1F
100
AcDbEntity
  8
0
  6
Continuous
 62
     8
370
    25
100
AcDbCircle
 10
6.3293680099
 20
5.3876467533
 30
0.0
 40
0.0267056417467499
100
AcDbArc
 50
104.0008646179
 51
174.2503147214
  0
ARC
  5
3C8
330
1F
100
AcDbEntity
  8
0
  6
Continuous
 62
     8
370
    25
100
AcDbCircle
 10
6.6885681889
 20
5.3502228089
 30
0.0
 40
0.0207093550849566
100
AcDbArc
 50
29.7646749655
 51
103.1152705732
  0
LWPOLYLINE
  5
3C9
330
1F
100
AcDbEntity
  8
0
  6
Continuous
 62
     8
370
    25
100
AcDbPolyline
 90
        3
 70
   128
 43
0.0
 10
6.3229069394
 20
5.427222574
 10
6.3219441999
 20
5.4270860416
 10
6.3192664027
 20
5.4260943907
  0
ARC
  5
3CA
330
1F
100
AcDbEntity
  8
0
  6
Continuous
 62
     8
370
    25
100
AcDbCircle
 10
6.4202208508
 20
5.7470434121
 30
0.0
 40
0.134814199953003
100
AcDbArc
 50
214.1798185701
 51
241.9928267168
  0
LWPOLYLINE
  5
3CB
330
1F
100
AcDbEntity
  8
0
  6
Continuous
 62
     8
370
    25
100
AcDbPolyline
 90
       20
 70
   128
 43
0.0
 10
6.7013356668
 20
5.6701104477
 10
6.6925183095
 20
5.6587028566
 10
6.6815277587
 20
5.6477134967
 10
6.6686075913
 20
5.6374475404
 10
6.6538993635
 20
5.6280174637
 10
6.6375642216
 20
5.6195265844
 10
6.6197811368
 20
5.6120679306
 10
6.6007449444
 20
5.6057232207
 10
6.5806642088
 20
5.6005619686
 10
6.5597589389
 20
5.5966407222
 10
6.5382581771
 20
5.5940024435
 10
6.5163974902
 20
5.5926760379
 10
6.4944163886
 20
5.5926760379
 10
6.4725557018
 20
5.5940024435
 10
6.45105494
 20
5.5966407222
 10
6.43014967
 20
5.6005619686
 10
6.4100689345
 20
5.6057232207
 10
6.3910327421
 20
5.6120679306
 10
6.3732496573
 20
5.6195265844
 10
6.3569145154
 20
5.6280174637
  0
LWPOLYLINE
  5
3CC
330
1F
100
AcDbEntity
  8
0
  6
Continuous
 62
     8
370
    25
100
AcDbPolyline
 90
       21
 70
   128
 43
0.0
 10
6.3569145154
 20
5.5504460865
 10
6.3732496573
 20
5.5419552073
 10
6.3910327421
 20
5.5344965535
 10
6.4100689345
 20
5.5281518435
 10
6.43014967
 20
5.5229905915
 10
6.45105494
 20
5.5190693451
 10
6.4725557018
 20
5.5164310664
 10
6.4944163886
 20
5.5151046608
 10
6.5163974902
 20
5.5151046608
 10
6.5382581771
 20
5.5164310664
 10
6.5597589389
 20
5.5190693451
 10
6.5806642088
 20
5.5229905915
 10
6.6007449444
 20
5.5281518435
 10
6.6197811368
 20
5.5344965535
 10
6.6375642216
 20
5.5419552073
 10
6.6538993635
 20
5.5504460865
 10
6.6686075913
 20
5.5598761632
 10
6.6815277587
 20
5.5701421196
 10
6.6925183095
 20
5.5811314795
 10
6.701458829
 20
5.5927238414
 10
6.7014626408
 20
5.5927295743
  0
ARC
  5
3CD
330
1F
100
AcDbEntity
  8
0
  6
Continuous
 62
     8
370
    25
100
AcDbCircle
 10
6.4244098832
 20
5.6743266628
 30
0.0
 40
0.1410745258949732
100
AcDbArc
 50
215.6125956906
 51
241.4165864279
  0
ENDSEC
  0
SECTION
  2
OBJECTS
  0
DICTIONARY
  5
C
330
0
100
AcDbDictionary
281
     1
  3
ACAD_GROUP
350
D
  3
ACAD_LAYOUT
350
1A
  3
ACAD_MLINESTYLE
350
17
  3
ACAD_PLOTSETTINGS
350
19
  3
ACAD_PLOTSTYLENAME
350
E
  3
ACAD_SCALELIST
350
47
  0
DICTIONARY
  5
D
102
{ACAD_REACTORS
330
C
102
}
330
C
100
AcDbDictionary
281
     1
  0
DICTIONARY
  5
1A
102
{ACAD_REACTORS
330
C
102
}
330
C
100
AcDbDictionary
281
     1
  3
Layout1
350
1E
  3
Layout2
350
26
  3
Model
350
22
  0
DICTIONARY
  5
17
102
{ACAD_REACTORS
330
C
102
}
330
C
100
AcDbDictionary
281
     1
  3
Standard
350
18
  0
DICTIONARY
  5
19
102
{ACAD_REACTORS
330
C
102
}
330
C
100
AcDbDictionary
281
     1
  0
ACDBDICTIONARYWDFLT
  5
E
102
{ACAD_REACTORS
330
C
102
}
330
C
100
AcDbDictionary
281
     1
  3
Normal
350
F
100
AcDbDictionaryWithDefault
340
F
  0
DICTIONARY
  5
47
102
{ACAD_REACTORS
330
C
102
}
330
C
100
AcDbDictionary
281
     1
  3
A0
350
48
  3
A1
350
49
  3
A2
350
4A
  3
A3
350
4B
  3
A4
350
4C
  3
A5
350
4D
  3
A6
350
4E
  3
A7
350
4F
  3
A8
350
50
  3
A9
350
51
  3
B0
350
52
  3
B1
350
53
  3
B2
350
54
  3
B3
350
55
  3
B4
350
56
  3
B5
350
57
  3
B6
350
58
  3
B7
350
59
  3
B8
350
5A
  3
B9
350
5B
  3
C0
350
5C
  3
C1
350
5D
  3
C2
350
5E
  3
C3
350
5F
  3
C4
350
60
  3
C5
350
61
  3
C6
350
62
  3
C7
350
63
  3
C8
350
64
  3
C9
350
65
  3
D0
350
66
  3
D1
350
67
  3
D2
350
68
  0
LAYOUT
  5
1E
102
{ACAD_REACTORS
330
1A
102
}
330
1A
100
AcDbPlotSettings
  1

  2
none_device
  4

  6

 40
0.0
 41
0.0
 42
0.0
 43
0.0
 44
0.0
 45
0.0
 46
0.0
 47
0.0
 48
0.0
 49
0.0
140
0.0
141
0.0
142
1.0
143
1.0
 70
   688
 72
     0
 73
     0
 74
     5
  7

 75
    16
147
1.0
148
0.0
149
0.0
100
AcDbLayout
  1
Layout1
 70
     1
 71
     1
 10
0.0
 20
0.0
 11
12.0
 21
9.0
 12
0.0
 22
0.0
 32
0.0
 14
1.0000000000E+20
 24
1.0000000000E+20
 34
1.0000000000E+20
 15
-1.0000000000E+20
 25
-1.0000000000E+20
 35
-1.0000000000E+20
146
0.0
 13
0.0
 23
0.0
 33
0.0
 16
1.0
 26
0.0
 36
0.0
 17
0.0
 27
1.0
 37
0.0
 76
     0
330
1B
  0
LAYOUT
  5
26
102
{ACAD_REACTORS
330
1A
102
}
330
1A
100
AcDbPlotSettings
  1

  2
none_device
  4

  6

 40
0.0
 41
0.0
 42
0.0
 43
0.0
 44
0.0
 45
0.0
 46
0.0
 47
0.0
 48
0.0
 49
0.0
140
0.0
141
0.0
142
1.0
143
1.0
 70
   688
 72
     0
 73
     0
 74
     5
  7

 75
    16
147
1.0
148
0.0
149
0.0
100
AcDbLayout
  1
Layout2
 70
     1
 71
     2
 10
0.0
 20
0.0
 11
0.0
 21
0.0
 12
0.0
 22
0.0
 32
0.0
 14
0.0
 24
0.0
 34
0.0
 15
0.0
 25
0.0
 35
0.0
146
0.0
 13
0.0
 23
0.0
 33
0.0
 16
1.0
 26
0.0
 36
0.0
 17
0.0
 27
1.0
 37
0.0
 76
     0
330
23
  0
LAYOUT
  5
22
102
{ACAD_REACTORS
330
1A
102
}
330
1A
100
AcDbPlotSettings
  1

  2
none_device
  4
Letter_(8.50_x_11.00_Inches)
  6

 40
6.35
 41
6.35
 42
6.35000508
 43
6.35000508
 44
215.9
 45
279.4
 46
0.0
 47
0.0
 48
0.0
 49
0.0
140
0.0
141
0.0
142
1.0
143
1.0
 70
  1712
 72
     0
 73
     0
 74
     0
  7

 75
     0
147
1.0
148
0.0
149
0.0
100
AcDbLayout
  1
Model
 70
     1
 71
     0
 10
0.0
 20
0.0
 11
8.5
 21
11.0
 12
0.0
 22
0.0
 32
0.0
 14
0.0
 24
0.0
 34
0.0
 15
8.5
 25
11.0
 35
0.0
146
0.0
 13
0.0
 23
0.0
 33
0.0
 16
1.0
 26
0.0
 36
0.0
 17
0.0
 27
1.0
 37
0.0
 76
     0
330
1F
331
29
  0
MLINESTYLE
  5
18
102
{ACAD_REACTORS
330
17
102
}
330
17
100
AcDbMlineStyle
  2
Standard
 70
     0
  3

 62
   256
 51
90.0
 52
90.0
 71
     2
 49
0.5
 62
   256
  6
BYLAYER
 49
-0.5
 62
   256
  6
BYLAYER
  0
ACDBPLACEHOLDER
  5
F
102
{ACAD_REACTORS
330
E
102
}
330
E
  0
SCALE
  5
48
102
{ACAD_REACTORS
330
47
102
}
330
47
100
AcDbScale
 70
     0
300
1:1
140
1.0
141
1.0
290
     1
  0
SCALE
  5
49
102
{ACAD_REACTORS
330
47
102
}
330
47
100
AcDbScale
 70
     0
300
1:2
140
1.0
141
2.0
290
     0
  0
SCALE
  5
4A
102
{ACAD_REACTORS
330
47
102
}
330
47
100
AcDbScale
 70
     0
300
1:4
140
1.0
141
4.0
290
     0
  0
SCALE
  5
4B
102
{ACAD_REACTORS
330
47
102
}
330
47
100
AcDbScale
 70
     0
300
1:5
140
1.0
141
5.0
290
     0
  0
SCALE
  5
4C
102
{ACAD_REACTORS
330
47
102
}
330
47
100
AcDbScale
 70
     0
300
1:8
140
1.0
141
8.0
290
     0
  0
SCALE
  5
4D
102
{ACAD_REACTORS
330
47
102
}
330
47
100
AcDbScale
 70
     0
300
1:10
140
1.0
141
10.0
290
     0
  0
SCALE
  5
4E
102
{ACAD_REACTORS
330
47
102
}
330
47
100
AcDbScale
 70
     0
300
1:16
140
1.0
141
16.0
290
     0
  0
SCALE
  5
4F
102
{ACAD_REACTORS
330
47
102
}
330
47
100
AcDbScale
 70
     0
300
1:20
140
1.0
141
20.0
290
     0
  0
SCALE
  5
50
102
{ACAD_REACTORS
330
47
102
}
330
47
100
AcDbScale
 70
     0
300
1:30
140
1.0
141
30.0
290
     0
  0
SCALE
  5
51
102
{ACAD_REACTORS
330
47
102
}
330
47
100
AcDbScale
 70
     0
300
1:40
140
1.0
141
40.0
290
     0
  0
SCALE
  5
52
102
{ACAD_REACTORS
330
47
102
}
330
47
100
AcDbScale
 70
     0
300
1:50
140
1.0
141
50.0
290
     0
  0
SCALE
  5
53
102
{ACAD_REACTORS
330
47
102
}
330
47
100
AcDbScale
 70
     0
300
1:100
140
1.0
141
100.0
290
     0
  0
SCALE
  5
54
102
{ACAD_REACTORS
330
47
102
}
330
47
100
AcDbScale
 70
     0
300
2:1
140
2.0
141
1.0
290
     0
  0
SCALE
  5
55
102
{ACAD_REACTORS
330
47
102
}
330
47
100
AcDbScale
 70
     0
300
4:1
140
4.0
141
1.0
290
     0
  0
SCALE
  5
56
102
{ACAD_REACTORS
330
47
102
}
330
47
100
AcDbScale
 70
     0
300
8:1
140
8.0
141
1.0
290
     0
  0
SCALE
  5
57
102
{ACAD_REACTORS
330
47
102
}
330
47
100
AcDbScale
 70
     0
300
10:1
140
10.0
141
1.0
290
     0
  0
SCALE
  5
58
102
{ACAD_REACTORS
330
47
102
}
330
47
100
AcDbScale
 70
     0
300
100:1
140
100.0
141
1.0
290
     0
  0
SCALE
  5
59
102
{ACAD_REACTORS
330
47
102
}
330
47
100
AcDbScale
 70
     0
300
1/128" = 1'-0"
140
0.0078125
141
12.0
290
     0
  0
SCALE
  5
5A
102
{ACAD_REACTORS
330
47
102
}
330
47
100
AcDbScale
 70
     0
300
1/64" = 1'-0"
140
0.015625
141
12.0
290
     0
  0
SCALE
  5
5B
102
{ACAD_REACTORS
330
47
102
}
330
47
100
AcDbScale
 70
     0
300
1/32" = 1'-0"
140
0.03125
141
12.0
290
     0
  0
SCALE
  5
5C
102
{ACAD_REACTORS
330
47
102
}
330
47
100
AcDbScale
 70
     0
300
1/16" = 1'-0"
140
0.0625
141
12.0
290
     0
  0
SCALE
  5
5D
102
{ACAD_REACTORS
330
47
102
}
330
47
100
AcDbScale
 70
     0
300
3/32" = 1'-0"
140
0.09375
141
12.0
290
     0
  0
SCALE
  5
5E
102
{ACAD_REACTORS
330
47
102
}
330
47
100
AcDbScale
 70
     0
300
1/8" = 1'-0"
140
0.125
141
12.0
290
     0
  0
SCALE
  5
5F
102
{ACAD_REACTORS
330
47
102
}
330
47
100
AcDbScale
 70
     0
300
3/16" = 1'-0"
140
0.1875
141
12.0
290
     0
  0
SCALE
  5
60
102
{ACAD_REACTORS
330
47
102
}
330
47
100
AcDbScale
 70
     0
300
1/4" = 1'-0"
140
0.25
141
12.0
290
     0
  0
SCALE
  5
61
102
{ACAD_REACTORS
330
47
102
}
330
47
100
AcDbScale
 70
     0
300
3/8" = 1'-0"
140
0.375
141
12.0
290
     0
  0
SCALE
  5
62
102
{ACAD_REACTORS
330
47
102
}
330
47
100
AcDbScale
 70
     0
300
1/2" = 1'-0"
140
0.5
141
12.0
290
     0
  0
SCALE
  5
63
102
{ACAD_REACTORS
330
47
102
}
330
47
100
AcDbScale
 70
     0
300
3/4" = 1'-0"
140
0.75
141
12.0
290
     0
  0
SCALE
  5
64
102
{ACAD_REACTORS
330
47
102
}
330
47
100
AcDbScale
 70
     0
300
1" = 1'-0"
140
1.0
141
12.0
290
     0
  0
SCALE
  5
65
102
{ACAD_REACTORS
330
47
102
}
330
47
100
AcDbScale
 70
     0
300
1-1/2" = 1'-0"
140
1.5
141
12.0
290
     0
  0
SCALE
  5
66
102
{ACAD_REACTORS
330
47
102
}
330
47
100
AcDbScale
 70
     0
300
3" = 1'-0"
140
3.0
141
12.0
290
     0
  0
SCALE
  5
67
102
{ACAD_REACTORS
330
47
102
}
330
47
100
AcDbScale
 70
     0
300
6" = 1'-0"
140
6.0
141
12.0
290
     0
  0
SCALE
  5
68
102
{ACAD_REACTORS
330
47
102
}
330
47
100
AcDbScale
 70
     0
300
1'-0" = 1'-0"
140
12.0
141
12.0
290
     0
  0
ENDSEC
  0
EOF
