  0
SECTION
  2
HEADER
  9
$ACADVER
  1
AC1015
  9
$ACADMAINTVER
 70
     6
  9
$DWGCODEPAGE
  3
ANSI_1252
  9
$INSBASE
 10
0.0
 20
0.0
 30
0.0
  9
$EXTMIN
 10
0.0
 20
0.0
 30
0.0
  9
$EXTMAX
 10
8.5
 20
11.0
 30
0.0
  9
$LIMMIN
 10
0.0
 20
0.0
  9
$LIMMAX
 10
8.5
 20
11.0
  9
$ORTHOMODE
 70
     0
  9
$REGENMODE
 70
     1
  9
$FILLMODE
 70
     1
  9
$QTEXTMODE
 70
     0
  9
$MIRRTEXT
 70
     1
  9
$LTSCALE
 40
1.0
  9
$ATTMODE
 70
     1
  9
$TEXTSIZE
 40
0.09
  9
$TRACEWID
 40
0.05
  9
$TEXTSTYLE
  7
Standard
  9
$CLAYER
  8
0
  9
$CELTYPE
  6
ByLayer
  9
$CECOLOR
 62
   256
  9
$CELTSCALE
 40
1.0
  9
$DISPSILH
 70
     0
  9
$DIMSCALE
 40
1.0
  9
$DIMASZ
 40
0.13
  9
$DIMEXO
 40
0.05
  9
$DIMDLI
 40
0.38
  9
$DIMRND
 40
0.0
  9
$DIMDLE
 40
0.0
  9
$DIMEXE
 40
0.125
  9
$DIMTP
 40
0.0
  9
$DIMTM
 40
0.0
  9
$DIMTXT
 40
0.09
  9
$DIMCEN
 40
0.09
  9
$DIMTSZ
 40
0.0
  9
$DIMTOL
 70
     0
  9
$DIMLIM
 70
     0
  9
$DIMTIH
 70
     1
  9
$DIMTOH
 70
     1
  9
$DIMSE1
 70
     0
  9
$DIMSE2
 70
     0
  9
$DIMTAD
 70
     1
  9
$DIMZIN
 70
     1
  9
$DIMBLK
  1

  9
$DIMASO
 70
     1
  9
$DIMSHO
 70
     1
  9
$DIMPOST
  1

  9
$DIMAPOST
  1

  9
$DIMALT
 70
     0
  9
$DIMALTD
 70
     2
  9
$DIMALTF
 40
25.4
  9
$DIMLFAC
 40
1.0
  9
$DIMTOFL
 70
     0
  9
$DIMTVP
 40
0.0
  9
$DIMTIX
 70
     0
  9
$DIMSOXD
 70
     0
  9
$DIMSAH
 70
     0
  9
$DIMBLK1
  1

  9
$DIMBLK2
  1

  9
$DIMSTYLE
  2
Standard
  9
$DIMCLRD
 70
     0
  9
$DIMCLRE
 70
     0
  9
$DIMCLRT
 70
     0
  9
$DIMTFAC
 40
1.0
  9
$DIMGAP
 40
0.06
  9
$DIMJUST
 70
     0
  9
$DIMSD1
 70
     0
  9
$DIMSD2
 70
     0
  9
$DIMTOLJ
 70
     1
  9
$DIMTZIN
 70
     1
  9
$DIMALTZ
 70
     0
  9
$DIMALTTZ
 70
     0
  9
$DIMUPT
 70
     0
  9
$DIMDEC
 70
     3
  9
$DIMTDEC
 70
     3
  9
$DIMALTU
 70
     2
  9
$DIMALTTD
 70
     2
  9
$DIMTXSTY
  7
Standard
  9
$DIMAUNIT
 70
     0
  9
$DIMADEC
 70
     3
  9
$DIMALTRND
 40
0.0
  9
$DIMAZIN
 70
     0
  9
$DIMDSEP
 70
    46
  9
$DIMATFIT
 70
     3
  9
$DIMFRAC
 70
     0
  9
$DIMLDRBLK
  1

  9
$DIMLUNIT
 70
     2
  9
$DIMLWD
 70
    -2
  9
$DIMLWE
 70
    -2
  9
$DIMTMOVE
 70
     0
  9
$LUNITS
 70
     2
  9
$LUPREC
 70
     3
  9
$SKETCHINC
 40
0.1
  9
$FILLETRAD
 40
0.5
  9
$AUNITS
 70
     0
  9
$AUPREC
 70
     2
  9
$MENU
  1
.
  9
$ELEVATION
 40
0.0
  9
$PELEVATION
 40
0.0
  9
$THICKNESS
 40
0.0
  9
$LIMCHECK
 70
     0
  9
$CHAMFERA
 40
0.0
  9
$CHAMFERB
 40
0.0
  9
$CHAMFERC
 40
0.0
  9
$CHAMFERD
 40
0.0
  9
$SKPOLY
 70
     0
  9
$TDCREATE
 40
2458919.581429167
  9
$TDUCREATE
 40
2458919.748095833
  9
$TDUPDATE
 40
2458919.581429687
  9
$TDUUPDATE
 40
2458919.748096354
  9
$TDINDWG
 40
0.0000000116
  9
$TDUSRTIMER
 40
0.0000000116
  9
$USRTIMER
 70
     1
  9
$ANGBASE
 50
0.0
  9
$ANGDIR
 70
     0
  9
$PDMODE
 70
     0
  9
$PDSIZE
 40
-1.0
  9
$PLINEWID
 40
0.0
  9
$SPLFRAME
 70
     0
  9
$SPLINETYPE
 70
     6
  9
$SPLINESEGS
 70
     8
  9
$HANDSEED
  5
1F4
  9
$SURFTAB1
 70
     6
  9
$SURFTAB2
 70
     6
  9
$SURFTYPE
 70
     6
  9
$SURFU
 70
     6
  9
$SURFV
 70
     6
  9
$UCSBASE
  2

  9
$UCSNAME
  2

  9
$UCSORG
 10
0.0
 20
0.0
 30
0.0
  9
$UCSXDIR
 10
1.0
 20
0.0
 30
0.0
  9
$UCSYDIR
 10
0.0
 20
1.0
 30
0.0
  9
$UCSORTHOREF
  2

  9
$UCSORTHOVIEW
 70
     0
  9
$UCSORGTOP
 10
0.0
 20
0.0
 30
0.0
  9
$UCSORGBOTTOM
 10
0.0
 20
0.0
 30
0.0
  9
$UCSORGLEFT
 10
0.0
 20
0.0
 30
0.0
  9
$UCSORGRIGHT
 10
0.0
 20
0.0
 30
0.0
  9
$UCSORGFRONT
 10
0.0
 20
0.0
 30
0.0
  9
$UCSORGBACK
 10
0.0
 20
0.0
 30
0.0
  9
$PUCSBASE
  2

  9
$PUCSNAME
  2

  9
$PUCSORG
 10
0.0
 20
0.0
 30
0.0
  9
$PUCSXDIR
 10
1.0
 20
0.0
 30
0.0
  9
$PUCSYDIR
 10
0.0
 20
1.0
 30
0.0
  9
$PUCSORTHOREF
  2

  9
$PUCSORTHOVIEW
 70
     0
  9
$PUCSORGTOP
 10
0.0
 20
0.0
 30
0.0
  9
$PUCSORGBOTTOM
 10
0.0
 20
0.0
 30
0.0
  9
$PUCSORGLEFT
 10
0.0
 20
0.0
 30
0.0
  9
$PUCSORGRIGHT
 10
0.0
 20
0.0
 30
0.0
  9
$PUCSORGFRONT
 10
0.0
 20
0.0
 30
0.0
  9
$PUCSORGBACK
 10
0.0
 20
0.0
 30
0.0
  9
$USERI1
 70
     0
  9
$USERI2
 70
     0
  9
$USERI3
 70
     0
  9
$USERI4
 70
     0
  9
$USERI5
 70
     0
  9
$USERR1
 40
0.0
  9
$USERR2
 40
0.0
  9
$USERR3
 40
0.0
  9
$USERR4
 40
0.0
  9
$USERR5
 40
0.0
  9
$WORLDVIEW
 70
     1
  9
$SHADEDGE
 70
     3
  9
$SHADEDIF
 70
    70
  9
$TILEMODE
 70
     1
  9
$MAXACTVP
 70
    64
  9
$PINSBASE
 10
0.0
 20
0.0
 30
0.0
  9
$PLIMCHECK
 70
     0
  9
$PEXTMIN
 10
1.0000000000E+20
 20
1.0000000000E+20
 30
1.0000000000E+20
  9
$PEXTMAX
 10
-1.0000000000E+20
 20
-1.0000000000E+20
 30
-1.0000000000E+20
  9
$PLIMMIN
 10
0.0
 20
0.0
  9
$PLIMMAX
 10
12.0
 20
9.0
  9
$UNITMODE
 70
     0
  9
$VISRETAIN
 70
     1
  9
$PLINEGEN
 70
     0
  9
$PSLTSCALE
 70
     1
  9
$TREEDEPTH
 70
  3020
  9
$CMLSTYLE
  2
Standard
  9
$CMLJUST
 70
     0
  9
$CMLSCALE
 40
1.0
  9
$PROXYGRAPHICS
 70
     1
  9
$MEASUREMENT
 70
     0
  9
$CELWEIGHT
370
    -1
  9
$ENDCAPS
280
     0
  9
$JOINSTYLE
280
     0
  9
$LWDISPLAY
290
     1
  9
$INSUNITS
 70
     1
  9
$HYPERLINKBASE
  1

  9
$STYLESHEET
  1

  9
$XEDIT
290
     1
  9
$CEPSNTYPE
380
     0
  9
$PSTYLEMODE
290
     1
  9
$FINGERPRINTGUID
  2
{7af4c2c0-919f-4120-bd8b-2055e22e6fa3}
  9
$VERSIONGUID
  2
{FAEB1C32-E019-11D5-929B-00C0DF256EC4}
  9
$EXTNAMES
290
     1
  9
$PSVPSCALE
 40
0.0
  9
$OLESTARTUP
290
     0
  0
ENDSEC
  0
SECTION
  2
CLASSES
  0
CLASS
  1
ACDBDICTIONARYWDFLT
  2
AcDbDictionaryWithDefault
  3
ObjectDBX Classes
 90
        0
280
     0
281
     0
  0
CLASS
  1
VISUALSTYLE
  2
AcDbVisualStyle
  3
ObjectDBX Classes
 90
     4095
280
     0
281
     0
  0
CLASS
  1
MATERIAL
  2
AcDbMaterial
  3
ObjectDBX Classes
 90
     1153
280
     0
281
     0
  0
CLASS
  1
SCALE
  2
AcDbScale
  3
ObjectDBX Classes
 90
     1153
280
     0
281
     0
  0
CLASS
  1
TABLESTYLE
  2
AcDbTableStyle
  3
ObjectDBX Classes
 90
     4095
280
     0
281
     0
  0
CLASS
  1
MLEADERSTYLE
  2
AcDbMLeaderStyle
  3
ACDB_MLEADERSTYLE_CLASS
 90
     4095
280
     0
281
     0
  0
CLASS
  1
SUN
  2
AcDbSun
  3
SCENEOE
 90
     1153
280
     0
281
     0
  0
CLASS
  1
ACDBPLACEHOLDER
  2
AcDbPlaceHolder
  3
ObjectDBX Classes
 90
        0
280
     0
281
     0
  0
CLASS
  1
LAYOUT
  2
AcDbLayout
  3
ObjectDBX Classes
 90
        0
280
     0
281
     0
  0
ENDSEC
  0
SECTION
  2
TABLES
  0
TABLE
  2
VPORT
  5
8
330
0
100
AcDbSymbolTable
 70
     1
  0
VPORT
  5
29
330
8
100
AcDbSymbolTableRecord
100
AcDbViewportTableRecord
  2
*Active
 70
     0
 10
0.0
 20
0.0
 11
1.0
 21
1.0
 12
4.25
 22
5.5
 13
0.0
 23
0.0
 14
0.5
 24
0.5
 15
0.5
 25
0.5
 16
0.0
 26
0.0
 36
1.0
 17
0.0
 27
0.0
 37
0.0
 40
11.0
 41
0.7727272727
 42
50.0
 43
0.0
 44
0.0
 50
0.0
 51
0.0
 71
     0
 72
  2000
 73
     1
 74
     3
 75
     0
 76
     0
 77
     0
 78
     0
281
     0
 65
     1
110
0.0
120
0.0
130
0.0
111
1.0
121
0.0
131
0.0
112
0.0
122
1.0
132
0.0
 79
     0
146
0.0
  0
ENDTAB
  0
TABLE
  2
LTYPE
  5
5
330
0
100
AcDbSymbolTable
 70
     6
  0
LTYPE
  5
14
330
5
100
AcDbSymbolTableRecord
100
AcDbLinetypeTableRecord
  2
ByBlock
 70
     0
  3

 72
    65
 73
     0
 40
0.0
  0
LTYPE
  5
15
330
5
100
AcDbSymbolTableRecord
100
AcDbLinetypeTableRecord
  2
ByLayer
 70
     0
  3

 72
    65
 73
     0
 40
0.0
  0
LTYPE
  5
16
330
5
100
AcDbSymbolTableRecord
100
AcDbLinetypeTableRecord
  2
Continuous
 70
     0
  3
Solid line
 72
    65
 73
     0
 40
0.0
  0
LTYPE
  5
6E
330
5
100
AcDbSymbolTableRecord
100
AcDbLinetypeTableRecord
  2
HIDDEN
 70
     0
  3
Hidden __ __ __ __ __ __ __ __ __ __ __ __ __ __
 72
    65
 73
     2
 40
0.075
 49
0.05
 74
     0
 49
-0.025
 74
     0
  0
LTYPE
  5
6F
330
5
100
AcDbSymbolTableRecord
100
AcDbLinetypeTableRecord
  2
PHANTOM
 70
     0
  3
Phantom ______  __  __  ______  __  __  ______
 72
    65
 73
     6
 40
0.5
 49
0.25
 74
     0
 49
-0.05
 74
     0
 49
0.05
 74
     0
 49
-0.05
 74
     0
 49
0.05
 74
     0
 49
-0.05
 74
     0
  0
LTYPE
  5
70
330
5
100
AcDbSymbolTableRecord
100
AcDbLinetypeTableRecord
  2
CENTER
 70
     0
  3
Center ____ _ ____ _ ____ _ ____ _ ____ _ ____
 72
    65
 73
     4
 40
0.4
 49
0.25
 74
     0
 49
-0.05
 74
     0
 49
0.05
 74
     0
 49
-0.05
 74
     0
  0
LTYPE
  5
71
330
5
100
AcDbSymbolTableRecord
100
AcDbLinetypeTableRecord
  2
CENTERX2
 70
     0
  3
Center (2x) ________  __  ________  __  _____
 72
    65
 73
     4
 40
0.8
 49
0.5
 74
     0
 49
-0.1
 74
     0
 49
0.1
 74
     0
 49
-0.1
 74
     0
  0
LTYPE
  5
72
330
5
100
AcDbSymbolTableRecord
100
AcDbLinetypeTableRecord
  2
DOT2
 70
     0
  3
Dot (.5x) ........................................
 72
    65
 73
     2
 40
0.025
 49
0.0
 74
     0
 49
-0.025
 74
     0
  0
ENDTAB
  0
TABLE
  2
LAYER
  5
2
330
0
100
AcDbSymbolTable
 70
     5
  0
LAYER
  5
10
330
2
100
AcDbSymbolTableRecord
100
AcDbLayerTableRecord
  2
0
 70
     0
 62
     7
  6
Continuous
370
    -3
390
F
  0
LAYER
  5
73
330
2
100
AcDbSymbolTableRecord
100
AcDbLayerTableRecord
  2
SLD-0
 70
     0
 62
   179
  6
Continuous
370
    -3
390
F
  0
LAYER
  5
74
330
2
100
AcDbSymbolTableRecord
100
AcDbLayerTableRecord
  2
3
 70
     0
 62
     7
  6
Continuous
370
    -3
390
F
  0
LAYER
  5
75
330
2
100
AcDbSymbolTableRecord
100
AcDbLayerTableRecord
  2
1
 70
     0
 62
   179
  6
Continuous
370
    -3
390
F
  0
LAYER
  5
76
330
2
100
AcDbSymbolTableRecord
100
AcDbLayerTableRecord
  2
FORMAT
 70
     0
 62
     7
  6
Continuous
370
    -3
390
F
  0
ENDTAB
  0
TABLE
  2
STYLE
  5
3
330
0
100
AcDbSymbolTable
 70
     1
  0
STYLE
  5
11
330
3
100
AcDbSymbolTableRecord
100
AcDbTextStyleTableRecord
  2
Standard
 70
     0
 40
0.0
 41
1.0
 50
0.0
 71
     0
 42
0.09
  3
txt
  4

  0
ENDTAB
  0
TABLE
  2
VIEW
  5
6
330
0
100
AcDbSymbolTable
 70
     0
  0
ENDTAB
  0
TABLE
  2
UCS
  5
7
330
0
100
AcDbSymbolTable
 70
     0
  0
ENDTAB
  0
TABLE
  2
APPID
  5
9
330
0
100
AcDbSymbolTable
 70
     1
  0
APPID
  5
12
330
9
100
AcDbSymbolTableRecord
100
AcDbRegAppTableRecord
  2
ACAD
 70
     0
  0
ENDTAB
  0
TABLE
  2
DIMSTYLE
  5
A
330
0
100
AcDbSymbolTable
 70
     1
100
AcDbDimStyleTable
  0
DIMSTYLE
105
27
330
A
100
AcDbSymbolTableRecord
100
AcDbDimStyleTableRecord
  2
Standard
 70
     0
178
     0
340
11
  0
ENDTAB
  0
TABLE
  2
BLOCK_RECORD
  5
1
330
0
100
AcDbSymbolTable
 70
     8
  0
BLOCK_RECORD
  5
1F
330
1
100
AcDbSymbolTableRecord
100
AcDbBlockTableRecord
  2
*Model_Space
340
22
  0
BLOCK_RECORD
  5
1B
330
1
100
AcDbSymbolTableRecord
100
AcDbBlockTableRecord
  2
*Paper_Space
340
1E
  0
BLOCK_RECORD
  5
23
330
1
100
AcDbSymbolTableRecord
100
AcDbBlockTableRecord
  2
*Paper_Space0
340
26
  0
BLOCK_RECORD
  5
F7
330
1
100
AcDbSymbolTableRecord
100
AcDbBlockTableRecord
  2
SW_CENTERMARKSYMBOL_0
340
0
102
{BLKREFS
331
102
102
}
  0
BLOCK_RECORD
  5
1AC
330
1
100
AcDbSymbolTableRecord
100
AcDbBlockTableRecord
  2
SW_CENTERMARKSYMBOL_1
340
0
102
{BLKREFS
331
1B7
102
}
  0
BLOCK_RECORD
  5
1B8
330
1
100
AcDbSymbolTableRecord
100
AcDbBlockTableRecord
  2
SW_CENTERMARKSYMBOL_2
340
0
102
{BLKREFS
331
1C3
102
}
  0
BLOCK_RECORD
  5
1C4
330
1
100
AcDbSymbolTableRecord
100
AcDbBlockTableRecord
  2
SW_CENTERMARKSYMBOL_3
340
0
102
{BLKREFS
331
1CF
102
}
  0
BLOCK_RECORD
  5
1D0
330
1
100
AcDbSymbolTableRecord
100
AcDbBlockTableRecord
  2
SW_CENTERMARKSYMBOL_4
340
0
102
{BLKREFS
331
1DB
102
}
  0
BLOCK_RECORD
  5
1DC
330
1
100
AcDbSymbolTableRecord
100
AcDbBlockTableRecord
  2
SW_CENTERMARKSYMBOL_5
340
0
102
{BLKREFS
331
1E7
102
}
  0
BLOCK_RECORD
  5
1E8
330
1
100
AcDbSymbolTableRecord
100
AcDbBlockTableRecord
  2
SW_CENTERMARKSYMBOL_6
340
0
102
{BLKREFS
331
1F3
102
}
  0
ENDTAB
  0
ENDSEC
  0
SECTION
  2
BLOCKS
  0
BLOCK
  5
20
330
1F
100
AcDbEntity
  8
0
100
AcDbBlockBegin
  2
*Model_Space
 70
     0
 10
0.0
 20
0.0
 30
0.0
  3
*Model_Space
  1

  0
ENDBLK
  5
21
330
1F
100
AcDbEntity
  8
0
100
AcDbBlockEnd
  0
BLOCK
  5
1C
330
1B
100
AcDbEntity
 67
     1
  8
0
100
AcDbBlockBegin
  2
*Paper_Space
 70
     0
 10
0.0
 20
0.0
 30
0.0
  3
*Paper_Space
  1

  0
ENDBLK
  5
1D
330
1B
100
AcDbEntity
 67
     1
  8
0
100
AcDbBlockEnd
  0
BLOCK
  5
24
330
23
100
AcDbEntity
  8
0
100
AcDbBlockBegin
  2
*Paper_Space0
 70
     0
 10
0.0
 20
0.0
 30
0.0
  3
*Paper_Space0
  1

  0
ENDBLK
  5
25
330
23
100
AcDbEntity
  8
0
100
AcDbBlockEnd
  0
BLOCK
  5
F8
330
F7
100
AcDbEntity
  8
0
100
AcDbBlockBegin
  2
SW_CENTERMARKSYMBOL_0
 70
     0
 10
0.0
 20
0.0
 30
0.0
  3
SW_CENTERMARKSYMBOL_0
  1

  0
LINE
  5
FA
330
F7
100
AcDbEntity
  8
SLD-0
 62
     0
100
AcDbLine
 10
0.0
 20
0.0
 30
0.0
 11
0.0
 21
0.1
 31
0.0
  0
LINE
  5
FB
330
F7
100
AcDbEntity
  8
SLD-0
 62
     0
100
AcDbLine
 10
0.0
 20
0.0
 30
0.0
 11
-0.1
 21
0.0
 31
0.0
  0
LINE
  5
FC
330
F7
100
AcDbEntity
  8
SLD-0
 62
     0
100
AcDbLine
 10
0.0
 20
0.0
 30
0.0
 11
0.0
 21
-0.1
 31
0.0
  0
LINE
  5
FD
330
F7
100
AcDbEntity
  8
SLD-0
 62
     0
100
AcDbLine
 10
0.0
 20
0.0
 30
0.0
 11
0.1
 21
0.0
 31
0.0
  0
LINE
  5
FE
330
F7
100
AcDbEntity
  8
SLD-0
 62
     0
100
AcDbLine
 10
0.0
 20
0.1
 30
0.0
 11
0.0
 21
0.1565
 31
0.0
  0
LINE
  5
FF
330
F7
100
AcDbEntity
  8
SLD-0
 62
     0
100
AcDbLine
 10
-0.1
 20
0.0
 30
0.0
 11
-0.1565
 21
0.0
 31
0.0
  0
LINE
  5
100
330
F7
100
AcDbEntity
  8
SLD-0
 62
     0
100
AcDbLine
 10
0.0
 20
-0.1
 30
0.0
 11
0.0
 21
-0.1565
 31
0.0
  0
LINE
  5
101
330
F7
100
AcDbEntity
  8
SLD-0
 62
     0
100
AcDbLine
 10
0.1
 20
0.0
 30
0.0
 11
0.1565
 21
0.0
 31
0.0
  0
ENDBLK
  5
F9
330
F7
100
AcDbEntity
  8
0
100
AcDbBlockEnd
  0
BLOCK
  5
1AD
330
1AC
100
AcDbEntity
  8
0
100
AcDbBlockBegin
  2
SW_CENTERMARKSYMBOL_1
 70
     0
 10
0.0
 20
0.0
 30
0.0
  3
SW_CENTERMARKSYMBOL_1
  1

  0
LINE
  5
1AF
330
1AC
100
AcDbEntity
  8
SLD-0
 62
     0
100
AcDbLine
 10
0.0
 20
0.0
 30
0.0
 11
0.0
 21
0.1
 31
0.0
  0
LINE
  5
1B0
330
1AC
100
AcDbEntity
  8
SLD-0
 62
     0
100
AcDbLine
 10
0.0
 20
0.0
 30
0.0
 11
-0.1
 21
0.0
 31
0.0
  0
LINE
  5
1B1
330
1AC
100
AcDbEntity
  8
SLD-0
 62
     0
100
AcDbLine
 10
0.0
 20
0.0
 30
0.0
 11
0.0
 21
-0.1
 31
0.0
  0
LINE
  5
1B2
330
1AC
100
AcDbEntity
  8
SLD-0
 62
     0
100
AcDbLine
 10
0.0
 20
0.0
 30
0.0
 11
0.1
 21
0.0
 31
0.0
  0
LINE
  5
1B3
330
1AC
100
AcDbEntity
  8
SLD-0
 62
     0
100
AcDbLine
 10
0.0
 20
0.2
 30
0.0
 11
0.0
 21
0.52
 31
0.0
  0
LINE
  5
1B4
330
1AC
100
AcDbEntity
  8
SLD-0
 62
     0
100
AcDbLine
 10
-0.2
 20
0.0
 30
0.0
 11
-0.52
 21
0.0
 31
0.0
  0
LINE
  5
1B5
330
1AC
100
AcDbEntity
  8
SLD-0
 62
     0
100
AcDbLine
 10
0.0
 20
-0.2
 30
0.0
 11
0.0
 21
-0.52
 31
0.0
  0
LINE
  5
1B6
330
1AC
100
AcDbEntity
  8
SLD-0
 62
     0
100
AcDbLine
 10
0.2
 20
0.0
 30
0.0
 11
0.52
 21
0.0
 31
0.0
  0
ENDBLK
  5
1AE
330
1AC
100
AcDbEntity
  8
0
100
AcDbBlockEnd
  0
BLOCK
  5
1B9
330
1B8
100
AcDbEntity
  8
0
100
AcDbBlockBegin
  2
SW_CENTERMARKSYMBOL_2
 70
     0
 10
0.0
 20
0.0
 30
0.0
  3
SW_CENTERMARKSYMBOL_2
  1

  0
LINE
  5
1BB
330
1B8
100
AcDbEntity
  8
SLD-0
 62
     0
100
AcDbLine
 10
0.0
 20
0.0
 30
0.0
 11
0.0
 21
0.1
 31
0.0
  0
LINE
  5
1BC
330
1B8
100
AcDbEntity
  8
SLD-0
 62
     0
100
AcDbLine
 10
0.0
 20
0.0
 30
0.0
 11
-0.1
 21
0.0
 31
0.0
  0
LINE
  5
1BD
330
1B8
100
AcDbEntity
  8
SLD-0
 62
     0
100
AcDbLine
 10
0.0
 20
0.0
 30
0.0
 11
0.0
 21
-0.1
 31
0.0
  0
LINE
  5
1BE
330
1B8
100
AcDbEntity
  8
SLD-0
 62
     0
100
AcDbLine
 10
0.0
 20
0.0
 30
0.0
 11
0.1
 21
0.0
 31
0.0
  0
LINE
  5
1BF
330
1B8
100
AcDbEntity
  8
SLD-0
 62
     0
100
AcDbLine
 10
0.0
 20
0.1
 30
0.0
 11
0.0
 21
0.1315
 31
0.0
  0
LINE
  5
1C0
330
1B8
100
AcDbEntity
  8
SLD-0
 62
     0
100
AcDbLine
 10
-0.1
 20
0.0
 30
0.0
 11
-0.1315
 21
0.0
 31
0.0
  0
LINE
  5
1C1
330
1B8
100
AcDbEntity
  8
SLD-0
 62
     0
100
AcDbLine
 10
0.0
 20
-0.1
 30
0.0
 11
0.0
 21
-0.1315
 31
0.0
  0
LINE
  5
1C2
330
1B8
100
AcDbEntity
  8
SLD-0
 62
     0
100
AcDbLine
 10
0.1
 20
0.0
 30
0.0
 11
0.1315
 21
0.0
 31
0.0
  0
ENDBLK
  5
1BA
330
1B8
100
AcDbEntity
  8
0
100
AcDbBlockEnd
  0
BLOCK
  5
1C5
330
1C4
100
AcDbEntity
  8
0
100
AcDbBlockBegin
  2
SW_CENTERMARKSYMBOL_3
 70
     0
 10
0.0
 20
0.0
 30
0.0
  3
SW_CENTERMARKSYMBOL_3
  1

  0
LINE
  5
1C7
330
1C4
100
AcDbEntity
  8
SLD-0
 62
     0
100
AcDbLine
 10
0.0
 20
0.0
 30
0.0
 11
0.0
 21
0.1
 31
0.0
  0
LINE
  5
1C8
330
1C4
100
AcDbEntity
  8
SLD-0
 62
     0
100
AcDbLine
 10
0.0
 20
0.0
 30
0.0
 11
-0.1
 21
0.0
 31
0.0
  0
LINE
  5
1C9
330
1C4
100
AcDbEntity
  8
SLD-0
 62
     0
100
AcDbLine
 10
0.0
 20
0.0
 30
0.0
 11
0.0
 21
-0.1
 31
0.0
  0
LINE
  5
1CA
330
1C4
100
AcDbEntity
  8
SLD-0
 62
     0
100
AcDbLine
 10
0.0
 20
0.0
 30
0.0
 11
0.1
 21
0.0
 31
0.0
  0
LINE
  5
1CB
330
1C4
100
AcDbEntity
  8
SLD-0
 62
     0
100
AcDbLine
 10
0.0
 20
0.1
 30
0.0
 11
0.0
 21
0.1935
 31
0.0
  0
LINE
  5
1CC
330
1C4
100
AcDbEntity
  8
SLD-0
 62
     0
100
AcDbLine
 10
-0.1
 20
0.0
 30
0.0
 11
-0.1935
 21
0.0
 31
0.0
  0
LINE
  5
1CD
330
1C4
100
AcDbEntity
  8
SLD-0
 62
     0
100
AcDbLine
 10
0.0
 20
-0.1
 30
0.0
 11
0.0
 21
-0.1935
 31
0.0
  0
LINE
  5
1CE
330
1C4
100
AcDbEntity
  8
SLD-0
 62
     0
100
AcDbLine
 10
0.1
 20
0.0
 30
0.0
 11
0.1935
 21
0.0
 31
0.0
  0
ENDBLK
  5
1C6
330
1C4
100
AcDbEntity
  8
0
100
AcDbBlockEnd
  0
BLOCK
  5
1D1
330
1D0
100
AcDbEntity
  8
0
100
AcDbBlockBegin
  2
SW_CENTERMARKSYMBOL_4
 70
     0
 10
0.0
 20
0.0
 30
0.0
  3
SW_CENTERMARKSYMBOL_4
  1

  0
LINE
  5
1D3
330
1D0
100
AcDbEntity
  8
SLD-0
 62
     0
100
AcDbLine
 10
0.0
 20
0.0
 30
0.0
 11
0.0
 21
0.1
 31
0.0
  0
LINE
  5
1D4
330
1D0
100
AcDbEntity
  8
SLD-0
 62
     0
100
AcDbLine
 10
0.0
 20
0.0
 30
0.0
 11
-0.1
 21
0.0
 31
0.0
  0
LINE
  5
1D5
330
1D0
100
AcDbEntity
  8
SLD-0
 62
     0
100
AcDbLine
 10
0.0
 20
0.0
 30
0.0
 11
0.0
 21
-0.1
 31
0.0
  0
LINE
  5
1D6
330
1D0
100
AcDbEntity
  8
SLD-0
 62
     0
100
AcDbLine
 10
0.0
 20
0.0
 30
0.0
 11
0.1
 21
0.0
 31
0.0
  0
LINE
  5
1D7
330
1D0
100
AcDbEntity
  8
SLD-0
 62
     0
100
AcDbLine
 10
0.0
 20
0.1
 30
0.0
 11
0.0
 21
0.1935
 31
0.0
  0
LINE
  5
1D8
330
1D0
100
AcDbEntity
  8
SLD-0
 62
     0
100
AcDbLine
 10
-0.1
 20
0.0
 30
0.0
 11
-0.1935
 21
0.0
 31
0.0
  0
LINE
  5
1D9
330
1D0
100
AcDbEntity
  8
SLD-0
 62
     0
100
AcDbLine
 10
0.0
 20
-0.1
 30
0.0
 11
0.0
 21
-0.1935
 31
0.0
  0
LINE
  5
1DA
330
1D0
100
AcDbEntity
  8
SLD-0
 62
     0
100
AcDbLine
 10
0.1
 20
0.0
 30
0.0
 11
0.1935
 21
0.0
 31
0.0
  0
ENDBLK
  5
1D2
330
1D0
100
AcDbEntity
  8
0
100
AcDbBlockEnd
  0
BLOCK
  5
1DD
330
1DC
100
AcDbEntity
  8
0
100
AcDbBlockBegin
  2
SW_CENTERMARKSYMBOL_5
 70
     0
 10
0.0
 20
0.0
 30
0.0
  3
SW_CENTERMARKSYMBOL_5
  1

  0
LINE
  5
1DF
330
1DC
100
AcDbEntity
  8
SLD-0
 62
     0
100
AcDbLine
 10
0.0
 20
0.0
 30
0.0
 11
0.0
 21
0.1
 31
0.0
  0
LINE
  5
1E0
330
1DC
100
AcDbEntity
  8
SLD-0
 62
     0
100
AcDbLine
 10
0.0
 20
0.0
 30
0.0
 11
-0.1
 21
0.0
 31
0.0
  0
LINE
  5
1E1
330
1DC
100
AcDbEntity
  8
SLD-0
 62
     0
100
AcDbLine
 10
0.0
 20
0.0
 30
0.0
 11
0.0
 21
-0.1
 31
0.0
  0
LINE
  5
1E2
330
1DC
100
AcDbEntity
  8
SLD-0
 62
     0
100
AcDbLine
 10
0.0
 20
0.0
 30
0.0
 11
0.1
 21
0.0
 31
0.0
  0
LINE
  5
1E3
330
1DC
100
AcDbEntity
  8
SLD-0
 62
     0
100
AcDbLine
 10
0.0
 20
0.1
 30
0.0
 11
0.0
 21
0.1935
 31
0.0
  0
LINE
  5
1E4
330
1DC
100
AcDbEntity
  8
SLD-0
 62
     0
100
AcDbLine
 10
-0.1
 20
0.0
 30
0.0
 11
-0.1935
 21
0.0
 31
0.0
  0
LINE
  5
1E5
330
1DC
100
AcDbEntity
  8
SLD-0
 62
     0
100
AcDbLine
 10
0.0
 20
-0.1
 30
0.0
 11
0.0
 21
-0.1935
 31
0.0
  0
LINE
  5
1E6
330
1DC
100
AcDbEntity
  8
SLD-0
 62
     0
100
AcDbLine
 10
0.1
 20
0.0
 30
0.0
 11
0.1935
 21
0.0
 31
0.0
  0
ENDBLK
  5
1DE
330
1DC
100
AcDbEntity
  8
0
100
AcDbBlockEnd
  0
BLOCK
  5
1E9
330
1E8
100
AcDbEntity
  8
0
100
AcDbBlockBegin
  2
SW_CENTERMARKSYMBOL_6
 70
     0
 10
0.0
 20
0.0
 30
0.0
  3
SW_CENTERMARKSYMBOL_6
  1

  0
LINE
  5
1EB
330
1E8
100
AcDbEntity
  8
SLD-0
 62
     0
100
AcDbLine
 10
0.0
 20
0.0
 30
0.0
 11
0.0
 21
0.1
 31
0.0
  0
LINE
  5
1EC
330
1E8
100
AcDbEntity
  8
SLD-0
 62
     0
100
AcDbLine
 10
0.0
 20
0.0
 30
0.0
 11
-0.1
 21
0.0
 31
0.0
  0
LINE
  5
1ED
330
1E8
100
AcDbEntity
  8
SLD-0
 62
     0
100
AcDbLine
 10
0.0
 20
0.0
 30
0.0
 11
0.0
 21
-0.1
 31
0.0
  0
LINE
  5
1EE
330
1E8
100
AcDbEntity
  8
SLD-0
 62
     0
100
AcDbLine
 10
0.0
 20
0.0
 30
0.0
 11
0.1
 21
0.0
 31
0.0
  0
LINE
  5
1EF
330
1E8
100
AcDbEntity
  8
SLD-0
 62
     0
100
AcDbLine
 10
0.0
 20
0.1
 30
0.0
 11
0.0
 21
0.1935
 31
0.0
  0
LINE
  5
1F0
330
1E8
100
AcDbEntity
  8
SLD-0
 62
     0
100
AcDbLine
 10
-0.1
 20
0.0
 30
0.0
 11
-0.1935
 21
0.0
 31
0.0
  0
LINE
  5
1F1
330
1E8
100
AcDbEntity
  8
SLD-0
 62
     0
100
AcDbLine
 10
0.0
 20
-0.1
 30
0.0
 11
0.0
 21
-0.1935
 31
0.0
  0
LINE
  5
1F2
330
1E8
100
AcDbEntity
  8
SLD-0
 62
     0
100
AcDbLine
 10
0.1
 20
0.0
 30
0.0
 11
0.1935
 21
0.0
 31
0.0
  0
ENDBLK
  5
1EA
330
1E8
100
AcDbEntity
  8
0
100
AcDbBlockEnd
  0
ENDSEC
  0
SECTION
  2
ENTITIES
  0
LINE
  5
77
330
1F
100
AcDbEntity
  8
0
  6
Continuous
 62
     7
370
    25
100
AcDbLine
 10
3.2332851901
 20
4.3060097349
 30
0.0
 11
3.1082851901
 21
4.4310097349
 31
0.0
  0
LINE
  5
78
330
1F
100
AcDbEntity
  8
0
  6
Continuous
 62
     7
370
    25
100
AcDbLine
 10
2.7332851901
 20
4.4310097349
 30
0.0
 11
2.6082851901
 21
4.3060097349
 31
0.0
  0
LINE
  5
79
330
1F
100
AcDbEntity
  8
0
  6
Continuous
 62
     7
370
    25
100
AcDbLine
 10
3.2332851901
 20
4.1810097349
 30
0.0
 11
3.2332851901
 21
4.3060097349
 31
0.0
  0
LINE
  5
7A
330
1F
100
AcDbEntity
  8
0
  6
Continuous
 62
     7
370
    25
100
AcDbLine
 10
2.6082851901
 20
4.3060097349
 30
0.0
 11
2.6082851901
 21
4.1810097349
 31
0.0
  0
LINE
  5
7B
330
1F
100
AcDbEntity
  8
0
  6
Continuous
 62
     7
370
    25
100
AcDbLine
 10
3.1082851901
 20
4.4310097349
 30
0.0
 11
3.1082851901
 21
4.6310097349
 31
0.0
  0
LINE
  5
7C
330
1F
100
AcDbEntity
  8
0
  6
Continuous
 62
     7
370
    25
100
AcDbLine
 10
2.7332851901
 20
4.6310097349
 30
0.0
 11
2.7332851901
 21
4.4310097349
 31
0.0
  0
LINE
  5
7D
330
1F
100
AcDbEntity
  8
0
  6
Continuous
 62
     7
370
    25
100
AcDbLine
 10
3.3407851901
 20
4.8160097349
 30
0.0
 11
3.3407851901
 21
5.0060097349
 31
0.0
  0
LINE
  5
7E
330
1F
100
AcDbEntity
  8
0
  6
Continuous
 62
     7
370
    25
100
AcDbLine
 10
2.5007851901
 20
5.0060097349
 30
0.0
 11
2.5007851901
 21
4.8160097349
 31
0.0
  0
ARC
  5
7F
330
1F
100
AcDbEntity
  8
0
  6
Continuous
 62
     7
370
    25
100
AcDbCircle
 10
2.5107851901
 20
4.8160097349
 30
0.0
 40
0.0099999999999998
100
AcDbArc
 50
180.0
 51
270.0
  0
ARC
  5
80
330
1F
100
AcDbEntity
  8
0
  6
Continuous
 62
     7
370
    25
100
AcDbCircle
 10
3.3307851901
 20
4.8160097349
 30
0.0
 40
0.0100000000000002
100
AcDbArc
 50
270.0
 51
0.0
  0
ARC
  5
81
330
1F
100
AcDbEntity
  8
0
  6
Continuous
 62
     7
370
    25
100
AcDbCircle
 10
2.5107851901
 20
5.0060097349
 30
0.0
 40
0.0099999999999998
100
AcDbArc
 50
90.0
 51
180.0
  0
ARC
  5
82
330
1F
100
AcDbEntity
  8
0
  6
Continuous
 62
     7
370
    25
100
AcDbCircle
 10
3.3307851901
 20
5.0060097349
 30
0.0
 40
0.0099999999999998
100
AcDbArc
 50
360.0
 51
90.0
  0
ARC
  5
83
330
1F
100
AcDbEntity
  8
0
  6
Continuous
 62
     7
370
    25
100
AcDbCircle
 10
2.7132851901
 20
4.7860097349
 30
0.0
 40
0.0200000000000005
100
AcDbArc
 50
0.0
 51
90.0
  0
ARC
  5
84
330
1F
100
AcDbEntity
  8
0
  6
Continuous
 62
     7
370
    25
100
AcDbCircle
 10
3.1282851901
 20
4.7860097349
 30
0.0
 40
0.0200000000000005
100
AcDbArc
 50
90.0
 51
180.0
  0
LINE
  5
85
330
1F
100
AcDbEntity
  8
0
  6
Continuous
 62
     7
370
    25
100
AcDbLine
 10
3.1082851901
 20
4.6310097349
 30
0.0
 11
3.1082851901
 21
4.7860097349
 31
0.0
  0
LINE
  5
86
330
1F
100
AcDbEntity
  8
0
  6
Continuous
 62
     7
370
    25
100
AcDbLine
 10
2.7332851901
 20
4.7860097349
 30
0.0
 11
2.7332851901
 21
4.6310097349
 31
0.0
  0
ARC
  5
87
330
1F
100
AcDbEntity
  8
0
  6
Continuous
 62
     7
370
    25
100
AcDbCircle
 10
2.7007851901
 20
7.3913864954
 30
0.0
 40
0.0500000000000003
100
AcDbArc
 50
90.0
 51
180.0
  0
ARC
  5
88
330
1F
100
AcDbEntity
  8
0
  6
Continuous
 62
     7
370
    25
100
AcDbCircle
 10
3.1407851901
 20
7.3913864954
 30
0.0
 40
0.0500000000000003
100
AcDbArc
 50
0.0
 51
90.0
  0
LINE
  5
89
330
1F
100
AcDbEntity
  8
0
  6
Continuous
 62
     7
370
    25
100
AcDbLine
 10
3.1907851901
 20
7.0553864954
 30
0.0
 11
3.1907851901
 21
7.1753864954
 31
0.0
  0
LINE
  5
8A
330
1F
100
AcDbEntity
  8
0
  6
Continuous
 62
     7
370
    25
100
AcDbLine
 10
2.6507851901
 20
7.1753864954
 30
0.0
 11
2.6507851901
 21
7.0553864954
 31
0.0
  0
LINE
  5
8B
330
1F
100
AcDbEntity
  8
0
  6
Continuous
 62
     7
370
    25
100
AcDbLine
 10
3.1907851901
 20
7.2913864954
 30
0.0
 11
3.1907851901
 21
7.3913864954
 31
0.0
  0
LINE
  5
8C
330
1F
100
AcDbEntity
  8
0
  6
Continuous
 62
     7
370
    25
100
AcDbLine
 10
2.6507851901
 20
7.3913864954
 30
0.0
 11
2.6507851901
 21
7.2913864954
 31
0.0
  0
LINE
  5
8D
330
1F
100
AcDbEntity
  8
0
  6
Continuous
 62
     7
370
    25
100
AcDbLine
 10
3.1632851901
 20
6.9153864954
 30
0.0
 11
3.1632851901
 21
7.0553864954
 31
0.0
  0
LINE
  5
8E
330
1F
100
AcDbEntity
  8
0
  6
Continuous
 62
     7
370
    25
100
AcDbLine
 10
2.6782851901
 20
7.0553864954
 30
0.0
 11
2.6782851901
 21
6.9153864954
 31
0.0
  0
LINE
  5
8F
330
1F
100
AcDbEntity
  8
0
  6
Continuous
 62
     7
370
    25
100
AcDbLine
 10
3.1382851901
 20
6.7960097349
 30
0.0
 11
3.1382851901
 21
6.7993864954
 31
0.0
  0
LINE
  5
90
330
1F
100
AcDbEntity
  8
0
  6
Continuous
 62
     7
370
    25
100
AcDbLine
 10
2.7032851901
 20
6.7993864954
 30
0.0
 11
2.7032851901
 21
6.7960097349
 31
0.0
  0
LINE
  5
91
330
1F
100
AcDbEntity
  8
0
  6
Continuous
 62
     7
370
    25
100
AcDbLine
 10
3.2291992857
 20
7.1753864954
 30
0.0
 11
3.2291992857
 21
7.2913864954
 31
0.0
  0
LINE
  5
92
330
1F
100
AcDbEntity
  8
0
  6
Continuous
 62
     7
370
    25
100
AcDbLine
 10
3.2291992857
 20
6.7993864954
 30
0.0
 11
3.2291992857
 21
6.9153864954
 31
0.0
  0
LINE
  5
93
330
1F
100
AcDbEntity
  8
0
  6
Continuous
 62
     7
370
    25
100
AcDbLine
 10
2.6123710945
 20
6.9153864954
 30
0.0
 11
2.6123710945
 21
6.7993864954
 31
0.0
  0
LINE
  5
94
330
1F
100
AcDbEntity
  8
0
  6
Continuous
 62
     7
370
    25
100
AcDbLine
 10
2.6123710945
 20
7.2913864954
 30
0.0
 11
2.6123710945
 21
7.1753864954
 31
0.0
  0
LINE
  5
95
330
1F
100
AcDbEntity
  8
0
  6
Continuous
 62
     7
370
    25
100
AcDbLine
 10
3.3407851901
 20
5.0160097349
 30
0.0
 11
3.3407851901
 21
6.7410097349
 31
0.0
  0
LINE
  5
96
330
1F
100
AcDbEntity
  8
0
  6
Continuous
 62
     7
370
    25
100
AcDbLine
 10
2.5007851901
 20
6.7410097349
 30
0.0
 11
2.5007851901
 21
5.0160097349
 31
0.0
  0
LINE
  5
97
330
1F
100
AcDbEntity
  8
0
  6
Continuous
 62
     7
370
    25
100
AcDbLine
 10
3.0197477244
 20
7.9013864954
 30
0.0
 11
3.0127090716
 21
7.9013864954
 31
0.0
  0
LINE
  5
98
330
1F
100
AcDbEntity
  8
0
  6
Continuous
 62
     7
370
    25
100
AcDbLine
 10
2.8288613085
 20
7.9013864954
 30
0.0
 11
2.8218226558
 21
7.9013864954
 31
0.0
  0
LWPOLYLINE
  5
99
330
1F
100
AcDbEntity
  8
0
  6
Continuous
 62
     7
370
    25
100
AcDbPolyline
 90
        2
 70
   128
 43
0.0
 10
2.9207851901
 20
7.8763864954
 10
2.9207851901
 20
7.8763864954
  0
LINE
  5
9A
330
1F
100
AcDbEntity
  8
0
  6
Continuous
 62
     7
370
    25
100
AcDbLine
 10
2.7807851901
 20
7.8763864954
 30
0.0
 11
2.7807851901
 21
7.4413864954
 31
0.0
  0
LINE
  5
9B
330
1F
100
AcDbEntity
  8
0
  6
Continuous
 62
     7
370
    25
100
AcDbLine
 10
3.0607851901
 20
7.4413864954
 30
0.0
 11
3.0607851901
 21
7.8763864954
 31
0.0
  0
ARC
  5
9C
330
1F
100
AcDbEntity
  8
0
  6
Continuous
 62
     7
370
    25
100
AcDbCircle
 10
2.6754428087
 20
6.7685097349
 30
0.0
 40
0.0274999999999999
100
AcDbArc
 50
90.0
 51
270.0
  0
ARC
  5
9D
330
1F
100
AcDbEntity
  8
0
  6
Continuous
 62
     7
370
    25
100
AcDbCircle
 10
3.1661275715
 20
6.7685097349
 30
0.0
 40
0.0274999999999999
100
AcDbArc
 50
270.0
 51
90.0
  0
LINE
  5
9E
330
1F
100
AcDbEntity
  8
0
  6
Continuous
 62
     7
370
    25
100
AcDbLine
 10
3.1661275715
 20
6.7960097349
 30
0.0
 11
2.6754428087
 21
6.7960097349
 31
0.0
  0
LINE
  5
9F
330
1F
100
AcDbEntity
  8
0
  6
Continuous
 62
     7
370
    25
100
AcDbLine
 10
2.3607851901
 20
4.1810097349
 30
0.0
 11
2.4207851901
 21
4.1810097349
 31
0.0
  0
LINE
  5
A0
330
1F
100
AcDbEntity
  8
0
  6
Continuous
 62
     7
370
    25
100
AcDbLine
 10
2.4207851901
 20
3.9310097349
 30
0.0
 11
2.4207851901
 21
4.1810097349
 31
0.0
  0
LINE
  5
A1
330
1F
100
AcDbEntity
  8
0
  6
Continuous
 62
     7
370
    25
100
AcDbLine
 10
2.3607851901
 20
3.9310097349
 30
0.0
 11
2.4207851901
 21
3.9310097349
 31
0.0
  0
LINE
  5
A2
330
1F
100
AcDbEntity
  8
0
  6
Continuous
 62
     7
370
    25
100
AcDbLine
 10
2.3607851901
 20
3.9310097349
 30
0.0
 11
2.3607851901
 21
4.1810097349
 31
0.0
  0
LINE
  5
A3
330
1F
100
AcDbEntity
  8
0
  6
Continuous
 62
     7
370
    25
100
AcDbLine
 10
2.4207851901
 20
3.9310097349
 30
0.0
 11
3.4207851901
 21
3.9310097349
 31
0.0
  0
LINE
  5
A4
330
1F
100
AcDbEntity
  8
0
  6
Continuous
 62
     7
370
    25
100
AcDbLine
 10
2.4207851901
 20
4.1810097349
 30
0.0
 11
3.4207851901
 21
4.1810097349
 31
0.0
  0
LINE
  5
A5
330
1F
100
AcDbEntity
  8
0
  6
Continuous
 62
     7
370
    25
100
AcDbLine
 10
3.4207851901
 20
4.1810097349
 30
0.0
 11
3.4207851901
 21
3.9310097349
 31
0.0
  0
LINE
  5
A6
330
1F
100
AcDbEntity
  8
0
  6
Continuous
 62
     7
370
    25
100
AcDbLine
 10
3.4807851901
 20
3.9310097349
 30
0.0
 11
3.4807851901
 21
4.1810097349
 31
0.0
  0
LINE
  5
A7
330
1F
100
AcDbEntity
  8
0
  6
Continuous
 62
     7
370
    25
100
AcDbLine
 10
3.4207851901
 20
4.1810097349
 30
0.0
 11
3.4807851901
 21
4.1810097349
 31
0.0
  0
LINE
  5
A8
330
1F
100
AcDbEntity
  8
0
  6
Continuous
 62
     7
370
    25
100
AcDbLine
 10
3.4207851901
 20
3.9310097349
 30
0.0
 11
3.4807851901
 21
3.9310097349
 31
0.0
  0
LINE
  5
A9
330
1F
100
AcDbEntity
  8
0
  6
Continuous
 62
     7
370
    25
100
AcDbLine
 10
3.2332851901
 20
4.3060097349
 30
0.0
 11
2.6082851901
 21
4.3060097349
 31
0.0
  0
LINE
  5
AA
330
1F
100
AcDbEntity
  8
0
  6
Continuous
 62
     7
370
    25
100
AcDbLine
 10
3.1082851901
 20
4.4310097349
 30
0.0
 11
2.7332851901
 21
4.4310097349
 31
0.0
  0
LINE
  5
AB
330
1F
100
AcDbEntity
  8
0
  6
Continuous
 62
     7
370
    25
100
AcDbLine
 10
3.1082851901
 20
4.6310097349
 30
0.0
 11
2.7332851901
 21
4.6310097349
 31
0.0
  0
LINE
  5
AC
330
1F
100
AcDbEntity
  8
0
  6
Continuous
 62
     7
370
    25
100
AcDbLine
 10
2.9207851901
 20
4.8060097349
 30
0.0
 11
3.3307851901
 21
4.8060097349
 31
0.0
  0
LINE
  5
AD
330
1F
100
AcDbEntity
  8
0
  6
Continuous
 62
     7
370
    25
100
AcDbLine
 10
2.5107851901
 20
4.8060097349
 30
0.0
 11
2.9207851901
 21
4.8060097349
 31
0.0
  0
LINE
  5
AE
330
1F
100
AcDbEntity
  8
0
  6
Continuous
 62
     7
370
    25
100
AcDbLine
 10
3.0215478834
 20
7.2913864954
 30
0.0
 11
3.0215478834
 21
7.1753864954
 31
0.0
  0
LINE
  5
AF
330
1F
100
AcDbEntity
  8
0
  6
Continuous
 62
     7
370
    25
100
AcDbLine
 10
3.0672027498
 20
7.2913864954
 30
0.0
 11
3.0215478834
 21
7.2913864954
 31
0.0
  0
LINE
  5
B0
330
1F
100
AcDbEntity
  8
0
  6
Continuous
 62
     7
370
    25
100
AcDbLine
 10
3.0672027498
 20
7.1753864954
 30
0.0
 11
3.0672027498
 21
7.2913864954
 31
0.0
  0
LINE
  5
B1
330
1F
100
AcDbEntity
  8
0
  6
Continuous
 62
     7
370
    25
100
AcDbLine
 10
3.0215478834
 20
7.1753864954
 30
0.0
 11
3.0672027498
 21
7.1753864954
 31
0.0
  0
LINE
  5
B2
330
1F
100
AcDbEntity
  8
0
  6
Continuous
 62
     7
370
    25
100
AcDbLine
 10
3.0215478834
 20
6.9153864954
 30
0.0
 11
3.0215478834
 21
6.7993864954
 31
0.0
  0
LINE
  5
B3
330
1F
100
AcDbEntity
  8
0
  6
Continuous
 62
     7
370
    25
100
AcDbLine
 10
3.0672027498
 20
6.7993864954
 30
0.0
 11
3.0672027498
 21
6.9153864954
 31
0.0
  0
LINE
  5
B4
330
1F
100
AcDbEntity
  8
0
  6
Continuous
 62
     7
370
    25
100
AcDbLine
 10
3.0215478834
 20
6.7993864954
 30
0.0
 11
3.0672027498
 21
6.7993864954
 31
0.0
  0
LINE
  5
B5
330
1F
100
AcDbEntity
  8
0
  6
Continuous
 62
     7
370
    25
100
AcDbLine
 10
3.0215478834
 20
6.9153864954
 30
0.0
 11
3.0672027498
 21
6.9153864954
 31
0.0
  0
LINE
  5
B6
330
1F
100
AcDbEntity
  8
0
  6
Continuous
 62
     7
370
    25
100
AcDbLine
 10
2.7631337879
 20
7.1753864954
 30
0.0
 11
2.7631337879
 21
7.2913864954
 31
0.0
  0
LINE
  5
B7
330
1F
100
AcDbEntity
  8
0
  6
Continuous
 62
     7
370
    25
100
AcDbLine
 10
3.0215478834
 20
7.1753864954
 30
0.0
 11
2.7631337879
 21
7.1753864954
 31
0.0
  0
LINE
  5
B8
330
1F
100
AcDbEntity
  8
0
  6
Continuous
 62
     7
370
    25
100
AcDbLine
 10
2.7631337879
 20
7.2913864954
 30
0.0
 11
3.0215478834
 21
7.2913864954
 31
0.0
  0
LINE
  5
B9
330
1F
100
AcDbEntity
  8
0
  6
Continuous
 62
     7
370
    25
100
AcDbLine
 10
2.7631337879
 20
6.7993864954
 30
0.0
 11
2.7631337879
 21
6.9153864954
 31
0.0
  0
LINE
  5
BA
330
1F
100
AcDbEntity
  8
0
  6
Continuous
 62
     7
370
    25
100
AcDbLine
 10
2.7631337879
 20
6.7993864954
 30
0.0
 11
3.0215478834
 21
6.7993864954
 31
0.0
  0
LINE
  5
BB
330
1F
100
AcDbEntity
  8
0
  6
Continuous
 62
     7
370
    25
100
AcDbLine
 10
2.7631337879
 20
6.9153864954
 30
0.0
 11
3.0215478834
 21
6.9153864954
 31
0.0
  0
SPLINE
  5
BC
330
1F
100
AcDbEntity
  8
0
  6
Continuous
 62
     7
370
    25
100
AcDbSpline
210
0.0
220
0.0
230
1.0
 70
    24
 71
     3
 72
    25
 73
    21
 74
     0
 42
0.000000001
 43
0.00000001
 40
0.0
 40
0.0
 40
0.0
 40
0.0
 40
0.0233345882286277
 40
0.0466270933507769
 40
0.0699087847612103
 40
0.0932109753877473
 40
0.1165648957023262
 40
0.1782985954497369
 40
0.2400920822076704
 40
0.3043999236876026
 40
0.3687677957790937
 40
0.5000057024574378
 40
0.6312436091357839
 40
0.6955514554458302
 40
0.7599193323721581
 40
0.8216530265914589
 40
0.883446512093403
 40
0.9222949491234065
 40
0.9610977681412176
 40
1.0
 40
1.0
 40
1.0
 40
1.0
 10
2.920785190090508
 20
7.441386495377797
 30
0.0
 10
2.923471429820998
 20
7.441386495377797
 30
0.0
 10
2.928839064743411
 20
7.441386495377797
 30
0.0
 10
2.936876131214408
 20
7.441386495377797
 30
0.0
 10
2.944887853612705
 20
7.441386495377797
 30
0.0
 10
2.952874408645743
 20
7.441386495377797
 30
0.0
 10
2.965184383494133
 20
7.441386495377797
 30
0.0
 10
2.981671565651757
 20
7.441386495377797
 30
0.0
 10
3.002166033486388
 20
7.441386495377797
 30
0.0
 10
3.022157440353693
 20
7.441386495377797
 30
0.0
 10
3.048028185205878
 20
7.441386495377797
 30
0.0
 10
3.0774612030705
 20
7.441386495377797
 30
0.0
 10
3.101348438738024
 20
7.441386495377797
 30
0.0
 10
3.116462147218165
 20
7.441386495377797
 30
0.0
 10
3.125559666906873
 20
7.441386495377797
 30
0.0
 10
3.132553187339724
 20
7.441386495377797
 30
0.0
 10
3.136847846187465
 20
7.441386495377797
 30
0.0
 10
3.13927777316838
 20
7.441386495377797
 30
0.0
 10
3.140549630300086
 20
7.441386495377797
 30
0.0
 10
3.140706603218671
 20
7.441386495377797
 30
0.0
 10
3.140785190090508
 20
7.441386495377797
 30
0.0
  0
SPLINE
  5
BD
330
1F
100
AcDbEntity
  8
0
  6
Continuous
 62
     7
370
    25
100
AcDbSpline
210
0.0
220
0.0
230
1.0
 70
    24
 71
     3
 72
    25
 73
    21
 74
     0
 42
0.000000001
 43
0.00000001
 40
0.0
 40
0.0
 40
0.0
 40
0.0
 40
0.0233249624439366
 40
0.04661262498751
 40
0.0698943090797699
 40
0.0932013602711431
 40
0.1165650220119716
 40
0.1782987023551467
 40
0.2400921696901319
 40
0.3043999909573564
 40
0.3687678428161105
 40
0.5000057082436428
 40
0.631243573671175
 40
0.6955513997672241
 40
0.7599192564620819
 40
0.8216529312753852
 40
0.8834463973561462
 40
0.922308372219342
 40
0.961111179040196
 40
1.0
 40
1.0
 40
1.0
 40
1.0
 10
2.700785190090509
 20
7.441386495377797
 30
0.0
 10
2.700813175991694
 20
7.441386495377797
 30
0.0
 10
2.700869103040668
 20
7.441386495377797
 30
0.0
 10
2.701326290605468
 20
7.441386495377797
 30
0.0
 10
2.702056935402315
 20
7.441386495377797
 30
0.0
 10
2.703087894388152
 20
7.441386495377797
 30
0.0
 10
2.705133745177696
 20
7.441386495377797
 30
0.0
 10
2.709014226352203
 20
7.441386495377797
 30
0.0
 10
2.716005908793591
 20
7.441386495377797
 30
0.0
 10
2.725104992793812
 20
7.441386495377797
 30
0.0
 10
2.740217581571297
 20
7.441386495377797
 30
0.0
 10
2.764109159129553
 20
7.441386495377797
 30
0.0
 10
2.793536815215348
 20
7.441386495377797
 30
0.0
 10
2.819406737120112
 20
7.441386495377797
 30
0.0
 10
2.839391457799447
 20
7.441386495377797
 30
0.0
 10
2.859892433063775
 20
7.441386495377797
 30
0.0
 10
2.878119050839549
 20
7.441386495377797
 30
0.0
 10
2.893994043723855
 20
7.441386495377797
 30
0.0
 10
2.907363322801764
 20
7.441386495377797
 30
0.0
 10
2.916307933401437
 20
7.441386495377797
 30
0.0
 10
2.920785190090508
 20
7.441386495377797
 30
0.0
  0
LINE
  5
BE
330
1F
100
AcDbEntity
  8
0
  6
Continuous
 62
     7
370
    25
100
AcDbLine
 10
2.6507851901
 20
7.0553864954
 30
0.0
 11
3.1907851901
 21
7.0553864954
 31
0.0
  0
LINE
  5
BF
330
1F
100
AcDbEntity
  8
0
  6
Continuous
 62
     7
370
    25
100
AcDbLine
 10
3.2196824512
 20
7.2913864954
 30
0.0
 11
3.2196824512
 21
7.1753864954
 31
0.0
  0
LINE
  5
C0
330
1F
100
AcDbEntity
  8
0
  6
Continuous
 62
     7
370
    25
100
AcDbLine
 10
3.2196824512
 20
7.1753864954
 30
0.0
 11
3.0672027498
 21
7.1753864954
 31
0.0
  0
LINE
  5
C1
330
1F
100
AcDbEntity
  8
0
  6
Continuous
 62
     7
370
    25
100
AcDbLine
 10
3.0672027498
 20
7.2913864954
 30
0.0
 11
3.2196824512
 21
7.2913864954
 31
0.0
  0
LINE
  5
C2
330
1F
100
AcDbEntity
  8
0
  6
Continuous
 62
     7
370
    25
100
AcDbLine
 10
3.2196824512
 20
6.9153864954
 30
0.0
 11
3.2196824512
 21
6.7993864954
 31
0.0
  0
LINE
  5
C3
330
1F
100
AcDbEntity
  8
0
  6
Continuous
 62
     7
370
    25
100
AcDbLine
 10
3.0672027498
 20
6.7993864954
 30
0.0
 11
3.2196824512
 21
6.7993864954
 31
0.0
  0
LINE
  5
C4
330
1F
100
AcDbEntity
  8
0
  6
Continuous
 62
     7
370
    25
100
AcDbLine
 10
3.0672027498
 20
6.9153864954
 30
0.0
 11
3.2196824512
 21
6.9153864954
 31
0.0
  0
LINE
  5
C5
330
1F
100
AcDbEntity
  8
0
  6
Continuous
 62
     7
370
    25
100
AcDbLine
 10
2.7226506223
 20
7.2913864954
 30
0.0
 11
2.7226506223
 21
7.1753864954
 31
0.0
  0
LINE
  5
C6
330
1F
100
AcDbEntity
  8
0
  6
Continuous
 62
     7
370
    25
100
AcDbLine
 10
2.7226506223
 20
7.1753864954
 30
0.0
 11
2.7631337879
 21
7.1753864954
 31
0.0
  0
LINE
  5
C7
330
1F
100
AcDbEntity
  8
0
  6
Continuous
 62
     7
370
    25
100
AcDbLine
 10
2.7631337879
 20
7.2913864954
 30
0.0
 11
2.7226506223
 21
7.2913864954
 31
0.0
  0
LINE
  5
C8
330
1F
100
AcDbEntity
  8
0
  6
Continuous
 62
     7
370
    25
100
AcDbLine
 10
2.7226506223
 20
6.9153864954
 30
0.0
 11
2.7226506223
 21
6.7993864954
 31
0.0
  0
LINE
  5
C9
330
1F
100
AcDbEntity
  8
0
  6
Continuous
 62
     7
370
    25
100
AcDbLine
 10
2.7226506223
 20
6.7993864954
 30
0.0
 11
2.7631337879
 21
6.7993864954
 31
0.0
  0
LINE
  5
CA
330
1F
100
AcDbEntity
  8
0
  6
Continuous
 62
     7
370
    25
100
AcDbLine
 10
2.7226506223
 20
6.9153864954
 30
0.0
 11
2.7631337879
 21
6.9153864954
 31
0.0
  0
LINE
  5
CB
330
1F
100
AcDbEntity
  8
0
  6
Continuous
 62
     7
370
    25
100
AcDbLine
 10
2.6167162282
 20
7.1753864954
 30
0.0
 11
2.6167162282
 21
7.2913864954
 31
0.0
  0
LINE
  5
CC
330
1F
100
AcDbEntity
  8
0
  6
Continuous
 62
     7
370
    25
100
AcDbLine
 10
2.7226506223
 20
7.1753864954
 30
0.0
 11
2.6167162282
 21
7.1753864954
 31
0.0
  0
LINE
  5
CD
330
1F
100
AcDbEntity
  8
0
  6
Continuous
 62
     7
370
    25
100
AcDbLine
 10
2.6167162282
 20
7.2913864954
 30
0.0
 11
2.7226506223
 21
7.2913864954
 31
0.0
  0
LINE
  5
CE
330
1F
100
AcDbEntity
  8
0
  6
Continuous
 62
     7
370
    25
100
AcDbLine
 10
2.6167162282
 20
6.7993864954
 30
0.0
 11
2.6167162282
 21
6.9153864954
 31
0.0
  0
LINE
  5
CF
330
1F
100
AcDbEntity
  8
0
  6
Continuous
 62
     7
370
    25
100
AcDbLine
 10
2.6167162282
 20
6.7993864954
 30
0.0
 11
2.7226506223
 21
6.7993864954
 31
0.0
  0
LINE
  5
D0
330
1F
100
AcDbEntity
  8
0
  6
Continuous
 62
     7
370
    25
100
AcDbLine
 10
2.6167162282
 20
6.9153864954
 30
0.0
 11
2.7226506223
 21
6.9153864954
 31
0.0
  0
LINE
  5
D1
330
1F
100
AcDbEntity
  8
0
  6
Continuous
 62
     7
370
    25
100
AcDbLine
 10
3.2196824512
 20
7.1753864954
 30
0.0
 11
3.2291992857
 21
7.1753864954
 31
0.0
  0
LINE
  5
D2
330
1F
100
AcDbEntity
  8
0
  6
Continuous
 62
     7
370
    25
100
AcDbLine
 10
3.2291992857
 20
7.2913864954
 30
0.0
 11
3.2196824512
 21
7.2913864954
 31
0.0
  0
LINE
  5
D3
330
1F
100
AcDbEntity
  8
0
  6
Continuous
 62
     7
370
    25
100
AcDbLine
 10
3.2196824512
 20
6.7993864954
 30
0.0
 11
3.2291992857
 21
6.7993864954
 31
0.0
  0
LINE
  5
D4
330
1F
100
AcDbEntity
  8
0
  6
Continuous
 62
     7
370
    25
100
AcDbLine
 10
3.2196824512
 20
6.9153864954
 30
0.0
 11
3.2291992857
 21
6.9153864954
 31
0.0
  0
LINE
  5
D5
330
1F
100
AcDbEntity
  8
0
  6
Continuous
 62
     7
370
    25
100
AcDbLine
 10
2.6123710945
 20
6.7993864954
 30
0.0
 11
2.6167162282
 21
6.7993864954
 31
0.0
  0
LINE
  5
D6
330
1F
100
AcDbEntity
  8
0
  6
Continuous
 62
     7
370
    25
100
AcDbLine
 10
2.6123710945
 20
6.9153864954
 30
0.0
 11
2.6167162282
 21
6.9153864954
 31
0.0
  0
LINE
  5
D7
330
1F
100
AcDbEntity
  8
0
  6
Continuous
 62
     7
370
    25
100
AcDbLine
 10
2.6123710945
 20
7.1753864954
 30
0.0
 11
2.6167162282
 21
7.1753864954
 31
0.0
  0
LINE
  5
D8
330
1F
100
AcDbEntity
  8
0
  6
Continuous
 62
     7
370
    25
100
AcDbLine
 10
2.6167162282
 20
7.2913864954
 30
0.0
 11
2.6123710945
 21
7.2913864954
 31
0.0
  0
SPLINE
  5
D9
330
1F
100
AcDbEntity
  8
0
  6
Continuous
 62
     7
370
    25
100
AcDbSpline
210
0.0
220
0.0
230
1.0
 70
    11
 71
     3
 72
    54
 73
    50
 74
     0
 42
0.000000001
 43
0.00000001
 40
0.0
 40
0.0
 40
0.0
 40
0.0
 40
0.031249999999998
 40
0.031249999999998
 40
0.062499999999996
 40
0.062499999999996
 40
0.093749999999994
 40
0.093749999999994
 40
0.124999999999992
 40
0.124999999999992
 40
0.1874999999999903
 40
0.1874999999999903
 40
0.2499999999999887
 40
0.2499999999999887
 40
0.2812499999999865
 40
0.2812499999999865
 40
0.3124999999999842
 40
0.3124999999999842
 40
0.3749999999999836
 40
0.3749999999999836
 40
0.4062499999999848
 40
0.4062499999999848
 40
0.4374999999999859
 40
0.4374999999999859
 40
0.4999999999999881
 40
0.4999999999999881
 40
0.5312499999999893
 40
0.5312499999999893
 40
0.5624999999999906
 40
0.5624999999999906
 40
0.5937499999999918
 40
0.5937499999999918
 40
0.624999999999993
 40
0.624999999999993
 40
0.6874999999999946
 40
0.6874999999999946
 40
0.749999999999996
 40
0.749999999999996
 40
0.7812499999999976
 40
0.7812499999999976
 40
0.8124999999999991
 40
0.8124999999999991
 40
0.8749999999999992
 40
0.8749999999999992
 40
0.9062499999999994
 40
0.9062499999999994
 40
0.9374999999999997
 40
0.9374999999999997
 40
1.0
 40
1.0
 40
1.0
 40
1.0
 10
3.170269198976616
 20
6.306009734893461
 30
0.0
 10
3.170269198976617
 20
6.31014445452073
 30
0.0
 10
3.17060009454002
 20
6.314208923651829
 30
0.0
 10
3.17189079885095
 20
6.322203469116109
 30
0.0
 10
3.172866521411356
 20
6.326175395719479
 30
0.0
 10
3.175393573829863
 20
6.333740585603127
 30
0.0
 10
3.176933197766813
 20
6.337327772342178
 30
0.0
 10
3.180539202825431
 20
6.344116713735393
 30
0.0
 10
3.182621491103867
 20
6.347326703487624
 30
0.0
 10
3.1893729069112
 20
6.355960735150648
 30
0.0
 10
3.194726741362659
 20
6.360615766059189
 30
0.0
 10
3.205964127170183
 20
6.366855051865307
 30
0.0
 10
3.211963794761033
 20
6.368503597919482
 30
0.0
 10
3.220623464799751
 20
6.368512777040952
 30
0.0
 10
3.223512674885457
 20
6.368106607886222
 30
0.0
 10
3.229018694928742
 20
6.366511619123501
 30
0.0
 10
3.231654681391586
 20
6.365331190340203
 30
0.0
 10
3.23923009690825
 20
6.360632692659082
 30
0.0
 10
3.243669137800071
 20
6.356051603842044
 30
0.0
 10
3.249196837745722
 20
6.34732051241021
 30
0.0
 10
3.250808363029796
 20
6.344171535570096
 30
0.0
 10
3.253611080616054
 20
6.337411829008216
 30
0.0
 10
3.254811722704615
 20
6.333756928216794
 30
0.0
 10
3.257679401345094
 20
6.322416061128023
 30
0.0
 10
3.258657553718755
 20
6.314279075413765
 30
0.0
 10
3.258657543077971
 20
6.301874930751377
 30
0.0
 10
3.258413914367822
 20
6.297810466183686
 30
0.0
 10
3.257455075496887
 20
6.289815929618916
 30
0.0
 10
3.256727897517227
 20
6.285844007295613
 30
0.0
 10
3.254816729326993
 20
6.278278828475506
 30
0.0
 10
3.253641624328276
 20
6.274691646844428
 30
0.0
 10
3.250835276515661
 20
6.267902715057946
 30
0.0
 10
3.24919060216683
 20
6.2646927305187
 30
0.0
 10
3.243731209096251
 20
6.256058713007753
 30
0.0
 10
3.239238795490884
 20
6.251403689870983
 30
0.0
 10
3.229216139929638
 20
6.245164414942758
 30
0.0
 10
3.223574984909013
 20
6.243515871861939
 30
0.0
 10
3.214917254388763
 20
6.24350669274872
 30
0.0
 10
3.211941788864723
 20
6.243912861161649
 30
0.0
 10
3.206106420292147
 20
6.245507847098652
 30
0.0
 10
3.203229083752891
 20
6.246688273804629
 30
0.0
 10
3.194738466942127
 20
6.251386763055802
 30
0.0
 10
3.189449130102767
 20
6.255967843236055
 30
0.0
 10
3.18261412012293
 20
6.264698921612379
 30
0.0
 10
3.180573417245732
 20
6.267847893754334
 30
0.0
 10
3.176972901514682
 20
6.274607590041598
 30
0.0
 10
3.175400189989763
 20
6.278262485013722
 30
0.0
 10
3.171608520529261
 20
6.289603338163285
 30
0.0
 10
3.170269198976615
 20
6.297740295638924
 30
0.0
 10
3.170269198976616
 20
6.306009734893461
 30
0.0
  0
SPLINE
  5
DA
330
1F
100
AcDbEntity
  8
0
  6
Continuous
 62
     7
370
    25
100
AcDbSpline
210
0.0
220
0.0
230
1.0
 70
    11
 71
     3
 72
    54
 73
    50
 74
     0
 42
0.000000001
 43
0.00000001
 40
0.0
 40
0.0
 40
0.0
 40
0.0
 40
0.0312499999999961
 40
0.0312499999999961
 40
0.0624999999999921
 40
0.0624999999999921
 40
0.0937499999999882
 40
0.0937499999999882
 40
0.1249999999999842
 40
0.1249999999999842
 40
0.1874999999999793
 40
0.1874999999999793
 40
0.2499999999999744
 40
0.2499999999999744
 40
0.2812499999999742
 40
0.2812499999999742
 40
0.312499999999974
 40
0.312499999999974
 40
0.3749999999999777
 40
0.3749999999999777
 40
0.406249999999978
 40
0.406249999999978
 40
0.4374999999999783
 40
0.4374999999999783
 40
0.4999999999999774
 40
0.4999999999999774
 40
0.5312499999999768
 40
0.5312499999999768
 40
0.5624999999999764
 40
0.5624999999999764
 40
0.5937499999999758
 40
0.5937499999999758
 40
0.6249999999999754
 40
0.6249999999999754
 40
0.687499999999974
 40
0.687499999999974
 40
0.7499999999999727
 40
0.7499999999999727
 40
0.7812499999999744
 40
0.7812499999999744
 40
0.8124999999999761
 40
0.8124999999999761
 40
0.8749999999999835
 40
0.8749999999999835
 40
0.9062499999999871
 40
0.9062499999999871
 40
0.9374999999999909
 40
0.9374999999999909
 40
1.0
 40
1.0
 40
1.0
 40
1.0
 10
2.977285190090509
 20
6.441009734893463
 30
0.0
 10
2.977285190090508
 20
6.437272954381743
 30
0.0
 10
2.976918135923132
 20
6.433599467749143
 30
0.0
 10
2.975480750983354
 20
6.426373639593982
 30
0.0
 10
2.974392672701061
 20
6.42278354078298
 30
0.0
 10
2.971555939037548
 20
6.41594407322355
 30
0.0
 10
2.969820649461683
 20
6.412700851273831
 30
0.0
 10
2.965721627214331
 20
6.406562880375977
 30
0.0
 10
2.963338552447266
 20
6.403659930081091
 30
0.0
 10
2.955530741175347
 20
6.395852421539356
 30
0.0
 10
2.949235202213996
 20
6.391643995822487
 30
0.0
 10
2.935644302117811
 20
6.386004406300586
 30
0.0
 10
2.928204471641809
 20
6.384515175227754
 30
0.0
 10
2.917137868389743
 20
6.384507037638808
 30
0.0
 10
2.913390216459679
 20
6.384873999445006
 30
0.0
 10
2.906141228088863
 20
6.38631548650998
 30
0.0
 10
2.902617437030022
 20
6.38738231128696
 30
0.0
 10
2.89234942337834
 20
6.391628276558951
 30
0.0
 10
2.88613072233863
 20
6.395767806080461
 30
0.0
 10
2.878222978356908
 20
6.403665569394477
 30
0.0
 10
2.875887649053904
 20
6.406513532329519
 30
0.0
 10
2.87179436254274
 20
6.412625302564266
 30
0.0
 10
2.870022112914341
 20
6.415928685128516
 30
0.0
 10
2.865764850702676
 20
6.426183794772529
 30
0.0
 10
2.864285171414882
 20
6.433536330044737
 30
0.0
 10
2.864285199428591
 20
6.444746649101425
 30
0.0
 10
2.864652261322319
 20
6.448420128519129
 30
0.0
 10
2.866089659654395
 20
6.455645942602229
 30
0.0
 10
2.867177743860457
 20
6.459236034661976
 30
0.0
 10
2.870014485149677
 20
6.466075484720082
 30
0.0
 10
2.871749777349432
 20
6.469318698587626
 30
0.0
 10
2.875848803134107
 20
6.475456654283008
 30
0.0
 10
2.878231877967012
 20
6.478359596342682
 30
0.0
 10
2.886039686042822
 20
6.486167082471628
 30
0.0
 10
2.892335219003097
 20
6.490375495891338
 30
0.0
 10
2.905926101216174
 20
6.496015068194867
 30
0.0
 10
2.913365920154014
 20
6.497504294567694
 30
0.0
 10
2.924432505983714
 20
6.497512432143852
 30
0.0
 10
2.928180151988905
 20
6.497145471511024
 30
0.0
 10
2.935429129587721
 20
6.495703988915954
 30
0.0
 10
2.938952915566134
 20
6.494637167424922
 30
0.0
 10
2.949220914981337
 20
6.490391215485166
 30
0.0
 10
2.955439608697064
 20
6.486251699672496
 30
0.0
 10
2.963347351700745
 20
6.478353957011089
 30
0.0
 10
2.965682681427494
 20
6.475506001504567
 30
0.0
 10
2.969775970675608
 20
6.469394247503716
 30
0.0
 10
2.971548222658921
 20
6.466090874191356
 30
0.0
 10
2.975805498052273
 20
6.45583578655533
 30
0.0
 10
2.97728519009051
 20
6.4484832959169
 30
0.0
 10
2.977285190090509
 20
6.441009734893461
 30
0.0
  0
LINE
  5
DB
330
1F
100
AcDbEntity
  8
0
  6
Continuous
 62
     7
370
    25
100
AcDbLine
 10
2.5007851901
 20
5.0160097349
 30
0.0
 11
3.3407851901
 21
5.0160097349
 31
0.0
  0
LINE
  5
DC
330
1F
100
AcDbEntity
  8
0
  6
Continuous
 62
     7
370
    25
100
AcDbLine
 10
3.3407851901
 20
6.7410097349
 30
0.0
 11
2.5007851901
 21
6.7410097349
 31
0.0
  0
SPLINE
  5
DD
330
1F
100
AcDbEntity
  8
0
  6
Continuous
 62
     7
370
    25
100
AcDbSpline
210
0.0
220
0.0
230
1.0
 70
     8
 71
     3
 72
     9
 73
     5
 74
     0
 42
0.000000001
 43
0.00000001
 40
0.0
 40
0.0
 40
0.0
 40
0.0
 40
0.4036978335096449
 40
1.0
 40
1.0
 40
1.0
 40
1.0
 10
3.204933196994062
 20
6.246957500794483
 30
0.0
 10
3.20741799138973
 20
6.247777412308285
 30
0.0
 10
3.213573076181904
 20
6.249808415315347
 30
0.0
 10
3.219836560679905
 20
6.253693218398555
 30
0.0
 10
3.223571490055841
 20
6.256009734893461
 30
0.0
  0
SPLINE
  5
DE
330
1F
100
AcDbEntity
  8
0
  6
Continuous
 62
     7
370
    25
100
AcDbSpline
210
0.0
220
0.0
230
1.0
 70
     8
 71
     3
 72
    15
 73
    11
 74
     0
 42
0.000000001
 43
0.00000001
 40
0.0
 40
0.0
 40
0.0
 40
0.0
 40
0.1485058017056682
 40
0.2970383439407808
 40
0.4073776563286055
 40
0.5541907529702492
 40
0.7009584758735168
 40
0.8489010312512951
 40
0.997631978800911
 40
0.9999999999999999
 40
0.9999999999999999
 40
0.9999999999999999
 40
0.9999999999999999
 10
3.223571490055841
 20
6.256009734893461
 30
0.0
 10
3.226853447579351
 20
6.260782435749439
 30
0.0
 10
3.233417953588346
 20
6.270328696852381
 30
0.0
 10
3.238033835582256
 20
6.288553292731542
 30
0.0
 10
3.239508971418424
 20
6.307720039902578
 30
0.0
 10
3.237575260363485
 20
6.326913578715002
 30
0.0
 10
3.231448334686096
 20
6.345685366857245
 30
0.0
 10
3.221384218361997
 20
6.359285174115079
 30
0.0
 10
3.212918706174265
 20
6.366527354453775
 30
0.0
 10
3.207915134967002
 20
6.366926671179056
 30
0.0
 10
3.207836719059944
 20
6.366932929265914
 30
0.0
  0
LINE
  5
DF
330
1F
100
AcDbEntity
  8
0
  6
Continuous
 62
     7
370
    25
100
AcDbLine
 10
3.2285668953
 20
6.2785097349
 30
0.0
 11
3.2352478469
 21
6.2785097349
 31
0.0
  0
LINE
  5
E0
330
1F
100
AcDbEntity
  8
0
  6
Continuous
 62
     7
370
    25
100
AcDbLine
 10
3.2285668953
 20
6.3060097349
 30
0.0
 11
3.2285668953
 21
6.2785097349
 31
0.0
  0
SPLINE
  5
E1
330
1F
100
AcDbEntity
  8
0
  6
Continuous
 62
     7
370
    25
100
AcDbSpline
210
0.0
220
0.0
230
1.0
 70
     8
 71
     3
 72
    13
 73
     9
 74
     0
 42
0.000000001
 43
0.00000001
 40
0.0
 40
0.0
 40
0.0
 40
0.0
 40
0.1612247708790123
 40
0.3534503271169357
 40
0.5462349709578395
 40
0.7404115517874674
 40
0.9346632064179957
 40
1.0
 40
1.0
 40
1.0
 40
1.0
 10
3.189485766941396
 20
6.354909567010358
 30
0.0
 10
3.192834466298113
 20
6.355476529105472
 30
0.0
 10
3.200175763026865
 20
6.356719470477868
 30
0.0
 10
3.210698400853587
 20
6.351849505438198
 30
0.0
 10
3.21977205864275
 20
6.342163572025276
 30
0.0
 10
3.225993868378621
 20
6.328245041976154
 30
0.0
 10
3.228365191564564
 20
6.315397369305872
 30
0.0
 10
3.228526336238588
 20
6.307897424284533
 30
0.0
 10
3.228566895348118
 20
6.306009734893461
 30
0.0
  0
SPLINE
  5
E2
330
1F
100
AcDbEntity
  8
0
  6
Continuous
 62
     7
370
    25
100
AcDbSpline
210
0.0
220
0.0
230
1.0
 70
    11
 71
     3
 72
    38
 73
    34
 74
     0
 42
0.000000001
 43
0.00000001
 40
0.0
 40
0.0
 40
0.0
 40
0.0
 40
0.0625000000000002
 40
0.0625000000000002
 40
0.1250000000000002
 40
0.1250000000000002
 40
0.1875000000000003
 40
0.1875000000000003
 40
0.2500000000000003
 40
0.2500000000000003
 40
0.3125000000000004
 40
0.3125000000000004
 40
0.3750000000000004
 40
0.3750000000000004
 40
0.4375000000000005
 40
0.4375000000000005
 40
0.5000000000000006
 40
0.5000000000000006
 40
0.5625000000000004
 40
0.5625000000000004
 40
0.6250000000000004
 40
0.6250000000000004
 40
0.6875000000000003
 40
0.6875000000000003
 40
0.7500000000000002
 40
0.7500000000000002
 40
0.8125000000000002
 40
0.8125000000000002
 40
0.8750000000000001
 40
0.8750000000000001
 40
0.9375000000000001
 40
0.9375000000000001
 40
1.0
 40
1.0
 40
1.0
 40
1.0
 10
2.965285190090508
 20
6.441009734893461
 30
0.0
 10
2.96528519009051
 20
6.435125420588962
 30
0.0
 10
2.964125180167754
 20
6.429351716371268
 30
0.0
 10
2.959657252795328
 20
6.418577016002695
 30
0.0
 10
2.956352013065782
 20
6.413643890280715
 30
0.0
 10
2.948149611746011
 20
6.405441817110954
 30
0.0
 10
2.943189670889939
 20
6.402126951437744
 30
0.0
 10
2.932484395059366
 20
6.397685836035523
 30
0.0
 10
2.926625942457008
 20
6.396513918511519
 30
0.0
 10
2.915008361590837
 20
6.396505574231927
 30
0.0
 10
2.909173748080678
 20
6.397657154733001
 30
0.0
 10
2.898393102275373
 20
6.402114154226811
 30
0.0
 10
2.893495224463912
 20
6.405372683048304
 30
0.0
 10
2.885184130703717
 20
6.413672832021094
 30
0.0
 10
2.881920297732457
 20
6.418564600751107
 30
0.0
 10
2.877448939082783
 20
6.429337834736822
 30
0.0
 10
2.876285172429887
 20
6.43512556831342
 30
0.0
 10
2.876285207751536
 20
6.446894168593347
 30
0.0
 10
2.877445230821607
 20
6.452667861681551
 30
0.0
 10
2.881913172636026
 20
6.463442528938241
 30
0.0
 10
2.885218415681815
 20
6.468375640202708
 30
0.0
 10
2.893420812955923
 20
6.476577685063097
 30
0.0
 10
2.898380748135457
 20
6.479892539099862
 30
0.0
 10
2.9090860070232
 20
6.484333638201314
 30
0.0
 10
2.914944448711047
 20
6.485505551283278
 30
0.0
 10
2.926562007602902
 20
6.485513895547119
 30
0.0
 10
2.932396610490222
 20
6.484362319293667
 30
0.0
 10
2.943177238341709
 20
6.479905336611289
 30
0.0
 10
2.948075109150201
 20
6.476646820812317
 30
0.0
 10
2.956386201722819
 20
6.468346697889171
 30
0.0
 10
2.959650036048873
 20
6.463454946886796
 30
0.0
 10
2.964121411380632
 20
6.452681740594576
 30
0.0
 10
2.965285190090508
 20
6.44689404919796
 30
0.0
 10
2.965285190090509
 20
6.441009734893461
 30
0.0
  0
LINE
  5
E3
330
1F
100
AcDbEntity
  8
0
  6
Continuous
 62
     7
370
    25
100
AcDbLine
 10
3.1824146991
 20
6.3060097349
 30
0.0
 11
3.2285668953
 21
6.3060097349
 31
0.0
  0
ARC
  5
E4
330
1F
100
AcDbEntity
  8
0
  6
Continuous
 62
     7
370
    25
100
AcDbCircle
 10
3.1178622581
 20
6.3066947595
 30
0.0
 40
0.0645560756758553
100
AcDbArc
 50
359.3920052279
 51
24.6669404939
  0
SPLINE
  5
E5
330
1F
100
AcDbEntity
  8
0
  6
Continuous
 62
     7
370
    25
100
AcDbSpline
210
0.0
220
0.0
230
1.0
 70
     8
 71
     3
 72
     8
 73
     4
 74
     0
 42
0.000000001
 43
0.00000001
 40
0.0
 40
0.0
 40
0.0
 40
0.0
 40
0.0006313858250414
 40
0.0006313858250414
 40
0.0006313858250414
 40
0.0006313858250414
 10
3.228566895348118
 20
6.278509734893461
 30
0.0
 10
3.224406680762891
 20
6.272675232231642
 30
0.0
 10
3.22024568521682
 20
6.266841843000199
 30
0.0
 10
3.216083792190062
 20
6.261009734893461
 30
0.0
  0
LINE
  5
E6
330
1F
100
AcDbEntity
  8
0
  6
Continuous
 62
     7
370
    25
100
AcDbLine
 10
3.2160837922
 20
6.2610097349
 30
0.0
 11
3.2135859117
 21
6.2610097349
 31
0.0
  0
LINE
  5
E7
330
1F
100
AcDbEntity
  8
0
  6
Continuous
 62
     7
370
    25
100
AcDbLine
 10
3.2135859117
 20
6.2610097349
 30
0.0
 11
3.2135859117
 21
6.2503844678
 31
0.0
  0
LINE
  5
E8
330
1F
100
AcDbEntity
  8
0
  6
Continuous
 62
     7
370
    25
100
AcDbLine
 10
3.1824146991
 20
6.3060097349
 30
0.0
 11
3.1824146991
 21
6.2662430042
 31
0.0
  0
LINE
  5
E9
330
1F
100
AcDbEntity
  8
0
  6
Continuous
 62
     7
370
    25
100
AcDbLine
 10
3.2160837922
 20
6.2610097349
 30
0.0
 11
3.2275650316
 21
6.2610097349
 31
0.0
  0
SPLINE
  5
EA
330
1F
100
AcDbEntity
  8
0
  6
Continuous
 62
     7
370
    25
100
AcDbSpline
210
0.0
220
0.0
230
1.0
 70
     8
 71
     3
 72
    18
 73
    14
 74
     0
 42
0.000000001
 43
0.00000001
 40
0.0
 40
0.0
 40
0.0
 40
0.0
 40
0.0795880217933156
 40
0.1613751936611834
 40
0.2634554705016882
 40
0.3684591219364269
 40
0.4999866133872062
 40
0.6028670566055566
 40
0.7082252311857484
 40
0.8111625302307088
 40
0.9173861476743879
 40
0.9968003782892458
 40
1.0
 40
1.0
 40
1.0
 40
1.0
 10
2.821790240724391
 20
7.851386495377797
 30
0.0
 10
2.817702050860229
 20
7.851601606665755
 30
0.0
 10
2.809412707612495
 20
7.852037773126119
 30
0.0
 10
2.798550190695898
 20
7.855344620635671
 30
0.0
 10
2.789364345958682
 20
7.860444770149985
 30
0.0
 10
2.78250620803054
 20
7.867737862838126
 30
0.0
 10
2.780039051898004
 20
7.875713679944128
 30
0.0
 10
2.781963082268261
 20
7.883696169566899
 30
0.0
 10
2.78731339385182
 20
7.890568368977423
 30
0.0
 10
2.796250764532316
 20
7.896632781919978
 30
0.0
 10
2.80800838787423
 20
7.900220988819346
 30
0.0
 10
2.81697323445657
 20
7.901710692121792
 30
0.0
 10
2.821640313321448
 20
7.901358980337764
 30
0.0
 10
2.821821068563353
 20
7.90134535859482
 30
0.0
  0
LWPOLYLINE
  5
EB
330
1F
100
AcDbEntity
  8
0
  6
Continuous
 62
     7
370
    25
100
AcDbPolyline
 90
       16
 70
   128
 43
0.0
 10
3.0607851901
 20
7.8763864954
 10
3.0590352273
 20
7.8835663173
 10
3.0536173193
 20
7.8904724537
 10
3.0447884773
 20
7.8962225315
 10
3.032060605
 20
7.9002780632
 10
3.0202904597
 20
7.9013847187
 10
3.0064512146
 20
7.9003781297
 10
2.9917559708
 20
7.8976437658
 10
2.9757879478
 20
7.8935861099
 10
2.9567071113
 20
7.887945484
 10
2.9366430044
 20
7.8815618419
 10
2.9132428226
 20
7.8739189896
 10
2.8893913936
 20
7.8662404583
 10
2.8659795251
 20
7.8592416423
 10
2.8431783755
 20
7.8537390696
 10
2.8217902407
 20
7.8513864954
  0
SPLINE
  5
EC
330
1F
100
AcDbEntity
  8
0
  6
Continuous
 62
     7
370
    25
100
AcDbSpline
210
0.0
220
0.0
230
1.0
 70
     8
 71
     3
 72
    19
 73
    15
 74
     0
 42
0.000000001
 43
0.00000001
 40
0.0
 40
0.0
 40
0.0
 40
0.0
 40
0.0635108457729998
 40
0.1466233012460282
 40
0.2334233163269729
 40
0.3224630929318993
 40
0.4115028695369564
 40
0.4983028846182306
 40
0.5814153400915811
 40
0.6612315464692055
 40
0.7410477528462516
 40
0.8241602083180378
 40
0.9109602233971822
 40
0.9999999999999999
 40
0.9999999999999999
 40
0.9999999999999999
 40
0.9999999999999999
 10
2.825780412769955
 20
7.851825391809525
 30
0.0
 10
2.821544228152615
 20
7.852218758442336
 30
0.0
 10
2.811764428092921
 20
7.853126898045907
 30
0.0
 10
2.802204019519472
 20
7.859064954306237
 30
0.0
 10
2.795755229989765
 20
7.867103749346735
 30
0.0
 10
2.793692129243337
 20
7.87639348521959
 30
0.0
 10
2.795780268812899
 20
7.885641633695634
 30
0.0
 10
2.802108512995007
 20
7.893800353659263
 30
0.0
 10
2.812768044675868
 20
7.899739317148089
 30
0.0
 10
2.828118146114864
 20
7.902193395958278
 30
0.0
 10
2.847988604322938
 20
7.899739424537282
 30
0.0
 10
2.870686440316292
 20
7.893799894965635
 30
0.0
 10
2.895261102876112
 20
7.885643456465279
 30
0.0
 10
2.912205219056347
 20
7.879498240661054
 30
0.0
 10
2.920785190091281
 20
7.876386495377746
 30
0.0
  0
SPLINE
  5
ED
330
1F
100
AcDbEntity
  8
0
  6
Continuous
 62
     7
370
    25
100
AcDbSpline
210
0.0
220
0.0
230
1.0
 70
     8
 71
     3
 72
     8
 73
     4
 74
     0
 42
0.000000001
 43
0.00000001
 40
0.7500000000065025
 40
0.7500000000065025
 40
0.7500000000065025
 40
0.7500000000065025
 40
0.8750000000000003
 40
0.8750000000000003
 40
0.8750000000000003
 40
0.8750000000000003
 10
3.01270907164835
 20
7.901386495377798
 30
0.0
 10
2.989728101260604
 20
7.901386495378514
 30
0.0
 10
2.955256645678012
 20
7.88888649537909
 30
0.0
 10
2.920785190095022
 20
7.876386495379206
 30
0.0
  0
SPLINE
  5
EE
330
1F
100
AcDbEntity
  8
0
  6
Continuous
 62
     7
370
    25
100
AcDbSpline
210
0.0
220
0.0
230
1.0
 70
     8
 71
     3
 72
    11
 73
     7
 74
     0
 42
0.000000001
 43
0.00000001
 40
0.0
 40
0.0
 40
0.0
 40
0.0
 40
0.3387097508542439
 40
0.5713352872422272
 40
0.810518832552718
 40
1.0
 40
1.0
 40
1.0
 40
1.0
 10
2.828861308539781
 20
7.891386495377798
 30
0.0
 10
2.836521139723518
 20
7.890688388514988
 30
0.0
 10
2.849441735716254
 20
7.889510822519375
 30
0.0
 10
2.87065694517102
 20
7.883409571136735
 30
0.0
 10
2.888615110708943
 20
7.877630362713719
 30
0.0
 10
2.900645322268147
 20
7.873431424274973
 30
0.0
 10
2.905962994712446
 20
7.871575382166224
 30
0.0
  0
SPLINE
  5
EF
330
1F
100
AcDbEntity
  8
0
  6
Continuous
 62
     7
370
    25
100
AcDbSpline
210
0.0
220
0.0
230
1.0
 70
     8
 71
     3
 72
    11
 73
     7
 74
     0
 42
0.000000001
 43
0.00000001
 40
0.0
 40
0.0
 40
0.0
 40
0.0
 40
0.1396682001803791
 40
0.4386999898678095
 40
0.7250278929470362
 40
1.0
 40
1.0
 40
1.0
 40
1.0
 10
2.795563349313915
 20
7.871386495376769
 30
0.0
 10
2.795796988497426
 20
7.872796652308176
 30
0.0
 10
2.796530852808029
 20
7.877225977170394
 30
0.0
 10
2.802310007830728
 20
7.883718171538554
 30
0.0
 10
2.812526786022718
 20
7.889969288165794
 30
0.0
 10
2.823490403565287
 20
7.890920507758209
 30
0.0
 10
2.828861308539781
 20
7.891386495377798
 30
0.0
  0
SPLINE
  5
F0
330
1F
100
AcDbEntity
  8
0
  6
Continuous
 62
     7
370
    25
100
AcDbSpline
210
0.0
220
0.0
230
1.0
 70
     8
 71
     3
 72
    11
 73
     7
 74
     0
 42
0.000000001
 43
0.00000001
 40
0.0
 40
0.0
 40
0.0
 40
0.0
 40
0.2772078511815413
 40
0.5658638301305717
 40
0.8673269884885946
 40
1.0
 40
1.0
 40
1.0
 40
1.0
 10
2.82886130853978
 20
7.891386495377798
 30
0.0
 10
2.83508144653809
 20
7.890920602059115
 30
0.0
 10
2.847778601747306
 20
7.889969574962953
 30
0.0
 10
2.870754430784392
 20
7.883716946533265
 30
0.0
 10
2.890409051799971
 20
7.877301868230625
 30
0.0
 10
2.902447123076512
 20
7.872955970386575
 30
0.0
 10
2.906125985331937
 20
7.871627854015013
 30
0.0
  0
LINE
  5
F1
330
1F
100
AcDbEntity
  8
0
  6
Continuous
 62
     8
370
    25
100
AcDbLine
 10
3.3407851901
 20
4.8160097349
 30
0.0
 11
2.5007851901
 21
4.8160097349
 31
0.0
  0
LINE
  5
F2
330
1F
100
AcDbEntity
  8
0
  6
Continuous
 62
     8
370
    25
100
AcDbLine
 10
3.3407851901
 20
5.0060097349
 30
0.0
 11
2.5007851901
 21
5.0060097349
 31
0.0
  0
LINE
  5
F3
330
1F
100
AcDbEntity
  8
0
  6
Continuous
 62
     8
370
    25
100
AcDbLine
 10
2.9207851901
 20
4.7860097349
 30
0.0
 11
2.7332851901
 21
4.7860097349
 31
0.0
  0
LINE
  5
F4
330
1F
100
AcDbEntity
  8
0
  6
Continuous
 62
     8
370
    25
100
AcDbLine
 10
3.1082851901
 20
4.7860097349
 30
0.0
 11
2.9207851901
 21
4.7860097349
 31
0.0
  0
LINE
  5
F5
330
1F
100
AcDbEntity
  8
0
  6
Continuous
 62
     8
370
    25
100
AcDbLine
 10
2.9207851901
 20
7.3913864954
 30
0.0
 11
3.1907851901
 21
7.3913864954
 31
0.0
  0
LINE
  5
F6
330
1F
100
AcDbEntity
  8
0
  6
Continuous
 62
     8
370
    25
100
AcDbLine
 10
2.6507851901
 20
7.3913864954
 30
0.0
 11
2.9207851901
 21
7.3913864954
 31
0.0
  0
INSERT
  5
102
330
1F
100
AcDbEntity
  8
SLD-0
 62
     7
100
AcDbBlockReference
  2
SW_CENTERMARKSYMBOL_0
 10
2.9207851901
 20
6.4410097349
 30
0.0
  0
LINE
  5
103
330
1F
100
AcDbEntity
  8
0
  6
Continuous
 62
     7
370
    25
100
AcDbLine
 10
5.5474101901
 20
4.1810097349
 30
0.0
 11
5.5474101901
 21
4.3060097349
 31
0.0
  0
LINE
  5
104
330
1F
100
AcDbEntity
  8
0
  6
Continuous
 62
     7
370
    25
100
AcDbLine
 10
4.9224101901
 20
4.3060097349
 30
0.0
 11
4.9224101901
 21
4.1810097349
 31
0.0
  0
LINE
  5
105
330
1F
100
AcDbEntity
  8
0
  6
Continuous
 62
     7
370
    25
100
AcDbLine
 10
5.5474101901
 20
4.3060097349
 30
0.0
 11
5.4224101901
 21
4.4310097349
 31
0.0
  0
LINE
  5
106
330
1F
100
AcDbEntity
  8
0
  6
Continuous
 62
     7
370
    25
100
AcDbLine
 10
5.0474101901
 20
4.4310097349
 30
0.0
 11
4.9224101901
 21
4.3060097349
 31
0.0
  0
LINE
  5
107
330
1F
100
AcDbEntity
  8
0
  6
Continuous
 62
     7
370
    25
100
AcDbLine
 10
5.4224101901
 20
4.4310097349
 30
0.0
 11
5.4224101901
 21
4.6310097349
 31
0.0
  0
LINE
  5
108
330
1F
100
AcDbEntity
  8
0
  6
Continuous
 62
     7
370
    25
100
AcDbLine
 10
5.0474101901
 20
4.6310097349
 30
0.0
 11
5.0474101901
 21
4.4310097349
 31
0.0
  0
ARC
  5
109
330
1F
100
AcDbEntity
  8
0
  6
Continuous
 62
     7
370
    25
100
AcDbCircle
 10
4.8249101901
 20
4.8160097349
 30
0.0
 40
0.0100000000000007
100
AcDbArc
 50
180.0
 51
270.0
  0
ARC
  5
10A
330
1F
100
AcDbEntity
  8
0
  6
Continuous
 62
     7
370
    25
100
AcDbCircle
 10
5.6449101901
 20
4.8160097349
 30
0.0
 40
0.0099999999999998
100
AcDbArc
 50
270.0
 51
0.0
  0
LINE
  5
10B
330
1F
100
AcDbEntity
  8
0
  6
Continuous
 62
     7
370
    25
100
AcDbLine
 10
5.6549101901
 20
4.8160097349
 30
0.0
 11
5.6549101901
 21
5.0060097349
 31
0.0
  0
LINE
  5
10C
330
1F
100
AcDbEntity
  8
0
  6
Continuous
 62
     7
370
    25
100
AcDbLine
 10
4.8149101901
 20
5.0060097349
 30
0.0
 11
4.8149101901
 21
4.8160097349
 31
0.0
  0
ARC
  5
10D
330
1F
100
AcDbEntity
  8
0
  6
Continuous
 62
     7
370
    25
100
AcDbCircle
 10
4.8249101901
 20
5.0060097349
 30
0.0
 40
0.0099999999999989
100
AcDbArc
 50
90.0
 51
180.0
  0
ARC
  5
10E
330
1F
100
AcDbEntity
  8
0
  6
Continuous
 62
     7
370
    25
100
AcDbCircle
 10
5.6449101901
 20
5.0060097349
 30
0.0
 40
0.0099999999999989
100
AcDbArc
 50
360.0
 51
90.0
  0
ARC
  5
10F
330
1F
100
AcDbEntity
  8
0
  6
Continuous
 62
     7
370
    25
100
AcDbCircle
 10
5.0274101901
 20
4.7860097349
 30
0.0
 40
0.0200000000000005
100
AcDbArc
 50
0.0
 51
90.0
  0
ARC
  5
110
330
1F
100
AcDbEntity
  8
0
  6
Continuous
 62
     7
370
    25
100
AcDbCircle
 10
5.4424101901
 20
4.7860097349
 30
0.0
 40
0.0200000000000005
100
AcDbArc
 50
90.0
 51
180.0
  0
LINE
  5
111
330
1F
100
AcDbEntity
  8
0
  6
Continuous
 62
     7
370
    25
100
AcDbLine
 10
5.4224101901
 20
4.6310097349
 30
0.0
 11
5.4224101901
 21
4.7860097349
 31
0.0
  0
LINE
  5
112
330
1F
100
AcDbEntity
  8
0
  6
Continuous
 62
     7
370
    25
100
AcDbLine
 10
5.0474101901
 20
4.7860097349
 30
0.0
 11
5.0474101901
 21
4.6310097349
 31
0.0
  0
ARC
  5
113
330
1F
100
AcDbEntity
  8
0
  6
Continuous
 62
     7
370
    25
100
AcDbCircle
 10
5.0149101901
 20
7.3913864954
 30
0.0
 40
0.0499999999999998
100
AcDbArc
 50
90.0
 51
180.0
  0
ARC
  5
114
330
1F
100
AcDbEntity
  8
0
  6
Continuous
 62
     7
370
    25
100
AcDbCircle
 10
5.4549101901
 20
7.3913864954
 30
0.0
 40
0.0499999999999998
100
AcDbArc
 50
0.0
 51
90.0
  0
LINE
  5
115
330
1F
100
AcDbEntity
  8
0
  6
Continuous
 62
     7
370
    25
100
AcDbLine
 10
5.5049101901
 20
7.2913864954
 30
0.0
 11
5.5049101901
 21
7.3913864954
 31
0.0
  0
LINE
  5
116
330
1F
100
AcDbEntity
  8
0
  6
Continuous
 62
     7
370
    25
100
AcDbLine
 10
4.9649101901
 20
7.3913864954
 30
0.0
 11
4.9649101901
 21
7.2913864954
 31
0.0
  0
LINE
  5
117
330
1F
100
AcDbEntity
  8
0
  6
Continuous
 62
     7
370
    25
100
AcDbLine
 10
5.5049101901
 20
7.0553864954
 30
0.0
 11
5.5049101901
 21
7.1753864954
 31
0.0
  0
LINE
  5
118
330
1F
100
AcDbEntity
  8
0
  6
Continuous
 62
     7
370
    25
100
AcDbLine
 10
4.9649101901
 20
7.1753864954
 30
0.0
 11
4.9649101901
 21
7.0553864954
 31
0.0
  0
LINE
  5
119
330
1F
100
AcDbEntity
  8
0
  6
Continuous
 62
     7
370
    25
100
AcDbLine
 10
5.4774101901
 20
6.9153864954
 30
0.0
 11
5.4774101901
 21
7.0553864954
 31
0.0
  0
LINE
  5
11A
330
1F
100
AcDbEntity
  8
0
  6
Continuous
 62
     7
370
    25
100
AcDbLine
 10
4.9924101901
 20
7.0553864954
 30
0.0
 11
4.9924101901
 21
6.9153864954
 31
0.0
  0
LINE
  5
11B
330
1F
100
AcDbEntity
  8
0
  6
Continuous
 62
     7
370
    25
100
AcDbLine
 10
5.4524101901
 20
6.7960097349
 30
0.0
 11
5.4524101901
 21
6.7993864954
 31
0.0
  0
LINE
  5
11C
330
1F
100
AcDbEntity
  8
0
  6
Continuous
 62
     7
370
    25
100
AcDbLine
 10
5.0174101901
 20
6.7993864954
 30
0.0
 11
5.0174101901
 21
6.7960097349
 31
0.0
  0
LINE
  5
11D
330
1F
100
AcDbEntity
  8
0
  6
Continuous
 62
     7
370
    25
100
AcDbLine
 10
4.9476805458
 20
6.9153864954
 30
0.0
 11
4.9476805458
 21
6.7993864954
 31
0.0
  0
LINE
  5
11E
330
1F
100
AcDbEntity
  8
0
  6
Continuous
 62
     7
370
    25
100
AcDbLine
 10
4.9476805458
 20
7.2913864954
 30
0.0
 11
4.9476805458
 21
7.1753864954
 31
0.0
  0
LINE
  5
11F
330
1F
100
AcDbEntity
  8
0
  6
Continuous
 62
     7
370
    25
100
AcDbLine
 10
5.5221398344
 20
7.1753864954
 30
0.0
 11
5.5221398344
 21
7.2913864954
 31
0.0
  0
LINE
  5
120
330
1F
100
AcDbEntity
  8
0
  6
Continuous
 62
     7
370
    25
100
AcDbLine
 10
5.5221398344
 20
6.7993864954
 30
0.0
 11
5.5221398344
 21
6.9153864954
 31
0.0
  0
LINE
  5
121
330
1F
100
AcDbEntity
  8
0
  6
Continuous
 62
     7
370
    25
100
AcDbLine
 10
5.6549101901
 20
6.4968005678
 30
0.0
 11
5.6549101901
 21
6.7410097349
 31
0.0
  0
LINE
  5
122
330
1F
100
AcDbEntity
  8
0
  6
Continuous
 62
     7
370
    25
100
AcDbLine
 10
5.6549101901
 20
5.0160097349
 30
0.0
 11
5.6549101901
 21
6.385218902
 31
0.0
  0
LINE
  5
123
330
1F
100
AcDbEntity
  8
0
  6
Continuous
 62
     7
370
    25
100
AcDbLine
 10
4.8149101901
 20
6.385218902
 30
0.0
 11
4.8149101901
 21
5.0160097349
 31
0.0
  0
LINE
  5
124
330
1F
100
AcDbEntity
  8
0
  6
Continuous
 62
     7
370
    25
100
AcDbLine
 10
4.8149101901
 20
6.7410097349
 30
0.0
 11
4.8149101901
 21
6.4968005678
 31
0.0
  0
LINE
  5
125
330
1F
100
AcDbEntity
  8
0
  6
Continuous
 62
     7
370
    25
100
AcDbLine
 10
5.3338727244
 20
7.9013864954
 30
0.0
 11
5.3268340716
 21
7.9013864954
 31
0.0
  0
LINE
  5
126
330
1F
100
AcDbEntity
  8
0
  6
Continuous
 62
     7
370
    25
100
AcDbLine
 10
5.1429863085
 20
7.9013864954
 30
0.0
 11
5.1359476558
 21
7.9013864954
 31
0.0
  0
LINE
  5
127
330
1F
100
AcDbEntity
  8
0
  6
Continuous
 62
     7
370
    25
100
AcDbLine
 10
5.0949101901
 20
7.8763782744
 30
0.0
 11
5.0949101901
 21
7.4413864954
 31
0.0
  0
LINE
  5
128
330
1F
100
AcDbEntity
  8
0
  6
Continuous
 62
     7
370
    25
100
AcDbLine
 10
5.3749101901
 20
7.4413864954
 30
0.0
 11
5.3749101901
 21
7.8763782744
 31
0.0
  0
ARC
  5
129
330
1F
100
AcDbEntity
  8
0
  6
Continuous
 62
     7
370
    25
100
AcDbCircle
 10
4.9895678087
 20
6.7685097349
 30
0.0
 40
0.0274999999999999
100
AcDbArc
 50
90.0
 51
270.0
  0
ARC
  5
12A
330
1F
100
AcDbEntity
  8
0
  6
Continuous
 62
     7
370
    25
100
AcDbCircle
 10
5.4802525715
 20
6.7685097349
 30
0.0
 40
0.0274999999999999
100
AcDbArc
 50
270.0
 51
90.0
  0
LINE
  5
12B
330
1F
100
AcDbEntity
  8
0
  6
Continuous
 62
     7
370
    25
100
AcDbLine
 10
5.4802525715
 20
6.7960097349
 30
0.0
 11
4.9895678087
 21
6.7960097349
 31
0.0
  0
LINE
  5
12C
330
1F
100
AcDbEntity
  8
0
  6
Continuous
 62
     7
370
    25
100
AcDbLine
 10
5.7349101901
 20
4.1810097349
 30
0.0
 11
5.7949101901
 21
4.1810097349
 31
0.0
  0
LINE
  5
12D
330
1F
100
AcDbEntity
  8
0
  6
Continuous
 62
     7
370
    25
100
AcDbLine
 10
5.7949101901
 20
3.9310097349
 30
0.0
 11
5.7949101901
 21
4.1810097349
 31
0.0
  0
LINE
  5
12E
330
1F
100
AcDbEntity
  8
0
  6
Continuous
 62
     7
370
    25
100
AcDbLine
 10
5.7349101901
 20
3.9310097349
 30
0.0
 11
5.7949101901
 21
3.9310097349
 31
0.0
  0
LINE
  5
12F
330
1F
100
AcDbEntity
  8
0
  6
Continuous
 62
     7
370
    25
100
AcDbLine
 10
5.7349101901
 20
3.9310097349
 30
0.0
 11
5.7349101901
 21
4.1810097349
 31
0.0
  0
LINE
  5
130
330
1F
100
AcDbEntity
  8
0
  6
Continuous
 62
     7
370
    25
100
AcDbLine
 10
4.7349101901
 20
3.9310097349
 30
0.0
 11
4.7349101901
 21
4.1810097349
 31
0.0
  0
LINE
  5
131
330
1F
100
AcDbEntity
  8
0
  6
Continuous
 62
     7
370
    25
100
AcDbLine
 10
4.7349101901
 20
4.1810097349
 30
0.0
 11
5.7349101901
 21
4.1810097349
 31
0.0
  0
LINE
  5
132
330
1F
100
AcDbEntity
  8
0
  6
Continuous
 62
     7
370
    25
100
AcDbLine
 10
4.7349101901
 20
3.9310097349
 30
0.0
 11
5.7349101901
 21
3.9310097349
 31
0.0
  0
LINE
  5
133
330
1F
100
AcDbEntity
  8
0
  6
Continuous
 62
     7
370
    25
100
AcDbLine
 10
4.6749101901
 20
4.1810097349
 30
0.0
 11
4.6749101901
 21
3.9310097349
 31
0.0
  0
LINE
  5
134
330
1F
100
AcDbEntity
  8
0
  6
Continuous
 62
     7
370
    25
100
AcDbLine
 10
4.6749101901
 20
4.1810097349
 30
0.0
 11
4.7349101901
 21
4.1810097349
 31
0.0
  0
LINE
  5
135
330
1F
100
AcDbEntity
  8
0
  6
Continuous
 62
     7
370
    25
100
AcDbLine
 10
4.6749101901
 20
3.9310097349
 30
0.0
 11
4.7349101901
 21
3.9310097349
 31
0.0
  0
LINE
  5
136
330
1F
100
AcDbEntity
  8
0
  6
Continuous
 62
     7
370
    25
100
AcDbLine
 10
5.5474101901
 20
4.3060097349
 30
0.0
 11
4.9224101901
 21
4.3060097349
 31
0.0
  0
LINE
  5
137
330
1F
100
AcDbEntity
  8
0
  6
Continuous
 62
     7
370
    25
100
AcDbLine
 10
5.4224101901
 20
4.4310097349
 30
0.0
 11
5.0474101901
 21
4.4310097349
 31
0.0
  0
LINE
  5
138
330
1F
100
AcDbEntity
  8
0
  6
Continuous
 62
     7
370
    25
100
AcDbLine
 10
5.4224101901
 20
4.6310097349
 30
0.0
 11
5.0474101901
 21
4.6310097349
 31
0.0
  0
LINE
  5
139
330
1F
100
AcDbEntity
  8
0
  6
Continuous
 62
     7
370
    25
100
AcDbLine
 10
4.8249101901
 20
4.8060097349
 30
0.0
 11
5.6449101901
 21
4.8060097349
 31
0.0
  0
LINE
  5
13A
330
1F
100
AcDbEntity
  8
0
  6
Continuous
 62
     7
370
    25
100
AcDbLine
 10
5.1786925122
 20
7.2913864954
 30
0.0
 11
5.1786925122
 21
7.1753864954
 31
0.0
  0
LINE
  5
13B
330
1F
100
AcDbEntity
  8
0
  6
Continuous
 62
     7
370
    25
100
AcDbLine
 10
5.2284243281
 20
7.1753864954
 30
0.0
 11
5.2284243281
 21
7.2913864954
 31
0.0
  0
LINE
  5
13C
330
1F
100
AcDbEntity
  8
0
  6
Continuous
 62
     7
370
    25
100
AcDbLine
 10
5.2284243281
 20
7.2913864954
 30
0.0
 11
5.1786925122
 21
7.2913864954
 31
0.0
  0
LINE
  5
13D
330
1F
100
AcDbEntity
  8
0
  6
Continuous
 62
     7
370
    25
100
AcDbLine
 10
5.1786925122
 20
7.1753864954
 30
0.0
 11
5.2284243281
 21
7.1753864954
 31
0.0
  0
LINE
  5
13E
330
1F
100
AcDbEntity
  8
0
  6
Continuous
 62
     7
370
    25
100
AcDbLine
 10
5.1786925122
 20
6.9153864954
 30
0.0
 11
5.1786925122
 21
6.7993864954
 31
0.0
  0
LINE
  5
13F
330
1F
100
AcDbEntity
  8
0
  6
Continuous
 62
     7
370
    25
100
AcDbLine
 10
5.2284243281
 20
6.7993864954
 30
0.0
 11
5.2284243281
 21
6.9153864954
 31
0.0
  0
LINE
  5
140
330
1F
100
AcDbEntity
  8
0
  6
Continuous
 62
     7
370
    25
100
AcDbLine
 10
5.1786925122
 20
6.7993864954
 30
0.0
 11
5.2284243281
 21
6.7993864954
 31
0.0
  0
LINE
  5
141
330
1F
100
AcDbEntity
  8
0
  6
Continuous
 62
     7
370
    25
100
AcDbLine
 10
5.1786925122
 20
6.9153864954
 30
0.0
 11
5.2284243281
 21
6.9153864954
 31
0.0
  0
LINE
  5
142
330
1F
100
AcDbEntity
  8
0
  6
Continuous
 62
     7
370
    25
100
AcDbLine
 10
5.4656539724
 20
6.9153864954
 30
0.0
 11
5.4656539724
 21
6.7993864954
 31
0.0
  0
LINE
  5
143
330
1F
100
AcDbEntity
  8
0
  6
Continuous
 62
     7
370
    25
100
AcDbLine
 10
5.2284243281
 20
6.7993864954
 30
0.0
 11
5.4656539724
 21
6.7993864954
 31
0.0
  0
LINE
  5
144
330
1F
100
AcDbEntity
  8
0
  6
Continuous
 62
     7
370
    25
100
AcDbLine
 10
5.2284243281
 20
6.9153864954
 30
0.0
 11
5.4656539724
 21
6.9153864954
 31
0.0
  0
LINE
  5
145
330
1F
100
AcDbEntity
  8
0
  6
Continuous
 62
     7
370
    25
100
AcDbLine
 10
5.4656539724
 20
7.2913864954
 30
0.0
 11
5.4656539724
 21
7.1753864954
 31
0.0
  0
LINE
  5
146
330
1F
100
AcDbEntity
  8
0
  6
Continuous
 62
     7
370
    25
100
AcDbLine
 10
5.2284243281
 20
7.2913864954
 30
0.0
 11
5.4656539724
 21
7.2913864954
 31
0.0
  0
LINE
  5
147
330
1F
100
AcDbEntity
  8
0
  6
Continuous
 62
     7
370
    25
100
AcDbLine
 10
5.4656539724
 20
7.1753864954
 30
0.0
 11
5.2284243281
 21
7.1753864954
 31
0.0
  0
LINE
  5
148
330
1F
100
AcDbEntity
  8
0
  6
Continuous
 62
     7
370
    25
100
AcDbLine
 10
4.9683358136
 20
7.1753864954
 30
0.0
 11
4.9683358136
 21
7.2913864954
 31
0.0
  0
LINE
  5
149
330
1F
100
AcDbEntity
  8
0
  6
Continuous
 62
     7
370
    25
100
AcDbLine
 10
4.9683358136
 20
7.2913864954
 30
0.0
 11
5.1786925122
 21
7.2913864954
 31
0.0
  0
LINE
  5
14A
330
1F
100
AcDbEntity
  8
0
  6
Continuous
 62
     7
370
    25
100
AcDbLine
 10
5.1786925122
 20
7.1753864954
 30
0.0
 11
4.9683358136
 21
7.1753864954
 31
0.0
  0
LINE
  5
14B
330
1F
100
AcDbEntity
  8
0
  6
Continuous
 62
     7
370
    25
100
AcDbLine
 10
4.9683358136
 20
6.7993864954
 30
0.0
 11
4.9683358136
 21
6.9153864954
 31
0.0
  0
LINE
  5
14C
330
1F
100
AcDbEntity
  8
0
  6
Continuous
 62
     7
370
    25
100
AcDbLine
 10
4.9683358136
 20
6.7993864954
 30
0.0
 11
5.1786925122
 21
6.7993864954
 31
0.0
  0
LINE
  5
14D
330
1F
100
AcDbEntity
  8
0
  6
Continuous
 62
     7
370
    25
100
AcDbLine
 10
4.9683358136
 20
6.9153864954
 30
0.0
 11
5.1786925122
 21
6.9153864954
 31
0.0
  0
SPLINE
  5
14E
330
1F
100
AcDbEntity
  8
0
  6
Continuous
 62
     7
370
    25
100
AcDbSpline
210
0.0
220
0.0
230
1.0
 70
    24
 71
     3
 72
    33
 73
    29
 74
     0
 42
0.000000001
 43
0.00000001
 40
0.0
 40
0.0
 40
0.0
 40
0.0
 40
0.0116726817298669
 40
0.0233243121901199
 40
0.0349705332977871
 40
0.0466270087464754
 40
0.0583093609828142
 40
0.0891904642659924
 40
0.1201014748583794
 40
0.1522702433395417
 40
0.1844690409866747
 40
0.2501182952413905
 40
0.3157675494961074
 40
0.3800525831040617
 40
0.4417717091464024
 40
0.5000028146847386
 40
0.5582339202230744
 40
0.6199530462654151
 40
0.6842380798733698
 40
0.7498873341280866
 40
0.8155365883828024
 40
0.8477053592811197
 40
0.8799041593458097
 40
0.9107852598639669
 40
0.9416962698277475
 40
0.961136236032325
 40
0.9805466045451039
 40
1.0
 40
1.0
 40
1.0
 40
1.0
 10
5.014910190090496
 20
7.441386495377797
 30
0.0
 10
5.014938395494973
 20
7.441386495377797
 30
0.0
 10
5.014994755436473
 20
7.441386495377797
 30
0.0
 10
5.015452192382141
 20
7.441386495377797
 30
0.0
 10
5.016182817339126
 20
7.441386495377797
 30
0.0
 10
5.017213424356329
 20
7.441386495377797
 30
0.0
 10
5.019258931197234
 20
7.441386495377797
 30
0.0
 10
5.023139261702941
 20
7.441386495377797
 30
0.0
 10
5.030130865850046
 20
7.441386495377797
 30
0.0
 10
5.039230133985572
 20
7.441386495377797
 30
0.0
 10
5.054341832658017
 20
7.441386495377797
 30
0.0
 10
5.078240313419211
 20
7.441386495377797
 30
0.0
 10
5.113421181423052
 20
7.441386495377797
 30
0.0
 10
5.152849620526412
 20
7.441386495377797
 30
0.0
 10
5.193851947891923
 20
7.441386495377797
 30
0.0
 10
5.234910190054365
 20
7.441386495377797
 30
0.0
 10
5.275968432437921
 20
7.441386495377797
 30
0.0
 10
5.316970759090168
 20
7.441386495377797
 30
0.0
 10
5.356399200966719
 20
7.441386495377797
 30
0.0
 10
5.391580058339232
 20
7.441386495377797
 30
0.0
 10
5.41547418313482
 20
7.441386495377797
 30
0.0
 10
5.430587010608631
 20
7.441386495377797
 30
0.0
 10
5.439684693031768
 20
7.441386495377797
 30
0.0
 10
5.446678211775462
 20
7.441386495377797
 30
0.0
 10
5.450973098926713
 20
7.441386495377797
 30
0.0
 10
5.45340343679181
 20
7.441386495377797
 30
0.0
 10
5.454675553718872
 20
7.441386495377797
 30
0.0
 10
5.454831920260991
 20
7.441386495377797
 30
0.0
 10
5.454910190090497
 20
7.441386495377797
 30
0.0
  0
LINE
  5
14F
330
1F
100
AcDbEntity
  8
0
  6
Continuous
 62
     7
370
    25
100
AcDbLine
 10
4.9649101901
 20
7.0553864954
 30
0.0
 11
5.5049101901
 21
7.0553864954
 31
0.0
  0
LINE
  5
150
330
1F
100
AcDbEntity
  8
0
  6
Continuous
 62
     7
370
    25
100
AcDbLine
 10
5.4949987046
 20
6.7993864954
 30
0.0
 11
5.4949987046
 21
6.9153864954
 31
0.0
  0
LINE
  5
151
330
1F
100
AcDbEntity
  8
0
  6
Continuous
 62
     7
370
    25
100
AcDbLine
 10
5.4656539724
 20
6.7993864954
 30
0.0
 11
5.4949987046
 21
6.7993864954
 31
0.0
  0
LINE
  5
152
330
1F
100
AcDbEntity
  8
0
  6
Continuous
 62
     7
370
    25
100
AcDbLine
 10
5.4656539724
 20
6.9153864954
 30
0.0
 11
5.4949987046
 21
6.9153864954
 31
0.0
  0
LINE
  5
153
330
1F
100
AcDbEntity
  8
0
  6
Continuous
 62
     7
370
    25
100
AcDbLine
 10
5.4949987046
 20
7.1753864954
 30
0.0
 11
5.4949987046
 21
7.2913864954
 31
0.0
  0
LINE
  5
154
330
1F
100
AcDbEntity
  8
0
  6
Continuous
 62
     7
370
    25
100
AcDbLine
 10
5.4949987046
 20
7.2913864954
 30
0.0
 11
5.4656539724
 21
7.2913864954
 31
0.0
  0
LINE
  5
155
330
1F
100
AcDbEntity
  8
0
  6
Continuous
 62
     7
370
    25
100
AcDbLine
 10
5.4656539724
 20
7.1753864954
 30
0.0
 11
5.4949987046
 21
7.1753864954
 31
0.0
  0
LINE
  5
156
330
1F
100
AcDbEntity
  8
0
  6
Continuous
 62
     7
370
    25
100
AcDbLine
 10
5.5218716503
 20
6.9153864954
 30
0.0
 11
5.5218716503
 21
6.7993864954
 31
0.0
  0
LINE
  5
157
330
1F
100
AcDbEntity
  8
0
  6
Continuous
 62
     7
370
    25
100
AcDbLine
 10
5.4949987046
 20
6.7993864954
 30
0.0
 11
5.5218716503
 21
6.7993864954
 31
0.0
  0
LINE
  5
158
330
1F
100
AcDbEntity
  8
0
  6
Continuous
 62
     7
370
    25
100
AcDbLine
 10
5.4949987046
 20
6.9153864954
 30
0.0
 11
5.5218716503
 21
6.9153864954
 31
0.0
  0
LINE
  5
159
330
1F
100
AcDbEntity
  8
0
  6
Continuous
 62
     7
370
    25
100
AcDbLine
 10
5.5218716503
 20
7.2913864954
 30
0.0
 11
5.5218716503
 21
7.1753864954
 31
0.0
  0
LINE
  5
15A
330
1F
100
AcDbEntity
  8
0
  6
Continuous
 62
     7
370
    25
100
AcDbLine
 10
5.4949987046
 20
7.2913864954
 30
0.0
 11
5.5218716503
 21
7.2913864954
 31
0.0
  0
LINE
  5
15B
330
1F
100
AcDbEntity
  8
0
  6
Continuous
 62
     7
370
    25
100
AcDbLine
 10
5.5218716503
 20
7.1753864954
 30
0.0
 11
5.4949987046
 21
7.1753864954
 31
0.0
  0
LINE
  5
15C
330
1F
100
AcDbEntity
  8
0
  6
Continuous
 62
     7
370
    25
100
AcDbLine
 10
4.9476805458
 20
6.7993864954
 30
0.0
 11
4.9683358136
 21
6.7993864954
 31
0.0
  0
LINE
  5
15D
330
1F
100
AcDbEntity
  8
0
  6
Continuous
 62
     7
370
    25
100
AcDbLine
 10
4.9476805458
 20
6.9153864954
 30
0.0
 11
4.9683358136
 21
6.9153864954
 31
0.0
  0
LINE
  5
15E
330
1F
100
AcDbEntity
  8
0
  6
Continuous
 62
     7
370
    25
100
AcDbLine
 10
4.9683358136
 20
7.2913864954
 30
0.0
 11
4.9476805458
 21
7.2913864954
 31
0.0
  0
LINE
  5
15F
330
1F
100
AcDbEntity
  8
0
  6
Continuous
 62
     7
370
    25
100
AcDbLine
 10
4.9476805458
 20
7.1753864954
 30
0.0
 11
4.9683358136
 21
7.1753864954
 31
0.0
  0
LINE
  5
160
330
1F
100
AcDbEntity
  8
0
  6
Continuous
 62
     7
370
    25
100
AcDbLine
 10
5.5221398344
 20
7.2913864954
 30
0.0
 11
5.5218716503
 21
7.2913864954
 31
0.0
  0
LINE
  5
161
330
1F
100
AcDbEntity
  8
0
  6
Continuous
 62
     7
370
    25
100
AcDbLine
 10
5.5218716503
 20
7.1753864954
 30
0.0
 11
5.5221398344
 21
7.1753864954
 31
0.0
  0
LINE
  5
162
330
1F
100
AcDbEntity
  8
0
  6
Continuous
 62
     7
370
    25
100
AcDbLine
 10
5.5218716503
 20
6.7993864954
 30
0.0
 11
5.5221398344
 21
6.7993864954
 31
0.0
  0
LINE
  5
163
330
1F
100
AcDbEntity
  8
0
  6
Continuous
 62
     7
370
    25
100
AcDbLine
 10
5.5218716503
 20
6.9153864954
 30
0.0
 11
5.5221398344
 21
6.9153864954
 31
0.0
  0
SPLINE
  5
164
330
1F
100
AcDbEntity
  8
0
  6
Continuous
 62
     7
370
    25
100
AcDbSpline
210
0.0
220
0.0
230
1.0
 70
     8
 71
     3
 72
    18
 73
    14
 74
     0
 42
0.000000001
 43
0.00000001
 40
0.0
 40
0.0
 40
0.0
 40
0.0
 40
0.0356533320369337
 40
0.1420091716797818
 40
0.2487011610332396
 40
0.3562346869024402
 40
0.463816844360097
 40
0.5002286029966162
 40
0.6069365688022994
 40
0.7136210420922835
 40
0.820914221140573
 40
0.9286122904145363
 40
1.0
 40
1.0
 40
1.0
 40
1.0
 10
5.654815677048133
 20
6.385218901970848
 30
0.0
 10
5.654841904977236
 20
6.385021862807755
 30
0.0
 10
5.654946372253481
 20
6.384237045043446
 30
0.0
 10
5.654257495323924
 20
6.389362795381571
 30
0.0
 10
5.653031502388943
 20
6.400081174656266
 30
0.0
 10
5.651728202480744
 20
6.415852571012302
 30
0.0
 10
5.651158243919626
 20
6.43037439370862
 30
0.0
 10
5.651043165462162
 20
6.445148702053679
 30
0.0
 10
5.65138985336184
 20
6.459970246648203
 30
0.0
 10
5.652546115949835
 20
6.476856745617686
 30
0.0
 10
5.653870309939302
 20
6.489546948969522
 30
0.0
 10
5.654814464705606
 20
6.496809349691501
 30
0.0
 10
5.654815331517129
 20
6.496803070747528
 30
0.0
 10
5.654815677048134
 20
6.496800567816074
 30
0.0
  0
SPLINE
  5
165
330
1F
100
AcDbEntity
  8
0
  6
Continuous
 62
     7
370
    25
100
AcDbSpline
210
0.0
220
0.0
230
1.0
 70
     8
 71
     3
 72
    12
 73
     8
 74
     0
 42
0.000000001
 43
0.00000001
 40
0.0
 40
0.0
 40
0.0
 40
0.0
 40
0.2135135512866446
 40
0.4269800960502256
 40
0.641664609192871
 40
0.8571592731926769
 40
0.9999999999999999
 40
0.9999999999999999
 40
0.9999999999999999
 40
0.9999999999999999
 10
4.818727838230147
 20
6.441009734893462
 30
0.0
 10
4.818641846711344
 20
6.434691948105028
 30
0.0
 10
4.818469882605382
 20
6.422057765433745
 30
0.0
 10
4.817263647470709
 20
6.405160419768572
 30
0.0
 10
4.815952959100037
 20
6.392473147853032
 30
0.0
 10
4.815005468380546
 20
6.385210023052103
 30
0.0
 10
4.815004921236898
 20
6.385216371380978
 30
0.0
 10
4.81500470313286
 20
6.385218901970848
 30
0.0
  0
SPLINE
  5
166
330
1F
100
AcDbEntity
  8
0
  6
Continuous
 62
     7
370
    25
100
AcDbSpline
210
0.0
220
0.0
230
1.0
 70
     8
 71
     3
 72
    13
 73
     9
 74
     0
 42
0.000000001
 43
0.00000001
 40
0.0
 40
0.0
 40
0.0
 40
0.0
 40
0.0712740771386606
 40
0.2838885478141113
 40
0.4971750106719289
 40
0.7121437774018203
 40
0.927209762859632
 40
1.0
 40
1.0
 40
1.0
 40
1.0
 10
4.81500470313286
 20
6.496800567816074
 30
0.0
 10
4.814978480946125
 20
6.496997608225566
 30
0.0
 10
4.814874036542049
 20
6.49778243095435
 30
0.0
 10
4.81556247489069
 20
6.492656585420882
 30
0.0
 10
4.816790374280397
 20
6.481938619948076
 30
0.0
 10
4.818086555133517
 20
6.466165678379135
 30
0.0
 10
4.818677253347661
 20
6.451648357288601
 30
0.0
 10
4.818717628548359
 20
6.443156956434332
 30
0.0
 10
4.818727838230147
 20
6.441009734893462
 30
0.0
  0
SPLINE
  5
167
330
1F
100
AcDbEntity
  8
0
  6
Continuous
 62
     7
370
    25
100
AcDbSpline
210
0.0
220
0.0
230
1.0
 70
    11
 71
     3
 72
    54
 73
    50
 74
     0
 42
0.000000001
 43
0.00000001
 40
0.0
 40
0.0
 40
0.0
 40
0.0
 40
0.031249999999998
 40
0.031249999999998
 40
0.062499999999996
 40
0.062499999999996
 40
0.093749999999994
 40
0.093749999999994
 40
0.124999999999992
 40
0.124999999999992
 40
0.1874999999999903
 40
0.1874999999999903
 40
0.2499999999999887
 40
0.2499999999999887
 40
0.2812499999999865
 40
0.2812499999999865
 40
0.3124999999999842
 40
0.3124999999999842
 40
0.3749999999999836
 40
0.3749999999999836
 40
0.4062499999999848
 40
0.4062499999999848
 40
0.4374999999999859
 40
0.4374999999999859
 40
0.4999999999999881
 40
0.4999999999999881
 40
0.5312499999999893
 40
0.5312499999999893
 40
0.5624999999999906
 40
0.5624999999999906
 40
0.5937499999999918
 40
0.5937499999999918
 40
0.624999999999993
 40
0.624999999999993
 40
0.6874999999999946
 40
0.6874999999999946
 40
0.749999999999996
 40
0.749999999999996
 40
0.7812499999999976
 40
0.7812499999999976
 40
0.8124999999999991
 40
0.8124999999999991
 40
0.8749999999999992
 40
0.8749999999999992
 40
0.9062499999999994
 40
0.9062499999999994
 40
0.9374999999999997
 40
0.9374999999999997
 40
1.0
 40
1.0
 40
1.0
 40
1.0
 10
4.897037833556068
 20
6.306009734893461
 30
0.0
 10
4.897037833556068
 20
6.31014445452073
 30
0.0
 10
4.897281459330174
 20
6.314208923651829
 30
0.0
 10
4.898240293056335
 20
6.322203469116109
 30
0.0
 10
4.89896746872861
 20
6.326175395719479
 30
0.0
 10
4.900878633847445
 20
6.333740585603127
 30
0.0
 10
4.902053737732535
 20
6.337327772342178
 30
0.0
 10
4.904860083923305
 20
6.344116713735393
 30
0.0
 10
4.906504758101
 20
6.347326703487624
 30
0.0
 10
4.911964151986171
 20
6.355960735150648
 30
0.0
 10
4.916456567662003
 20
6.360615766059189
 30
0.0
 10
4.926479230235087
 20
6.366855051865307
 30
0.0
 10
4.93212039008059
 20
6.368503597919482
 30
0.0
 10
4.940778128387983
 20
6.368512777040952
 30
0.0
 10
4.943753596638808
 20
6.368106607886222
 30
0.0
 10
4.949588970312146
 20
6.366511619123501
 30
0.0
 10
4.95246630932852
 20
6.365331190340203
 30
0.0
 10
4.960956933259137
 20
6.360632692659082
 30
0.0
 10
4.966246274023332
 20
6.356051603842044
 30
0.0
 10
4.973081284971789
 20
6.34732051241021
 30
0.0
 10
4.975121987787317
 20
6.344171535570096
 30
0.0
 10
4.978722502391204
 20
6.337411829008216
 30
0.0
 10
4.980295212814961
 20
6.333756928216794
 30
0.0
 10
4.984086875791345
 20
6.322416061128023
 30
0.0
 10
4.985426190811435
 20
6.314279075413765
 30
0.0
 10
4.985426176400787
 20
6.301874930751377
 30
0.0
 10
4.985095276865342
 20
6.297810466183686
 30
0.0
 10
4.983804565726419
 20
6.289815929618916
 30
0.0
 10
4.982828840183391
 20
6.285844007295613
 30
0.0
 10
4.98030178402446
 20
6.278278828475506
 30
0.0
 10
4.978762158857705
 20
6.274691646844428
 30
0.0
 10
4.975156152261119
 20
6.267902715057946
 30
0.0
 10
4.973073864108964
 20
6.2646927305187
 30
0.0
 10
4.966322450336031
 20
6.256058713007753
 30
0.0
 10
4.960968619179354
 20
6.251403689870983
 30
0.0
 10
4.9497312423277
 20
6.245164414942758
 30
0.0
 10
4.943731580227412
 20
6.243515871861939
 30
0.0
 10
4.935071917977571
 20
6.24350669274872
 30
0.0
 10
4.932182710459807
 20
6.243912861161649
 30
0.0
 10
4.926676694945108
 20
6.245507847098652
 30
0.0
 10
4.924040710547019
 20
6.246688273804629
 30
0.0
 10
4.916465300639551
 20
6.251386763055802
 30
0.0
 10
4.912026262313661
 20
6.255967843236055
 30
0.0
 10
4.90649856230006
 20
6.264698921612379
 30
0.0
 10
4.904887036708448
 20
6.267847893754334
 30
0.0
 10
4.902084317821031
 20
6.274607590041598
 30
0.0
 10
4.900883674708339
 20
6.278262485013722
 30
0.0
 10
4.898015990799745
 20
6.289603338163285
 30
0.0
 10
4.897037833556068
 20
6.297740295638924
 30
0.0
 10
4.897037833556068
 20
6.306009734893461
 30
0.0
  0
LINE
  5
168
330
1F
100
AcDbEntity
  8
0
  6
Continuous
 62
     7
370
    25
100
AcDbLine
 10
5.2349101901
 20
6.7410097349
 30
0.0
 11
4.8149101901
 21
6.7410097349
 31
0.0
  0
LINE
  5
169
330
1F
100
AcDbEntity
  8
0
  6
Continuous
 62
     7
370
    25
100
AcDbLine
 10
5.6549101901
 20
6.7410097349
 30
0.0
 11
5.2349101901
 21
6.7410097349
 31
0.0
  0
LINE
  5
16A
330
1F
100
AcDbEntity
  8
0
  6
Continuous
 62
     7
370
    25
100
AcDbLine
 10
5.2349101901
 20
5.0160097349
 30
0.0
 11
5.6549101901
 21
5.0160097349
 31
0.0
  0
LINE
  5
16B
330
1F
100
AcDbEntity
  8
0
  6
Continuous
 62
     7
370
    25
100
AcDbLine
 10
4.8149101901
 20
5.0160097349
 30
0.0
 11
5.2349101901
 21
5.0160097349
 31
0.0
  0
SPLINE
  5
16C
330
1F
100
AcDbEntity
  8
0
  6
Continuous
 62
     7
370
    25
100
AcDbSpline
210
0.0
220
0.0
230
1.0
 70
     8
 71
     3
 72
    15
 73
    11
 74
     0
 42
0.000000001
 43
0.00000001
 40
0.0
 40
0.0
 40
0.0
 40
0.0
 40
0.0957014215308381
 40
0.2427169122229252
 40
0.3913560563869803
 40
0.5401187902253777
 40
0.5919431267909023
 40
0.7389964004880786
 40
0.886004226218277
 40
0.9999999999999999
 40
0.9999999999999999
 40
0.9999999999999999
 40
0.9999999999999999
 10
4.947892422601206
 20
6.36617346373323
 30
0.0
 10
4.944863823236361
 20
6.365178124968437
 30
0.0
 10
4.937182722219916
 20
6.362653757537506
 30
0.0
 10
4.927542727793998
 20
6.351189690831008
 30
0.0
 10
4.919854932507984
 20
6.334129739475299
 30
0.0
 10
4.917049643797134
 20
6.317926646411778
 30
0.0
 10
4.916471874402192
 20
6.301517101163904
 30
0.0
 10
4.918143195784819
 20
6.28512829762764
 30
0.0
 10
4.923689815294038
 20
6.267707176760282
 30
0.0
 10
4.929560022143031
 20
6.259565631334469
 30
0.0
 10
4.932123890125162
 20
6.256009734893462
 30
0.0
  0
SPLINE
  5
16D
330
1F
100
AcDbEntity
  8
0
  6
Continuous
 62
     7
370
    25
100
AcDbSpline
210
0.0
220
0.0
230
1.0
 70
     8
 71
     3
 72
     9
 73
     5
 74
     0
 42
0.000000001
 43
0.00000001
 40
0.0
 40
0.0
 40
0.0
 40
0.0
 40
0.820863753195523
 40
1.0
 40
1.0
 40
1.0
 40
1.0
 10
4.932123890125162
 20
6.256009734893462
 30
0.0
 10
4.937445411581701
 20
6.252649411924081
 30
0.0
 10
4.943928243154933
 20
6.248555769152914
 30
0.0
 10
4.949995047394288
 20
6.247087898045147
 30
0.0
 10
4.951081831935823
 20
6.246824949124109
 30
0.0
  0
SPLINE
  5
16E
330
1F
100
AcDbEntity
  8
0
  6
Continuous
 62
     7
370
    25
100
AcDbSpline
210
0.0
220
0.0
230
1.0
 70
     8
 71
     3
 72
    13
 73
     9
 74
     0
 42
0.000000001
 43
0.00000001
 40
0.0
 40
0.0
 40
0.0
 40
0.0
 40
0.1951472999067931
 40
0.3902552915794411
 40
0.5863819305080668
 40
0.7831848727524312
 40
0.9788876824714301
 40
1.0
 40
1.0
 40
1.0
 40
1.0
 10
4.927128484832889
 20
6.306009734893461
 30
0.0
 10
4.927464489467694
 20
6.311608199218414
 30
0.0
 10
4.928136431056382
 20
6.322804000177871
 30
0.0
 10
4.9334537365412
 20
6.337685847258435
 30
0.0
 10
4.941581994986795
 20
6.349203882920877
 30
0.0
 10
4.952151705852693
 20
6.355329804312346
 30
0.0
 10
4.960681473256086
 20
6.357167718454126
 30
0.0
 10
4.965028824100925
 20
6.355372758923647
 30
0.0
 10
4.96545214627687
 20
6.355197975198731
 30
0.0
  0
LINE
  5
16F
330
1F
100
AcDbEntity
  8
0
  6
Continuous
 62
     7
370
    25
100
AcDbLine
 10
4.9271284848
 20
6.2785097349
 30
0.0
 11
4.9271284848
 21
6.3060097349
 31
0.0
  0
LINE
  5
170
330
1F
100
AcDbEntity
  8
0
  6
Continuous
 62
     7
370
    25
100
AcDbLine
 10
4.9205213668
 20
6.2785097349
 30
0.0
 11
4.9271284848
 21
6.2785097349
 31
0.0
  0
ARC
  5
171
330
1F
100
AcDbEntity
  8
0
  6
Continuous
 62
     7
370
    25
100
AcDbCircle
 10
5.0376189439
 20
6.3067255542
 30
0.0
 40
0.0643422447435135
100
AcDbArc
 50
154.5640949134
 51
180.6374392682
  0
LINE
  5
172
330
1F
100
AcDbEntity
  8
0
  6
Continuous
 62
     7
370
    25
100
AcDbLine
 10
4.9271284848
 20
6.3060097349
 30
0.0
 11
4.9732806811
 21
6.3060097349
 31
0.0
  0
LINE
  5
173
330
1F
100
AcDbEntity
  8
0
  6
Continuous
 62
     7
370
    25
100
AcDbLine
 10
4.9421094685
 20
6.2610097349
 30
0.0
 11
4.939611588
 21
6.2610097349
 31
0.0
  0
SPLINE
  5
174
330
1F
100
AcDbEntity
  8
0
  6
Continuous
 62
     7
370
    25
100
AcDbSpline
210
0.0
220
0.0
230
1.0
 70
     8
 71
     3
 72
     8
 73
     4
 74
     0
 42
0.000000001
 43
0.00000001
 40
0.0
 40
0.0
 40
0.0
 40
0.0
 40
0.0006313858250413
 40
0.0006313858250413
 40
0.0006313858250413
 40
0.0006313858250413
 10
4.939611587990944
 20
6.261009734893461
 30
0.0
 10
4.935449694964186
 20
6.266841843000199
 30
0.0
 10
4.931288699418116
 20
6.272675232231642
 30
0.0
 10
4.927128484832889
 20
6.27850973489346
 30
0.0
  0
LINE
  5
175
330
1F
100
AcDbEntity
  8
0
  6
Continuous
 62
     7
370
    25
100
AcDbLine
 10
4.9421094685
 20
6.2507179944
 30
0.0
 11
4.9421094685
 21
6.2610097349
 31
0.0
  0
LINE
  5
176
330
1F
100
AcDbEntity
  8
0
  6
Continuous
 62
     7
370
    25
100
AcDbLine
 10
4.9732806811
 20
6.2656823171
 30
0.0
 11
4.9732806811
 21
6.3060097349
 31
0.0
  0
LINE
  5
177
330
1F
100
AcDbEntity
  8
0
  6
Continuous
 62
     7
370
    25
100
AcDbLine
 10
4.9279629997
 20
6.2610097349
 30
0.0
 11
4.939611588
 21
6.2610097349
 31
0.0
  0
SPLINE
  5
178
330
1F
100
AcDbEntity
  8
0
  6
Continuous
 62
     7
370
    25
100
AcDbSpline
210
0.0
220
0.0
230
1.0
 70
     8
 71
     3
 72
    33
 73
    29
 74
     0
 42
0.000000001
 43
0.00000001
 40
0.0
 40
0.0
 40
0.0
 40
0.0
 40
0.0314502561686779
 40
0.0632004747215228
 40
0.095638367535243
 40
0.1326922438814933
 40
0.170522392378811
 40
0.2140709825114356
 40
0.2587776742912909
 40
0.3040344769693098
 40
0.35087421012876
 40
0.3999490754443047
 40
0.4317837130200506
 40
0.4644979948440223
 40
0.5053293730288051
 40
0.5473300800724797
 40
0.5999401327822708
 40
0.6410915717762529
 40
0.6832340855342017
 40
0.7244082664508247
 40
0.7668969511436547
 40
0.79866207349518
 40
0.8313921553867536
 40
0.8631423739396697
 40
0.8955802667534152
 40
0.9326341431010416
 40
0.9704642915998127
 40
1.0
 40
1.0
 40
1.0
 40
1.0
 10
5.333871137165431
 20
7.901345358594829
 30
0.0
 10
5.337927259610569
 20
7.901153183905588
 30
0.0
 10
5.346078190486505
 20
7.900767001626998
 30
0.0
 10
5.355977954673527
 20
7.897795057719028
 30
0.0
 10
5.364403197894943
 20
7.893535927261712
 30
0.0
 10
5.370739410467837
 20
7.888000321113251
 30
0.0
 10
5.374693329619408
 20
7.881278782855669
 30
0.0
 10
5.375366406918167
 20
7.873825473859713
 30
0.0
 10
5.372019749233405
 20
7.866088833301264
 30
0.0
 10
5.364350162637098
 20
7.858898848931525
 30
0.0
 10
5.351979938544869
 20
7.853127165364344
 30
0.0
 10
5.336628248581845
 20
7.850811295402163
 30
0.0
 10
5.320487685175928
 20
7.852140201605729
 30
0.0
 10
5.304137356720239
 20
7.855309135230909
 30
0.0
 10
5.284929079488551
 20
7.86045548156388
 30
0.0
 10
5.261330732293397
 20
7.867733792231023
 30
0.0
 10
5.236959731743648
 20
7.875716000593991
 30
0.0
 10
5.212597443835057
 20
7.883691720804505
 30
0.0
 10
5.190705493220356
 20
7.890584654050185
 30
0.0
 10
5.169478715712359
 20
7.89657295904742
 30
0.0
 10
5.151276847794229
 20
7.900427575963029
 30
0.0
 10
5.136020648585913
 20
7.90176650117852
 30
0.0
 10
5.123956484406897
 20
7.900696653702243
 30
0.0
 10
5.113824260753336
 20
7.897824719654176
 30
0.0
 10
5.105407100850435
 20
7.893526784260382
 30
0.0
 10
5.099153525279916
 20
7.888002307044054
 30
0.0
 10
5.095338023958459
 20
7.882076033753273
 30
0.0
 10
5.095338011965277
 20
7.878114957986439
 30
0.0
 10
5.095338006707018
 20
7.876378274387568
 30
0.0
  0
SPLINE
  5
179
330
1F
100
AcDbEntity
  8
0
  6
Continuous
 62
     7
370
    25
100
AcDbSpline
210
0.0
220
0.0
230
1.0
 70
     8
 71
     3
 72
     9
 73
     5
 74
     0
 42
0.000000001
 43
0.00000001
 40
0.1249999999999999
 40
0.1249999999999999
 40
0.1249999999999999
 40
0.1249999999999999
 40
0.2499999999973684
 40
0.5
 40
0.5
 40
0.5
 40
0.5
 10
5.23491019009127
 20
7.87638649537785
 30
0.0
 10
5.269381645673831
 20
7.888886495377668
 30
0.0
 10
5.372796012423645
 20
7.926386495377864
 30
0.0
 10
5.372796012421545
 20
7.851386495378052
 30
0.0
 10
5.326834071644744
 20
7.851386495377797
 30
0.0
  0
SPLINE
  5
17A
330
1F
100
AcDbEntity
  8
0
  6
Continuous
 62
     7
370
    25
100
AcDbSpline
210
0.0
220
0.0
230
1.0
 70
     8
 71
     3
 72
     8
 73
     4
 74
     0
 42
0.000000001
 43
0.00000001
 40
0.6250000000000002
 40
0.6250000000000002
 40
0.6250000000000002
 40
0.6250000000000002
 40
0.7500000000065025
 40
0.7500000000065025
 40
0.7500000000065025
 40
0.7500000000065025
 10
5.234910190092872
 20
7.876386495377164
 30
0.0
 10
5.200438734510916
 20
7.888886495377018
 30
0.0
 10
5.165967278928767
 20
7.901386495377081
 30
0.0
 10
5.142986308539835
 20
7.901386495377798
 30
0.0
  0
SPLINE
  5
17B
330
1F
100
AcDbEntity
  8
0
  6
Continuous
 62
     7
370
    25
100
AcDbSpline
210
0.0
220
0.0
230
1.0
 70
     8
 71
     3
 72
    12
 73
     8
 74
     0
 42
0.000000001
 43
0.00000001
 40
0.0
 40
0.0
 40
0.0
 40
0.0
 40
0.288088881674082
 40
0.485948053008322
 40
0.6893851253381164
 40
0.8925488672847924
 40
1.0
 40
1.0
 40
1.0
 40
1.0
 10
5.326834071648271
 20
7.891386495377798
 30
0.0
 10
5.33352559421894
 20
7.890687544159714
 30
0.0
 10
5.344812848159397
 20
7.88950855390642
 30
0.0
 10
5.355406361142231
 20
7.883415506589817
 30
0.0
 10
5.361666900061534
 20
7.877175570917845
 30
0.0
 10
5.364787643820093
 20
7.871274538921722
 30
0.0
 10
5.364573507967194
 20
7.867642242762834
 30
0.0
 10
5.364499431862583
 20
7.866385721042634
 30
0.0
  0
SPLINE
  5
17C
330
1F
100
AcDbEntity
  8
0
  6
Continuous
 62
     7
370
    25
100
AcDbSpline
210
0.0
220
0.0
230
1.0
 70
     8
 71
     3
 72
    11
 73
     7
 74
     0
 42
0.000000001
 43
0.00000001
 40
0.0
 40
0.0
 40
0.0
 40
0.0
 40
0.1599739742370378
 40
0.4100592358532988
 40
0.6676579169754363
 40
1.0
 40
1.0
 40
1.0
 40
1.0
 10
5.24978325612579
 20
7.871566964107191
 30
0.0
 10
5.25428983666387
 20
7.873152450490073
 30
0.0
 10
5.265841496742142
 20
7.877216507395086
 30
0.0
 10
5.283986881406563
 20
7.883095903987703
 30
0.0
 10
5.306025569956822
 20
7.889513501066856
 30
0.0
 10
5.319335785392632
 20
7.89071156703808
 30
0.0
 10
5.326834071648271
 20
7.891386495377798
 30
0.0
  0
SPLINE
  5
17D
330
1F
100
AcDbEntity
  8
0
  6
Continuous
 62
     7
370
    25
100
AcDbSpline
210
0.0
220
0.0
230
1.0
 70
     8
 71
     3
 72
    11
 73
     7
 74
     0
 42
0.000000001
 43
0.00000001
 40
0.0
 40
0.0
 40
0.0
 40
0.0
 40
0.1325440813552093
 40
0.4340520529095462
 40
0.7227509412353089
 40
1.0
 40
1.0
 40
1.0
 40
1.0
 10
5.249581734507044
 20
7.871632266025504
 30
0.0
 10
5.253256470052817
 20
7.872958883165825
 30
0.0
 10
5.265290402396187
 20
7.8773032559005
 30
0.0
 10
5.284940938601412
 20
7.883716923669607
 30
0.0
 10
5.307916780969214
 20
7.889969580317188
 30
0.0
 10
5.320613934481362
 20
7.890920603819626
 30
0.0
 10
5.326834071648271
 20
7.891386495377798
 30
0.0
  0
SPLINE
  5
17E
330
1F
100
AcDbEntity
  8
0
  6
Continuous
 62
     7
370
    25
100
AcDbSpline
210
0.0
220
0.0
230
1.0
 70
     8
 71
     3
 72
    11
 73
     7
 74
     0
 42
0.000000001
 43
0.00000001
 40
0.0
 40
0.0
 40
0.0
 40
0.0
 40
0.2749721070767224
 40
0.5613000101775931
 40
0.8603317998848138
 40
1.0
 40
1.0
 40
1.0
 40
1.0
 10
5.326834071648271
 20
7.891386495377798
 30
0.0
 10
5.332204976621996
 20
7.890920507757839
 30
0.0
 10
5.34316859416293
 20
7.889969288164671
 30
0.0
 10
5.353385372353029
 20
7.883718171537407
 30
0.0
 10
5.359164527374158
 20
7.87722597717023
 30
0.0
 10
5.359898391684339
 20
7.872796652309084
 30
0.0
 10
5.360132030867629
 20
7.871386495378531
 30
0.0
  0
LINE
  5
17F
330
1F
100
AcDbEntity
  8
0
  6
Continuous
 62
     8
370
    25
100
AcDbLine
 10
5.2349101901
 20
4.8160097349
 30
0.0
 11
4.8149101901
 21
4.8160097349
 31
0.0
  0
LINE
  5
180
330
1F
100
AcDbEntity
  8
0
  6
Continuous
 62
     8
370
    25
100
AcDbLine
 10
5.6549101901
 20
4.8160097349
 30
0.0
 11
5.2349101901
 21
4.8160097349
 31
0.0
  0
LINE
  5
181
330
1F
100
AcDbEntity
  8
0
  6
Continuous
 62
     8
370
    25
100
AcDbLine
 10
5.6549101901
 20
5.0060097349
 30
0.0
 11
4.8149101901
 21
5.0060097349
 31
0.0
  0
LINE
  5
182
330
1F
100
AcDbEntity
  8
0
  6
Continuous
 62
     8
370
    25
100
AcDbLine
 10
5.4224101901
 20
4.7860097349
 30
0.0
 11
5.0474101901
 21
4.7860097349
 31
0.0
  0
LINE
  5
183
330
1F
100
AcDbEntity
  8
0
  6
Continuous
 62
     8
370
    25
100
AcDbLine
 10
4.9649101901
 20
7.3913864954
 30
0.0
 11
5.5049101901
 21
7.3913864954
 31
0.0
  0
LINE
  5
184
330
1F
100
AcDbEntity
  8
0
  6
Continuous
 62
     8
370
    25
100
AcDbLine
 10
4.9824101901
 20
6.2850024248
 30
0.0
 11
4.9824101901
 21
6.3245376457
 31
0.0
  0
ARC
  5
185
330
1F
100
AcDbEntity
  8
0
  6
Continuous
 62
     7
370
    25
100
AcDbCircle
 10
2.9207851901
 20
9.0413125
 30
0.0
 40
0.0900000012532605
100
AcDbArc
 50
320.4577162894
 51
219.5422834655
  0
SPLINE
  5
186
330
1F
100
AcDbEntity
  8
0
  6
Continuous
 62
     7
370
    25
100
AcDbSpline
210
0.0
220
0.0
230
1.0
 70
     8
 71
     3
 72
    10
 73
     6
 74
     0
 42
0.000000001
 43
0.00000001
 40
0.0
 40
0.0
 40
0.0
 40
0.0
 40
0.3922630793337397
 40
0.7844260893087829
 40
1.0
 40
1.0
 40
1.0
 40
1.0
 10
2.851381243989041
 20
8.984014225457525
 30
0.0
 10
2.848189005773902
 20
8.977565591644368
 30
0.0
 10
2.841805343708391
 20
8.964669969114635
 30
0.0
 10
2.842117420689684
 20
8.946459802268018
 30
0.0
 10
2.847865842116832
 20
8.936839884962849
 30
0.0
 10
2.849904898236695
 20
8.93342754794089
 30
0.0
  0
LINE
  5
187
330
1F
100
AcDbEntity
  8
0
  6
Continuous
 62
     7
370
    25
100
AcDbLine
 10
2.9710454404
 20
8.9109367164
 30
0.0
 11
2.9737271425
 21
8.9131789931
 31
0.0
  0
SPLINE
  5
188
330
1F
100
AcDbEntity
  8
0
  6
Continuous
 62
     7
370
    25
100
AcDbSpline
210
0.0
220
0.0
230
1.0
 70
     8
 71
     3
 72
    10
 73
     6
 74
     0
 42
0.000000001
 43
0.00000001
 40
0.0
 40
0.0
 40
0.0
 40
0.0
 40
0.1807752074217733
 40
0.5736016702013444
 40
1.0
 40
1.0
 40
1.0
 40
1.0
 10
2.991721427535043
 20
8.933454401825422
 30
0.0
 10
2.993505456721644
 20
8.936283072700173
 30
0.0
 10
2.999166200447056
 20
8.945258475695677
 30
0.0
 10
3.0000757433973
 20
8.963471909382447
 30
0.0
 10
2.993573493237756
 20
8.976982234798225
 30
0.0
 10
2.990189136913241
 20
8.984014224362644
 30
0.0
  0
SPLINE
  5
189
330
1F
100
AcDbEntity
  8
0
  6
Continuous
 62
     7
370
    25
100
AcDbSpline
210
0.0
220
0.0
230
1.0
 70
     8
 71
     3
 72
    36
 73
    32
 74
     0
 42
0.000000001
 43
0.00000001
 40
0.0
 40
0.0
 40
0.0
 40
0.0
 40
0.1249999999999923
 40
0.1249999999999923
 40
0.2499999999999847
 40
0.2499999999999847
 40
0.3124999999999822
 40
0.3124999999999822
 40
0.3749999999999798
 40
0.3749999999999798
 40
0.4062499999999798
 40
0.4062499999999798
 40
0.43749999999998
 40
0.43749999999998
 40
0.46874999999998
 40
0.46874999999998
 40
0.4999999999999801
 40
0.4999999999999801
 40
0.5312499999999802
 40
0.5312499999999802
 40
0.5624999999999802
 40
0.5624999999999802
 40
0.6249999999999843
 40
0.6249999999999843
 40
0.6874999999999883
 40
0.6874999999999883
 40
0.7499999999999925
 40
0.7499999999999925
 40
0.8749999999999962
 40
0.8749999999999962
 40
1.0
 40
1.0
 40
1.0
 40
1.0
 10
2.99018913789746
 20
8.984014225554802
 30
0.0
 10
2.987914608660127
 20
8.981259145929776
 30
0.0
 10
2.985229312749726
 20
8.978333657061773
 30
0.0
 10
2.978775335268932
 20
8.972344952085495
 30
0.0
 10
2.97501568594439
 20
8.96927060146892
 30
0.0
 10
2.968047951083002
 20
8.96467062580908
 30
0.0
 10
2.965506450638824
 20
8.963142597905108
 30
0.0
 10
2.959762193910646
 20
8.960125568097382
 30
0.0
 10
2.95656885624311
 20
8.958637208551703
 30
0.0
 10
2.951020376395674
 20
8.95652009377198
 30
0.0
 10
2.949040301656825
 20
8.955832581488677
 30
0.0
 10
2.944688808378354
 20
8.954515121980405
 30
0.0
 10
2.942291475949771
 20
8.95387816975241
 30
0.0
 10
2.937014211445766
 20
8.95274669789131
 30
0.0
 10
2.934093581798681
 20
8.952243080202017
 30
0.0
 10
2.927661438981591
 20
8.95151722153729
 30
0.0
 10
2.924107494534124
 20
8.951304652261479
 30
0.0
 10
2.917050499143375
 20
8.951320820135326
 30
0.0
 10
2.91351614128178
 20
8.9515481715574
 30
0.0
 10
2.907087572412981
 20
8.952302112958403
 30
0.0
 10
2.904227118333753
 20
8.952808023413816
 30
0.0
 10
2.896355617365224
 20
8.95452514815168
 30
0.0
 10
2.892151827748997
 20
8.955896549367719
 30
0.0
 10
2.884743666931631
 20
8.958748811433022
 30
0.0
 10
2.881561656281411
 20
8.960245761558564
 30
0.0
 10
2.87588656069235
 20
8.963245767237753
 30
0.0
 10
2.873377401868233
 20
8.964761447199331
 30
0.0
 10
2.866499621137742
 20
8.969317185711166
 30
0.0
 10
2.862769491344693
 20
8.972367027797318
 30
0.0
 10
2.856330512274539
 20
8.978345096163924
 30
0.0
 10
2.853648567077567
 20
8.981267874530081
 30
0.0
 10
2.851381243989041
 20
8.984014225457525
 30
0.0
  0
CIRCLE
  5
18A
330
1F
100
AcDbEntity
  8
0
  6
Continuous
 62
     7
370
    25
100
AcDbCircle
 10
2.7157851901
 20
8.5423125
 30
0.0
 40
0.0315000000000012
  0
LINE
  5
18B
330
1F
100
AcDbEntity
  8
0
  6
Continuous
 62
     7
370
    25
100
AcDbLine
 10
2.4207851901
 20
9.6013125
 30
0.0
 11
2.3607851901
 21
9.5413125
 31
0.0
  0
LINE
  5
18C
330
1F
100
AcDbEntity
  8
0
  6
Continuous
 62
     7
370
    25
100
AcDbLine
 10
3.4207851901
 20
9.6013125
 30
0.0
 11
2.4207851901
 21
9.6013125
 31
0.0
  0
LINE
  5
18D
330
1F
100
AcDbEntity
  8
0
  6
Continuous
 62
     7
370
    25
100
AcDbLine
 10
3.4807851901
 20
9.5413125
 30
0.0
 11
3.4207851901
 21
9.6013125
 31
0.0
  0
LINE
  5
18E
330
1F
100
AcDbEntity
  8
0
  6
Continuous
 62
     7
370
    25
100
AcDbLine
 10
3.4807851901
 20
8.5413125
 30
0.0
 11
3.4807851901
 21
9.5413125
 31
0.0
  0
LINE
  5
18F
330
1F
100
AcDbEntity
  8
0
  6
Continuous
 62
     7
370
    25
100
AcDbLine
 10
3.4207851901
 20
8.4813125
 30
0.0
 11
3.4807851901
 21
8.5413125
 31
0.0
  0
LINE
  5
190
330
1F
100
AcDbEntity
  8
0
  6
Continuous
 62
     7
370
    25
100
AcDbLine
 10
2.4207851901
 20
8.4813125
 30
0.0
 11
3.4207851901
 21
8.4813125
 31
0.0
  0
LINE
  5
191
330
1F
100
AcDbEntity
  8
0
  6
Continuous
 62
     7
370
    25
100
AcDbLine
 10
2.3607851901
 20
8.5413125
 30
0.0
 11
2.4207851901
 21
8.4813125
 31
0.0
  0
LINE
  5
192
330
1F
100
AcDbEntity
  8
0
  6
Continuous
 62
     7
370
    25
100
AcDbLine
 10
2.3607851901
 20
9.5413125
 30
0.0
 11
2.3607851901
 21
8.5413125
 31
0.0
  0
CIRCLE
  5
193
330
1F
100
AcDbEntity
  8
0
  6
Continuous
 62
     7
370
    25
100
AcDbCircle
 10
3.3482851901
 20
9.4688125
 30
0.0
 40
0.0934999999999988
  0
CIRCLE
  5
194
330
1F
100
AcDbEntity
  8
0
  6
Continuous
 62
     7
370
    25
100
AcDbCircle
 10
2.4932851901
 20
9.4688125
 30
0.0
 40
0.0934999999999988
  0
CIRCLE
  5
195
330
1F
100
AcDbEntity
  8
0
  6
Continuous
 62
     7
370
    25
100
AcDbCircle
 10
2.4932851901
 20
8.6138125
 30
0.0
 40
0.0935000000000006
  0
CIRCLE
  5
196
330
1F
100
AcDbEntity
  8
0
  6
Continuous
 62
     7
370
    25
100
AcDbCircle
 10
3.3482851901
 20
8.6138125
 30
0.0
 40
0.0935000000000006
  0
LINE
  5
197
330
1F
100
AcDbEntity
  8
0
  6
Continuous
 62
     7
370
    25
100
AcDbLine
 10
2.9207851901
 20
8.9013125
 30
0.0
 11
2.9183105042
 21
8.9013343734
 31
0.0
  0
ARC
  5
198
330
1F
100
AcDbEntity
  8
0
  6
Continuous
 62
     7
370
    25
100
AcDbCircle
 10
2.9207851901
 20
9.0413125
 30
0.0
 40
0.1400000000000011
100
AcDbArc
 50
221.1462702418
 51
236.6515590857
  0
LINE
  5
199
330
1F
100
AcDbEntity
  8
0
  6
Continuous
 62
     7
370
    25
100
AcDbLine
 10
2.9265332748
 20
8.9014305515
 30
0.0
 11
2.9207851901
 21
8.9013125
 31
0.0
  0
SPLINE
  5
19A
330
1F
100
AcDbEntity
  8
0
  6
Continuous
 62
     7
370
    25
100
AcDbSpline
210
0.0
220
0.0
230
1.0
 70
     8
 71
     3
 72
    33
 73
    29
 74
     0
 42
0.000000001
 43
0.00000001
 40
0.0
 40
0.0
 40
0.0
 40
0.0
 40
0.0116726817303202
 40
0.0233243121908007
 40
0.0349705332984677
 40
0.04662700874693
 40
0.0583093609828213
 40
0.0891904642672025
 40
0.120101474858385
 40
0.1522702433406172
 40
0.1844690409866785
 40
0.2501182952413948
 40
0.3157675494961106
 40
0.3800525831040637
 40
0.4417717091464046
 40
0.5000028146847402
 40
0.5582339202230758
 40
0.6199530462654156
 40
0.6842380798733697
 40
0.7498873341280854
 40
0.8155365883828013
 40
0.847705359279786
 40
0.8799041593458019
 40
0.9107852598627436
 40
0.9416962698277456
 40
0.9611362360320351
 40
0.9805466045448138
 40
1.0
 40
1.0
 40
1.0
 40
1.0
 10
2.920785190090508
 20
9.261312499999999
 30
0.0
 10
2.918098950360152
 20
9.261284294595521
 30
0.0
 10
2.912731315438057
 20
9.261227934654023
 30
0.0
 10
2.904694248963349
 20
9.26077049770836
 30
0.0
 10
2.896682526578553
 20
9.260039872751374
 30
0.0
 10
2.888695971495129
 20
9.259009265734184
 30
0.0
 10
2.876385996939379
 20
9.25696375889315
 30
0.0
 10
2.859898811759571
 20
9.25308342838747
 30
0.0
 10
2.839404356913288
 20
9.246091824240253
 30
0.0
 10
2.819412900030924
 20
9.236992556104815
 30
0.0
 10
2.79354240863987
 20
9.221880857432318
 30
0.0
 10
2.76410741875214
 20
9.197982376671284
 30
0.0
 10
2.735535198389022
 20
9.16280150866744
 30
0.0
 10
2.715107938826586
 20
9.123373069564082
 30
0.0
 10
2.703320637081033
 20
9.082370742198572
 30
0.0
 10
2.699554330565826
 20
9.041312500036128
 30
0.0
 10
2.703320637209381
 20
9.000254257652573
 30
0.0
 10
2.715107938267538
 20
8.959251931000328
 30
0.0
 10
2.735535200598349
 20
8.919823489123774
 30
0.0
 10
2.764107410321643
 20
8.884642631751271
 30
0.0
 10
2.793537027480432
 20
8.860748506955845
 30
0.0
 10
2.819406697523116
 20
8.845635679482049
 30
0.0
 10
2.839391467942186
 20
8.836537997058947
 30
0.0
 10
2.859892430351008
 20
8.829544478315047
 30
0.0
 10
2.878119051273489
 20
8.825249591163864
 30
0.0
 10
2.893994043631385
 20
8.822819253298665
 30
0.0
 10
2.907363322824927
 20
8.82154713637162
 30
0.0
 10
2.916307933409163
 20
8.821390769829504
 30
0.0
 10
2.920785190090508
 20
8.8213125
 30
0.0
  0
SPLINE
  5
19B
330
1F
100
AcDbEntity
  8
0
  6
Continuous
 62
     7
370
    25
100
AcDbSpline
210
0.0
220
0.0
230
1.0
 70
     8
 71
     3
 72
    33
 73
    29
 74
     0
 42
0.000000001
 43
0.00000001
 40
0.0
 40
0.0
 40
0.0
 40
0.0
 40
0.0116726817298669
 40
0.0233243121901199
 40
0.0349705332977871
 40
0.0466270087464754
 40
0.0583093609828142
 40
0.0891904642659924
 40
0.1201014748583794
 40
0.1522702433395417
 40
0.1844690409866747
 40
0.2501182952413905
 40
0.3157675494961074
 40
0.3800525831040617
 40
0.4417717091464024
 40
0.5000028146847386
 40
0.5582339202230744
 40
0.6199530462654151
 40
0.6842380798733698
 40
0.7498873341280866
 40
0.8155365883828024
 40
0.8477053592811197
 40
0.8799041593458097
 40
0.9107852598639669
 40
0.9416962698277475
 40
0.961136236032325
 40
0.9805466045451039
 40
1.0
 40
1.0
 40
1.0
 40
1.0
 10
2.920785190090508
 20
8.8213125
 30
0.0
 10
2.92347142982076
 20
8.821340705404474
 30
0.0
 10
2.928839064742698
 20
8.821397065345975
 30
0.0
 10
2.93687613121725
 20
8.821854502291643
 30
0.0
 10
2.944887853602043
 20
8.822585127248628
 30
0.0
 10
2.952874408685624
 20
8.823615734265829
 30
0.0
 10
2.965184383241269
 20
8.825661241106737
 30
0.0
 10
2.981671568421183
 20
8.829541571612442
 30
0.0
 10
3.002166023267241
 20
8.836533175759547
 30
0.0
 10
3.022157480149869
 20
8.845632443895074
 30
0.0
 10
3.048027971540957
 20
8.860744142567519
 30
0.0
 10
3.077462961428875
 20
8.884642623328713
 30
0.0
 10
3.106035181791995
 20
8.919823491332554
 30
0.0
 10
3.126462441354431
 20
8.959251930435913
 30
0.0
 10
3.138249743099985
 20
9.000254257801425
 30
0.0
 10
3.142016049615191
 20
9.041312499963867
 30
0.0
 10
3.138249742971636
 20
9.082370742347422
 30
0.0
 10
3.126462441913481
 20
9.123373068999669
 30
0.0
 10
3.106035179582665
 20
9.16280151087622
 30
0.0
 10
3.077462969859379
 20
9.197982368248734
 30
0.0
 10
3.048033352700332
 20
9.221876493044322
 30
0.0
 10
3.022163682657649
 20
9.236989320518132
 30
0.0
 10
3.002178912238287
 20
9.24608700294127
 30
0.0
 10
2.98167794982972
 20
9.253080521684963
 30
0.0
 10
2.96345132890719
 20
9.257375408836216
 30
0.0
 10
2.947576336549493
 20
9.259805746701312
 30
0.0
 10
2.934207057355958
 20
9.261077863628373
 30
0.0
 10
2.925262446771787
 20
9.26123423017049
 30
0.0
 10
2.920785190090508
 20
9.261312499999999
 30
0.0
  0
CIRCLE
  5
19C
330
1F
100
AcDbEntity
  8
0
  6
Continuous
 62
     7
370
    25
100
AcDbCircle
 10
2.9207851901
 20
9.0413125
 30
0.0
 40
0.2700000000000014
  0
ARC
  5
19D
330
1F
100
AcDbEntity
  8
0
  6
Continuous
 62
     7
370
    25
100
AcDbCircle
 10
2.6623710945
 20
9.0681854457
 30
0.0
 40
0.0499999999999998
100
AcDbArc
 50
144.0630489739
 51
204.0630489739
  0
ARC
  5
19E
330
1F
100
AcDbEntity
  8
0
  6
Continuous
 62
     7
370
    25
100
AcDbCircle
 10
3.0732648915
 20
9.2516691986
 30
0.0
 40
0.0500000000000002
100
AcDbArc
 50
24.0630489739
 51
84.0630489739
  0
LINE
  5
19F
330
1F
100
AcDbEntity
  8
0
  6
Continuous
 62
     7
370
    25
100
AcDbLine
 10
3.224854152
 20
9.034826638
 30
0.0
 11
3.1189197579
 21
9.2720562823
 31
0.0
  0
ARC
  5
1A0
330
1F
100
AcDbEntity
  8
0
  6
Continuous
 62
     7
370
    25
100
AcDbCircle
 10
3.1791992857
 20
9.0144395543
 30
0.0
 40
0.0500000000000002
100
AcDbArc
 50
324.0630489739
 51
24.0630489739
  0
LINE
  5
1A1
330
1F
100
AcDbEntity
  8
0
  6
Continuous
 62
     7
370
    25
100
AcDbLine
 10
3.0672027498
 20
8.7747381235
 30
0.0
 11
3.2196824512
 21
8.9850948221
 31
0.0
  0
ARC
  5
1A2
330
1F
100
AcDbEntity
  8
0
  6
Continuous
 62
     7
370
    25
100
AcDbCircle
 10
3.0267195842
 20
8.8040828557
 30
0.0
 40
0.0500000000000009
100
AcDbArc
 50
264.0630489739
 51
324.0630489739
  0
LINE
  5
1A3
330
1F
100
AcDbEntity
  8
0
  6
Continuous
 62
     7
370
    25
100
AcDbLine
 10
2.7631337879
 20
8.7812239855
 30
0.0
 11
3.0215478834
 21
8.7543510398
 31
0.0
  0
ARC
  5
1A4
330
1F
100
AcDbEntity
  8
0
  6
Continuous
 62
     7
370
    25
100
AcDbCircle
 10
2.7683054887
 20
8.8309558014
 30
0.0
 40
0.0499999999999998
100
AcDbArc
 50
204.0630489739
 51
264.0630489739
  0
LINE
  5
1A5
330
1F
100
AcDbEntity
  8
0
  6
Continuous
 62
     7
370
    25
100
AcDbLine
 10
2.6167162282
 20
9.047798362
 30
0.0
 11
2.7226506223
 21
8.8105687177
 31
0.0
  0
LINE
  5
1A6
330
1F
100
AcDbEntity
  8
0
  6
Continuous
 62
     7
370
    25
100
AcDbLine
 10
3.0784365923
 20
9.3014010145
 30
0.0
 11
2.8200224968
 21
9.3282739602
 31
0.0
  0
ARC
  5
1A7
330
1F
100
AcDbEntity
  8
0
  6
Continuous
 62
     7
370
    25
100
AcDbCircle
 10
2.8148507959
 20
9.2785421443
 30
0.0
 40
0.0499999999999996
100
AcDbArc
 50
84.0630489739
 51
144.0630489739
  0
LINE
  5
1A8
330
1F
100
AcDbEntity
  8
0
  6
Continuous
 62
     7
370
    25
100
AcDbLine
 10
2.7743676304
 20
9.3078868765
 30
0.0
 11
2.621887929
 21
9.0975301779
 31
0.0
  0
CIRCLE
  5
1A9
330
1F
100
AcDbEntity
  8
0
  6
Continuous
 62
     7
370
    25
100
AcDbCircle
 10
2.9207851901
 20
9.0413125
 30
0.0
 40
0.4200000000000141
  0
SPLINE
  5
1AA
330
1F
100
AcDbEntity
  8
0
  6
Continuous
 62
     7
370
    25
100
AcDbSpline
210
0.0
220
0.0
230
1.0
 70
    11
 71
     3
 72
    19
 73
    15
 74
     0
 42
0.000000001
 43
0.00000001
 40
0.0
 40
0.0
 40
0.0
 40
0.0
 40
0.0125
 40
0.0249999999999999
 40
0.0375000000000001
 40
0.05
 40
0.2499999999973684
 40
0.5
 40
0.7500000000065025
 40
0.95
 40
0.9625
 40
0.975
 40
0.9875
 40
1.0
 40
1.0
 40
1.0
 40
1.0
 10
2.828861308536256
 20
8.949388618445745
 30
0.0
 10
2.82656321149736
 20
8.95168671548459
 30
0.0
 10
2.822196827123465
 20
8.956512719266174
 30
0.0
 10
2.816336679674317
 20
8.964372211139073
 30
0.0
 10
2.811165961336859
 20
8.972783246301328
 30
0.0
 10
2.784278225982559
 20
9.026145059543325
 30
0.0
 10
2.801284144072128
 20
9.179198322333564
 30
0.0
 10
3.058671012421935
 20
9.179198322329647
 30
0.0
 10
3.058671012425853
 20
8.921811453983256
 30
0.0
 10
2.905617749634429
 20
8.904805535893818
 30
0.0
 10
2.852255936392334
 20
8.931693271246807
 30
0.0
 10
2.843844901229913
 20
8.936863989584117
 30
0.0
 10
2.835985409356846
 20
8.942724137033112
 30
0.0
 10
2.831159405575153
 20
8.947090521406901
 30
0.0
 10
2.828861308536256
 20
8.949388618445745
 30
0.0
  0
SPLINE
  5
1AB
330
1F
100
AcDbEntity
  8
0
  6
Continuous
 62
     7
370
    25
100
AcDbSpline
210
0.0
220
0.0
230
1.0
 70
    11
 71
     3
 72
    66
 73
    62
 74
     0
 42
0.000000001
 43
0.00000001
 40
0.0
 40
0.0
 40
0.0
 40
0.0
 40
0.0312499999999998
 40
0.0312499999999998
 40
0.0624999999999997
 40
0.0624999999999997
 40
0.1250000000000002
 40
0.1250000000000002
 40
0.1562500000000004
 40
0.1562500000000004
 40
0.1875000000000006
 40
0.1875000000000006
 40
0.2187500000000009
 40
0.2187500000000009
 40
0.2500000000000011
 40
0.2500000000000011
 40
0.2812500000000013
 40
0.2812500000000013
 40
0.3125000000000016
 40
0.3125000000000016
 40
0.3437500000000018
 40
0.3437500000000018
 40
0.375000000000002
 40
0.375000000000002
 40
0.4062500000000023
 40
0.4062500000000023
 40
0.4375000000000025
 40
0.4375000000000025
 40
0.4687500000000027
 40
0.4687500000000027
 40
0.500000000000003
 40
0.500000000000003
 40
0.5312500000000033
 40
0.5312500000000033
 40
0.5625000000000036
 40
0.5625000000000036
 40
0.6250000000000032
 40
0.6250000000000032
 40
0.656250000000003
 40
0.656250000000003
 40
0.6875000000000027
 40
0.6875000000000027
 40
0.7187500000000024
 40
0.7187500000000024
 40
0.7500000000000021
 40
0.7500000000000021
 40
0.7812500000000019
 40
0.7812500000000019
 40
0.8125000000000017
 40
0.8125000000000017
 40
0.8437500000000013
 40
0.8437500000000013
 40
0.8750000000000011
 40
0.8750000000000011
 40
0.9062500000000008
 40
0.9062500000000008
 40
0.9375000000000006
 40
0.9375000000000006
 40
0.9687500000000002
 40
0.9687500000000002
 40
1.0
 40
1.0
 40
1.0
 40
1.0
 10
2.82179024072439
 20
8.94231755063388
 30
0.0
 10
2.815052768447299
 20
8.949055022910974
 30
0.0
 10
2.8091530255404
 20
8.956312885301234
 30
0.0
 10
2.798880910020535
 20
8.971842929958848
 30
0.0
 10
2.794551969298857
 20
8.980096534450096
 30
0.0
 10
2.784289089987715
 20
9.005288944716114
 30
0.0
 10
2.780789065504163
 20
9.023239731809841
 30
0.0
 10
2.780783257219812
 20
9.050303815520103
 30
0.0
 10
2.781643806329498
 20
9.059199076519587
 30
0.0
 10
2.785058375949767
 20
9.076787649298128
 30
0.0
 10
2.787654165814034
 20
9.085572947559392
 30
0.0
 10
2.794506278114611
 20
9.102439361797769
 30
0.0
 10
2.798736190905215
 20
9.110523883467224
 30
0.0
 10
2.808942925510461
 20
9.126032519223239
 30
0.0
 10
2.814968987177761
 20
9.133459226592405
 30
0.0
 10
2.828215520417196
 20
9.146758904761569
 30
0.0
 10
2.835610909262047
 20
9.152812063047428
 30
0.0
 10
2.851137582979682
 20
9.16311570807823
 30
0.0
 10
2.859311023321322
 20
9.167428419775176
 30
0.0
 10
2.876308464912222
 20
9.174376842774913
 30
0.0
 10
2.88496175776418
 20
9.176950671713062
 30
0.0
 10
2.902627561036015
 20
9.180421566693802
 30
0.0
 10
2.911677738885282
 20
9.181300970434407
 30
0.0
 10
2.929534658184578
 20
9.181323800722803
 30
0.0
 10
2.938419298590047
 20
9.180490567018243
 30
0.0
 10
2.956147979546126
 20
9.177073205815141
 30
0.0
 10
2.964885903102176
 20
9.174492613273122
 30
0.0
 10
2.981656855723902
 20
9.16771050545339
 30
0.0
 10
2.989767673270485
 20
9.163499329017773
 30
0.0
 10
3.00546961046159
 20
9.153190796007353
 30
0.0
 10
3.012804516103459
 20
9.147253062013023
 30
0.0
 10
3.026321720774996
 20
9.133794929307387
 30
0.0
 10
3.032251076519437
 20
9.126531413110328
 30
0.0
 10
3.04256605481147
 20
9.110999858802785
 30
0.0
 10
3.046917315751882
 20
9.102738529941849
 30
0.0
 10
3.057235216428348
 20
9.077523981956675
 30
0.0
 10
3.060762460208685
 20
9.059552979096543
 30
0.0
 10
3.060796390406907
 20
9.03245520962355
 30
0.0
 10
3.0599425415078
 20
9.023544779747159
 30
0.0
 10
3.056537207313581
 20
9.00593100545375
 30
0.0
 10
3.053944019578259
 20
8.997133239435854
 30
0.0
 10
3.047091501162879
 20
8.980240438320113
 30
0.0
 10
3.042859258853476
 20
8.97214374847926
 30
0.0
 10
3.032643627126951
 20
8.956612532378706
 30
0.0
 10
3.026610401331854
 20
8.949174837103058
 30
0.0
 10
3.013346136681259
 20
8.935857317933824
 30
0.0
 10
3.005939842034481
 20
8.929796937536642
 30
0.0
 10
2.990390337914759
 20
8.919484100947964
 30
0.0
 10
2.982203422641989
 20
8.915168513471206
 30
0.0
 10
2.965181546707245
 20
8.908220546275201
 30
0.0
 10
2.956515561054196
 20
8.905648975910735
 30
0.0
 10
2.938823189668843
 20
8.902187082664657
 30
0.0
 10
2.929760761491315
 20
8.901314778795696
 30
0.0
 10
2.911880848829835
 20
8.901310230264533
 30
0.0
 10
2.902984712636789
 20
8.902154698340665
 30
0.0
 10
2.885232803049335
 20
8.905600383606828
 30
0.0
 10
2.876489240048226
 20
8.908196308909377
 30
0.0
 10
2.859704706184327
 20
8.915014336884258
 30
0.0
 10
2.851587620842885
 20
8.91924593549743
 30
0.0
 10
2.835874470558146
 20
8.929604311098128
 30
0.0
 10
2.828527713001481
 20
8.935580078356786
 30
0.0
 10
2.82179024072439
 20
8.94231755063388
 30
0.0
  0
INSERT
  5
1B7
330
1F
100
AcDbEntity
  8
SLD-0
 62
     7
100
AcDbBlockReference
  2
SW_CENTERMARKSYMBOL_1
 10
2.9207851901
 20
9.0413125
 30
0.0
  0
INSERT
  5
1C3
330
1F
100
AcDbEntity
  8
SLD-0
 62
     7
100
AcDbBlockReference
  2
SW_CENTERMARKSYMBOL_2
 10
2.7157851901
 20
8.5423125
 30
0.0
  0
INSERT
  5
1CF
330
1F
100
AcDbEntity
  8
SLD-0
 62
     7
100
AcDbBlockReference
  2
SW_CENTERMARKSYMBOL_3
 10
3.3482851901
 20
8.6138125
 30
0.0
  0
INSERT
  5
1DB
330
1F
100
AcDbEntity
  8
SLD-0
 62
     7
100
AcDbBlockReference
  2
SW_CENTERMARKSYMBOL_4
 10
2.4932851901
 20
8.6138125
 30
0.0
  0
INSERT
  5
1E7
330
1F
100
AcDbEntity
  8
SLD-0
 62
     7
100
AcDbBlockReference
  2
SW_CENTERMARKSYMBOL_5
 10
2.4932851901
 20
9.4688125
 30
0.0
  0
INSERT
  5
1F3
330
1F
100
AcDbEntity
  8
SLD-0
 62
     7
100
AcDbBlockReference
  2
SW_CENTERMARKSYMBOL_6
 10
3.3482851901
 20
9.4688125
 30
0.0
  0
ENDSEC
  0
SECTION
  2
OBJECTS
  0
DICTIONARY
  5
C
330
0
100
AcDbDictionary
281
     1
  3
ACAD_GROUP
350
D
  3
ACAD_LAYOUT
350
1A
  3
ACAD_MLINESTYLE
350
17
  3
ACAD_PLOTSETTINGS
350
19
  3
ACAD_PLOTSTYLENAME
350
E
  3
ACAD_SCALELIST
350
47
  0
DICTIONARY
  5
D
102
{ACAD_REACTORS
330
C
102
}
330
C
100
AcDbDictionary
281
     1
  0
DICTIONARY
  5
1A
102
{ACAD_REACTORS
330
C
102
}
330
C
100
AcDbDictionary
281
     1
  3
Layout1
350
1E
  3
Layout2
350
26
  3
Model
350
22
  0
DICTIONARY
  5
17
102
{ACAD_REACTORS
330
C
102
}
330
C
100
AcDbDictionary
281
     1
  3
Standard
350
18
  0
DICTIONARY
  5
19
102
{ACAD_REACTORS
330
C
102
}
330
C
100
AcDbDictionary
281
     1
  0
ACDBDICTIONARYWDFLT
  5
E
102
{ACAD_REACTORS
330
C
102
}
330
C
100
AcDbDictionary
281
     1
  3
Normal
350
F
100
AcDbDictionaryWithDefault
340
F
  0
DICTIONARY
  5
47
102
{ACAD_REACTORS
330
C
102
}
330
C
100
AcDbDictionary
281
     1
  3
A0
350
48
  3
A1
350
49
  3
A2
350
4A
  3
A3
350
4B
  3
A4
350
4C
  3
A5
350
4D
  3
A6
350
4E
  3
A7
350
4F
  3
A8
350
50
  3
A9
350
51
  3
B0
350
52
  3
B1
350
53
  3
B2
350
54
  3
B3
350
55
  3
B4
350
56
  3
B5
350
57
  3
B6
350
58
  3
B7
350
59
  3
B8
350
5A
  3
B9
350
5B
  3
C0
350
5C
  3
C1
350
5D
  3
C2
350
5E
  3
C3
350
5F
  3
C4
350
60
  3
C5
350
61
  3
C6
350
62
  3
C7
350
63
  3
C8
350
64
  3
C9
350
65
  3
D0
350
66
  3
D1
350
67
  3
D2
350
68
  0
LAYOUT
  5
1E
102
{ACAD_REACTORS
330
1A
102
}
330
1A
100
AcDbPlotSettings
  1

  2
none_device
  4

  6

 40
0.0
 41
0.0
 42
0.0
 43
0.0
 44
0.0
 45
0.0
 46
0.0
 47
0.0
 48
0.0
 49
0.0
140
0.0
141
0.0
142
1.0
143
1.0
 70
   688
 72
     0
 73
     0
 74
     5
  7

 75
    16
147
1.0
148
0.0
149
0.0
100
AcDbLayout
  1
Layout1
 70
     1
 71
     1
 10
0.0
 20
0.0
 11
12.0
 21
9.0
 12
0.0
 22
0.0
 32
0.0
 14
1.0000000000E+20
 24
1.0000000000E+20
 34
1.0000000000E+20
 15
-1.0000000000E+20
 25
-1.0000000000E+20
 35
-1.0000000000E+20
146
0.0
 13
0.0
 23
0.0
 33
0.0
 16
1.0
 26
0.0
 36
0.0
 17
0.0
 27
1.0
 37
0.0
 76
     0
330
1B
  0
LAYOUT
  5
26
102
{ACAD_REACTORS
330
1A
102
}
330
1A
100
AcDbPlotSettings
  1

  2
none_device
  4

  6

 40
0.0
 41
0.0
 42
0.0
 43
0.0
 44
0.0
 45
0.0
 46
0.0
 47
0.0
 48
0.0
 49
0.0
140
0.0
141
0.0
142
1.0
143
1.0
 70
   688
 72
     0
 73
     0
 74
     5
  7

 75
    16
147
1.0
148
0.0
149
0.0
100
AcDbLayout
  1
Layout2
 70
     1
 71
     2
 10
0.0
 20
0.0
 11
0.0
 21
0.0
 12
0.0
 22
0.0
 32
0.0
 14
0.0
 24
0.0
 34
0.0
 15
0.0
 25
0.0
 35
0.0
146
0.0
 13
0.0
 23
0.0
 33
0.0
 16
1.0
 26
0.0
 36
0.0
 17
0.0
 27
1.0
 37
0.0
 76
     0
330
23
  0
LAYOUT
  5
22
102
{ACAD_REACTORS
330
1A
102
}
330
1A
100
AcDbPlotSettings
  1

  2
none_device
  4
Letter_(8.50_x_11.00_Inches)
  6

 40
6.35
 41
6.35
 42
6.35000508
 43
6.35000508
 44
215.9
 45
279.4
 46
0.0
 47
0.0
 48
0.0
 49
0.0
140
0.0
141
0.0
142
1.0
143
1.0
 70
  1712
 72
     0
 73
     0
 74
     0
  7

 75
     0
147
1.0
148
0.0
149
0.0
100
AcDbLayout
  1
Model
 70
     1
 71
     0
 10
0.0
 20
0.0
 11
8.5
 21
11.0
 12
0.0
 22
0.0
 32
0.0
 14
0.0
 24
0.0
 34
0.0
 15
8.5
 25
11.0
 35
0.0
146
0.0
 13
0.0
 23
0.0
 33
0.0
 16
1.0
 26
0.0
 36
0.0
 17
0.0
 27
1.0
 37
0.0
 76
     0
330
1F
331
29
  0
MLINESTYLE
  5
18
102
{ACAD_REACTORS
330
17
102
}
330
17
100
AcDbMlineStyle
  2
Standard
 70
     0
  3

 62
   256
 51
90.0
 52
90.0
 71
     2
 49
0.5
 62
   256
  6
BYLAYER
 49
-0.5
 62
   256
  6
BYLAYER
  0
ACDBPLACEHOLDER
  5
F
102
{ACAD_REACTORS
330
E
102
}
330
E
  0
SCALE
  5
48
102
{ACAD_REACTORS
330
47
102
}
330
47
100
AcDbScale
 70
     0
300
1:1
140
1.0
141
1.0
290
     1
  0
SCALE
  5
49
102
{ACAD_REACTORS
330
47
102
}
330
47
100
AcDbScale
 70
     0
300
1:2
140
1.0
141
2.0
290
     0
  0
SCALE
  5
4A
102
{ACAD_REACTORS
330
47
102
}
330
47
100
AcDbScale
 70
     0
300
1:4
140
1.0
141
4.0
290
     0
  0
SCALE
  5
4B
102
{ACAD_REACTORS
330
47
102
}
330
47
100
AcDbScale
 70
     0
300
1:5
140
1.0
141
5.0
290
     0
  0
SCALE
  5
4C
102
{ACAD_REACTORS
330
47
102
}
330
47
100
AcDbScale
 70
     0
300
1:8
140
1.0
141
8.0
290
     0
  0
SCALE
  5
4D
102
{ACAD_REACTORS
330
47
102
}
330
47
100
AcDbScale
 70
     0
300
1:10
140
1.0
141
10.0
290
     0
  0
SCALE
  5
4E
102
{ACAD_REACTORS
330
47
102
}
330
47
100
AcDbScale
 70
     0
300
1:16
140
1.0
141
16.0
290
     0
  0
SCALE
  5
4F
102
{ACAD_REACTORS
330
47
102
}
330
47
100
AcDbScale
 70
     0
300
1:20
140
1.0
141
20.0
290
     0
  0
SCALE
  5
50
102
{ACAD_REACTORS
330
47
102
}
330
47
100
AcDbScale
 70
     0
300
1:30
140
1.0
141
30.0
290
     0
  0
SCALE
  5
51
102
{ACAD_REACTORS
330
47
102
}
330
47
100
AcDbScale
 70
     0
300
1:40
140
1.0
141
40.0
290
     0
  0
SCALE
  5
52
102
{ACAD_REACTORS
330
47
102
}
330
47
100
AcDbScale
 70
     0
300
1:50
140
1.0
141
50.0
290
     0
  0
SCALE
  5
53
102
{ACAD_REACTORS
330
47
102
}
330
47
100
AcDbScale
 70
     0
300
1:100
140
1.0
141
100.0
290
     0
  0
SCALE
  5
54
102
{ACAD_REACTORS
330
47
102
}
330
47
100
AcDbScale
 70
     0
300
2:1
140
2.0
141
1.0
290
     0
  0
SCALE
  5
55
102
{ACAD_REACTORS
330
47
102
}
330
47
100
AcDbScale
 70
     0
300
4:1
140
4.0
141
1.0
290
     0
  0
SCALE
  5
56
102
{ACAD_REACTORS
330
47
102
}
330
47
100
AcDbScale
 70
     0
300
8:1
140
8.0
141
1.0
290
     0
  0
SCALE
  5
57
102
{ACAD_REACTORS
330
47
102
}
330
47
100
AcDbScale
 70
     0
300
10:1
140
10.0
141
1.0
290
     0
  0
SCALE
  5
58
102
{ACAD_REACTORS
330
47
102
}
330
47
100
AcDbScale
 70
     0
300
100:1
140
100.0
141
1.0
290
     0
  0
SCALE
  5
59
102
{ACAD_REACTORS
330
47
102
}
330
47
100
AcDbScale
 70
     0
300
1/128" = 1'-0"
140
0.0078125
141
12.0
290
     0
  0
SCALE
  5
5A
102
{ACAD_REACTORS
330
47
102
}
330
47
100
AcDbScale
 70
     0
300
1/64" = 1'-0"
140
0.015625
141
12.0
290
     0
  0
SCALE
  5
5B
102
{ACAD_REACTORS
330
47
102
}
330
47
100
AcDbScale
 70
     0
300
1/32" = 1'-0"
140
0.03125
141
12.0
290
     0
  0
SCALE
  5
5C
102
{ACAD_REACTORS
330
47
102
}
330
47
100
AcDbScale
 70
     0
300
1/16" = 1'-0"
140
0.0625
141
12.0
290
     0
  0
SCALE
  5
5D
102
{ACAD_REACTORS
330
47
102
}
330
47
100
AcDbScale
 70
     0
300
3/32" = 1'-0"
140
0.09375
141
12.0
290
     0
  0
SCALE
  5
5E
102
{ACAD_REACTORS
330
47
102
}
330
47
100
AcDbScale
 70
     0
300
1/8" = 1'-0"
140
0.125
141
12.0
290
     0
  0
SCALE
  5
5F
102
{ACAD_REACTORS
330
47
102
}
330
47
100
AcDbScale
 70
     0
300
3/16" = 1'-0"
140
0.1875
141
12.0
290
     0
  0
SCALE
  5
60
102
{ACAD_REACTORS
330
47
102
}
330
47
100
AcDbScale
 70
     0
300
1/4" = 1'-0"
140
0.25
141
12.0
290
     0
  0
SCALE
  5
61
102
{ACAD_REACTORS
330
47
102
}
330
47
100
AcDbScale
 70
     0
300
3/8" = 1'-0"
140
0.375
141
12.0
290
     0
  0
SCALE
  5
62
102
{ACAD_REACTORS
330
47
102
}
330
47
100
AcDbScale
 70
     0
300
1/2" = 1'-0"
140
0.5
141
12.0
290
     0
  0
SCALE
  5
63
102
{ACAD_REACTORS
330
47
102
}
330
47
100
AcDbScale
 70
     0
300
3/4" = 1'-0"
140
0.75
141
12.0
290
     0
  0
SCALE
  5
64
102
{ACAD_REACTORS
330
47
102
}
330
47
100
AcDbScale
 70
     0
300
1" = 1'-0"
140
1.0
141
12.0
290
     0
  0
SCALE
  5
65
102
{ACAD_REACTORS
330
47
102
}
330
47
100
AcDbScale
 70
     0
300
1-1/2" = 1'-0"
140
1.5
141
12.0
290
     0
  0
SCALE
  5
66
102
{ACAD_REACTORS
330
47
102
}
330
47
100
AcDbScale
 70
     0
300
3" = 1'-0"
140
3.0
141
12.0
290
     0
  0
SCALE
  5
67
102
{ACAD_REACTORS
330
47
102
}
330
47
100
AcDbScale
 70
     0
300
6" = 1'-0"
140
6.0
141
12.0
290
     0
  0
SCALE
  5
68
102
{ACAD_REACTORS
330
47
102
}
330
47
100
AcDbScale
 70
     0
300
1'-0" = 1'-0"
140
12.0
141
12.0
290
     0
  0
ENDSEC
  0
EOF
