  0
SECTION
  2
HEADER
  9
$ACADVER
  1
AC1015
  9
$ACADMAINTVER
 70
     6
  9
$DWGCODEPAGE
  3
ANSI_1252
  9
$INSBASE
 10
0.0
 20
0.0
 30
0.0
  9
$EXTMIN
 10
0.0
 20
0.0
 30
0.0
  9
$EXTMAX
 10
11.0
 20
8.5
 30
0.0
  9
$LIMMIN
 10
0.0
 20
0.0
  9
$LIMMAX
 10
11.0
 20
8.5
  9
$ORTHOMODE
 70
     0
  9
$REGENMODE
 70
     1
  9
$FILLMODE
 70
     1
  9
$QTEXTMODE
 70
     0
  9
$MIRRTEXT
 70
     1
  9
$LTSCALE
 40
1.0
  9
$ATTMODE
 70
     1
  9
$TEXTSIZE
 40
0.125
  9
$TRACEWID
 40
0.05
  9
$TEXTSTYLE
  7
Standard
  9
$CLAYER
  8
0
  9
$CELTYPE
  6
ByLayer
  9
$CECOLOR
 62
   256
  9
$CELTSCALE
 40
1.0
  9
$DISPSILH
 70
     0
  9
$DIMSCALE
 40
1.0
  9
$DIMASZ
 40
0.13
  9
$DIMEXO
 40
0.05
  9
$DIMDLI
 40
0.38
  9
$DIMRND
 40
0.0
  9
$DIMDLE
 40
0.0
  9
$DIMEXE
 40
0.125
  9
$DIMTP
 40
0.0
  9
$DIMTM
 40
0.0
  9
$DIMTXT
 40
0.09
  9
$DIMCEN
 40
0.09
  9
$DIMTSZ
 40
0.0
  9
$DIMTOL
 70
     0
  9
$DIMLIM
 70
     0
  9
$DIMTIH
 70
     1
  9
$DIMTOH
 70
     1
  9
$DIMSE1
 70
     0
  9
$DIMSE2
 70
     0
  9
$DIMTAD
 70
     1
  9
$DIMZIN
 70
     1
  9
$DIMBLK
  1

  9
$DIMASO
 70
     1
  9
$DIMSHO
 70
     1
  9
$DIMPOST
  1

  9
$DIMAPOST
  1

  9
$DIMALT
 70
     0
  9
$DIMALTD
 70
     2
  9
$DIMALTF
 40
25.4
  9
$DIMLFAC
 40
1.0
  9
$DIMTOFL
 70
     0
  9
$DIMTVP
 40
0.0
  9
$DIMTIX
 70
     0
  9
$DIMSOXD
 70
     0
  9
$DIMSAH
 70
     0
  9
$DIMBLK1
  1

  9
$DIMBLK2
  1

  9
$DIMSTYLE
  2
Standard
  9
$DIMCLRD
 70
     0
  9
$DIMCLRE
 70
     0
  9
$DIMCLRT
 70
     0
  9
$DIMTFAC
 40
1.0
  9
$DIMGAP
 40
0.06
  9
$DIMJUST
 70
     0
  9
$DIMSD1
 70
     0
  9
$DIMSD2
 70
     0
  9
$DIMTOLJ
 70
     1
  9
$DIMTZIN
 70
     1
  9
$DIMALTZ
 70
     0
  9
$DIMALTTZ
 70
     0
  9
$DIMUPT
 70
     0
  9
$DIMDEC
 70
     3
  9
$DIMTDEC
 70
     3
  9
$DIMALTU
 70
     2
  9
$DIMALTTD
 70
     2
  9
$DIMTXSTY
  7
Standard
  9
$DIMAUNIT
 70
     0
  9
$DIMADEC
 70
     3
  9
$DIMALTRND
 40
0.0
  9
$DIMAZIN
 70
     0
  9
$DIMDSEP
 70
    46
  9
$DIMATFIT
 70
     3
  9
$DIMFRAC
 70
     0
  9
$DIMLDRBLK
  1

  9
$DIMLUNIT
 70
     2
  9
$DIMLWD
 70
    -2
  9
$DIMLWE
 70
    -2
  9
$DIMTMOVE
 70
     0
  9
$LUNITS
 70
     2
  9
$LUPREC
 70
     3
  9
$SKETCHINC
 40
0.1
  9
$FILLETRAD
 40
0.5
  9
$AUNITS
 70
     0
  9
$AUPREC
 70
     2
  9
$MENU
  1
.
  9
$ELEVATION
 40
0.0
  9
$PELEVATION
 40
0.0
  9
$THICKNESS
 40
0.0
  9
$LIMCHECK
 70
     0
  9
$CHAMFERA
 40
0.0
  9
$CHAMFERB
 40
0.0
  9
$CHAMFERC
 40
0.0
  9
$CHAMFERD
 40
0.0
  9
$SKPOLY
 70
     0
  9
$TDCREATE
 40
2458710.570074097
  9
$TDUCREATE
 40
2458710.736740764
  9
$TDUPDATE
 40
2458710.570074722
  9
$TDUUPDATE
 40
2458710.736741389
  9
$TDINDWG
 40
0.0000000116
  9
$TDUSRTIMER
 40
0.0000000116
  9
$USRTIMER
 70
     1
  9
$ANGBASE
 50
0.0
  9
$ANGDIR
 70
     0
  9
$PDMODE
 70
     0
  9
$PDSIZE
 40
-1.0
  9
$PLINEWID
 40
0.0
  9
$SPLFRAME
 70
     0
  9
$SPLINETYPE
 70
     6
  9
$SPLINESEGS
 70
     8
  9
$HANDSEED
  5
441
  9
$SURFTAB1
 70
     6
  9
$SURFTAB2
 70
     6
  9
$SURFTYPE
 70
     6
  9
$SURFU
 70
     6
  9
$SURFV
 70
     6
  9
$UCSBASE
  2

  9
$UCSNAME
  2

  9
$UCSORG
 10
0.0
 20
0.0
 30
0.0
  9
$UCSXDIR
 10
1.0
 20
0.0
 30
0.0
  9
$UCSYDIR
 10
0.0
 20
1.0
 30
0.0
  9
$UCSORTHOREF
  2

  9
$UCSORTHOVIEW
 70
     0
  9
$UCSORGTOP
 10
0.0
 20
0.0
 30
0.0
  9
$UCSORGBOTTOM
 10
0.0
 20
0.0
 30
0.0
  9
$UCSORGLEFT
 10
0.0
 20
0.0
 30
0.0
  9
$UCSORGRIGHT
 10
0.0
 20
0.0
 30
0.0
  9
$UCSORGFRONT
 10
0.0
 20
0.0
 30
0.0
  9
$UCSORGBACK
 10
0.0
 20
0.0
 30
0.0
  9
$PUCSBASE
  2

  9
$PUCSNAME
  2

  9
$PUCSORG
 10
0.0
 20
0.0
 30
0.0
  9
$PUCSXDIR
 10
1.0
 20
0.0
 30
0.0
  9
$PUCSYDIR
 10
0.0
 20
1.0
 30
0.0
  9
$PUCSORTHOREF
  2

  9
$PUCSORTHOVIEW
 70
     0
  9
$PUCSORGTOP
 10
0.0
 20
0.0
 30
0.0
  9
$PUCSORGBOTTOM
 10
0.0
 20
0.0
 30
0.0
  9
$PUCSORGLEFT
 10
0.0
 20
0.0
 30
0.0
  9
$PUCSORGRIGHT
 10
0.0
 20
0.0
 30
0.0
  9
$PUCSORGFRONT
 10
0.0
 20
0.0
 30
0.0
  9
$PUCSORGBACK
 10
0.0
 20
0.0
 30
0.0
  9
$USERI1
 70
     0
  9
$USERI2
 70
     0
  9
$USERI3
 70
     0
  9
$USERI4
 70
     0
  9
$USERI5
 70
     0
  9
$USERR1
 40
0.0
  9
$USERR2
 40
0.0
  9
$USERR3
 40
0.0
  9
$USERR4
 40
0.0
  9
$USERR5
 40
0.0
  9
$WORLDVIEW
 70
     1
  9
$SHADEDGE
 70
     3
  9
$SHADEDIF
 70
    70
  9
$TILEMODE
 70
     1
  9
$MAXACTVP
 70
    64
  9
$PINSBASE
 10
0.0
 20
0.0
 30
0.0
  9
$PLIMCHECK
 70
     0
  9
$PEXTMIN
 10
1.0000000000E+20
 20
1.0000000000E+20
 30
1.0000000000E+20
  9
$PEXTMAX
 10
-1.0000000000E+20
 20
-1.0000000000E+20
 30
-1.0000000000E+20
  9
$PLIMMIN
 10
0.0
 20
0.0
  9
$PLIMMAX
 10
12.0
 20
9.0
  9
$UNITMODE
 70
     0
  9
$VISRETAIN
 70
     1
  9
$PLINEGEN
 70
     0
  9
$PSLTSCALE
 70
     1
  9
$TREEDEPTH
 70
  3020
  9
$CMLSTYLE
  2
Standard
  9
$CMLJUST
 70
     0
  9
$CMLSCALE
 40
1.0
  9
$PROXYGRAPHICS
 70
     1
  9
$MEASUREMENT
 70
     0
  9
$CELWEIGHT
370
    -1
  9
$ENDCAPS
280
     0
  9
$JOINSTYLE
280
     0
  9
$LWDISPLAY
290
     1
  9
$INSUNITS
 70
     1
  9
$HYPERLINKBASE
  1

  9
$STYLESHEET
  1

  9
$XEDIT
290
     1
  9
$CEPSNTYPE
380
     0
  9
$PSTYLEMODE
290
     1
  9
$FINGERPRINTGUID
  2
{b35638c8-6d11-4d24-af85-e2f5eb5fe450}
  9
$VERSIONGUID
  2
{FAEB1C32-E019-11D5-929B-00C0DF256EC4}
  9
$EXTNAMES
290
     1
  9
$PSVPSCALE
 40
0.0
  9
$OLESTARTUP
290
     0
  0
ENDSEC
  0
SECTION
  2
CLASSES
  0
CLASS
  1
ACDBDICTIONARYWDFLT
  2
AcDbDictionaryWithDefault
  3
ObjectDBX Classes
 90
        0
280
     0
281
     0
  0
CLASS
  1
VISUALSTYLE
  2
AcDbVisualStyle
  3
ObjectDBX Classes
 90
     4095
280
     0
281
     0
  0
CLASS
  1
MATERIAL
  2
AcDbMaterial
  3
ObjectDBX Classes
 90
     1153
280
     0
281
     0
  0
CLASS
  1
SCALE
  2
AcDbScale
  3
ObjectDBX Classes
 90
     1153
280
     0
281
     0
  0
CLASS
  1
TABLESTYLE
  2
AcDbTableStyle
  3
ObjectDBX Classes
 90
     4095
280
     0
281
     0
  0
CLASS
  1
MLEADERSTYLE
  2
AcDbMLeaderStyle
  3
ACDB_MLEADERSTYLE_CLASS
 90
     4095
280
     0
281
     0
  0
CLASS
  1
SUN
  2
AcDbSun
  3
SCENEOE
 90
     1153
280
     0
281
     0
  0
CLASS
  1
ACDBPLACEHOLDER
  2
AcDbPlaceHolder
  3
ObjectDBX Classes
 90
        0
280
     0
281
     0
  0
CLASS
  1
LAYOUT
  2
AcDbLayout
  3
ObjectDBX Classes
 90
        0
280
     0
281
     0
  0
ENDSEC
  0
SECTION
  2
TABLES
  0
TABLE
  2
VPORT
  5
8
330
0
100
AcDbSymbolTable
 70
     1
  0
VPORT
  5
29
330
8
100
AcDbSymbolTableRecord
100
AcDbViewportTableRecord
  2
*Active
 70
     0
 10
0.0
 20
0.0
 11
1.0
 21
1.0
 12
5.5
 22
4.25
 13
0.0
 23
0.0
 14
0.5
 24
0.5
 15
0.5
 25
0.5
 16
0.0
 26
0.0
 36
1.0
 17
0.0
 27
0.0
 37
0.0
 40
8.5
 41
1.2941176471
 42
50.0
 43
0.0
 44
0.0
 50
0.0
 51
0.0
 71
     0
 72
  2000
 73
     1
 74
     3
 75
     0
 76
     0
 77
     0
 78
     0
281
     0
 65
     1
110
0.0
120
0.0
130
0.0
111
1.0
121
0.0
131
0.0
112
0.0
122
1.0
132
0.0
 79
     0
146
0.0
  0
ENDTAB
  0
TABLE
  2
LTYPE
  5
5
330
0
100
AcDbSymbolTable
 70
     6
  0
LTYPE
  5
14
330
5
100
AcDbSymbolTableRecord
100
AcDbLinetypeTableRecord
  2
ByBlock
 70
     0
  3

 72
    65
 73
     0
 40
0.0
  0
LTYPE
  5
15
330
5
100
AcDbSymbolTableRecord
100
AcDbLinetypeTableRecord
  2
ByLayer
 70
     0
  3

 72
    65
 73
     0
 40
0.0
  0
LTYPE
  5
16
330
5
100
AcDbSymbolTableRecord
100
AcDbLinetypeTableRecord
  2
Continuous
 70
     0
  3
Solid line
 72
    65
 73
     0
 40
0.0
  0
LTYPE
  5
6E
330
5
100
AcDbSymbolTableRecord
100
AcDbLinetypeTableRecord
  2
HIDDEN
 70
     0
  3
Hidden __ __ __ __ __ __ __ __ __ __ __ __ __ __
 72
    65
 73
     2
 40
0.075
 49
0.05
 74
     0
 49
-0.025
 74
     0
  0
LTYPE
  5
6F
330
5
100
AcDbSymbolTableRecord
100
AcDbLinetypeTableRecord
  2
PHANTOM
 70
     0
  3
Phantom ______  __  __  ______  __  __  ______
 72
    65
 73
     6
 40
0.5
 49
0.25
 74
     0
 49
-0.05
 74
     0
 49
0.05
 74
     0
 49
-0.05
 74
     0
 49
0.05
 74
     0
 49
-0.05
 74
     0
  0
LTYPE
  5
70
330
5
100
AcDbSymbolTableRecord
100
AcDbLinetypeTableRecord
  2
CENTER
 70
     0
  3
Center ____ _ ____ _ ____ _ ____ _ ____ _ ____
 72
    65
 73
     4
 40
0.4
 49
0.25
 74
     0
 49
-0.05
 74
     0
 49
0.05
 74
     0
 49
-0.05
 74
     0
  0
LTYPE
  5
71
330
5
100
AcDbSymbolTableRecord
100
AcDbLinetypeTableRecord
  2
CENTERX2
 70
     0
  3
Center (2x) ________  __  ________  __  _____
 72
    65
 73
     4
 40
0.8
 49
0.5
 74
     0
 49
-0.1
 74
     0
 49
0.1
 74
     0
 49
-0.1
 74
     0
  0
LTYPE
  5
72
330
5
100
AcDbSymbolTableRecord
100
AcDbLinetypeTableRecord
  2
DOT2
 70
     0
  3
Dot (.5x) ........................................
 72
    65
 73
     2
 40
0.025
 49
0.0
 74
     0
 49
-0.025
 74
     0
  0
ENDTAB
  0
TABLE
  2
LAYER
  5
2
330
0
100
AcDbSymbolTable
 70
     5
  0
LAYER
  5
10
330
2
100
AcDbSymbolTableRecord
100
AcDbLayerTableRecord
  2
0
 70
     0
 62
     7
  6
Continuous
370
    -3
390
F
  0
LAYER
  5
73
330
2
100
AcDbSymbolTableRecord
100
AcDbLayerTableRecord
  2
SLD-0
 70
     0
 62
   179
  6
Continuous
370
    -3
390
F
  0
LAYER
  5
74
330
2
100
AcDbSymbolTableRecord
100
AcDbLayerTableRecord
  2
3
 70
     0
 62
     7
  6
Continuous
370
    -3
390
F
  0
LAYER
  5
75
330
2
100
AcDbSymbolTableRecord
100
AcDbLayerTableRecord
  2
1
 70
     0
 62
     7
  6
Continuous
370
    -3
390
F
  0
LAYER
  5
76
330
2
100
AcDbSymbolTableRecord
100
AcDbLayerTableRecord
  2
FORMAT
 70
     0
 62
     7
  6
Continuous
370
    -3
390
F
  0
ENDTAB
  0
TABLE
  2
STYLE
  5
3
330
0
100
AcDbSymbolTable
 70
     1
  0
STYLE
  5
11
330
3
100
AcDbSymbolTableRecord
100
AcDbTextStyleTableRecord
  2
Standard
 70
     0
 40
0.0
 41
1.0
 50
0.0
 71
     0
 42
0.125
  3
txt
  4

  0
ENDTAB
  0
TABLE
  2
VIEW
  5
6
330
0
100
AcDbSymbolTable
 70
     0
  0
ENDTAB
  0
TABLE
  2
UCS
  5
7
330
0
100
AcDbSymbolTable
 70
     0
  0
ENDTAB
  0
TABLE
  2
APPID
  5
9
330
0
100
AcDbSymbolTable
 70
     1
  0
APPID
  5
12
330
9
100
AcDbSymbolTableRecord
100
AcDbRegAppTableRecord
  2
ACAD
 70
     0
  0
ENDTAB
  0
TABLE
  2
DIMSTYLE
  5
A
330
0
100
AcDbSymbolTable
 70
     1
100
AcDbDimStyleTable
  0
DIMSTYLE
105
27
330
A
100
AcDbSymbolTableRecord
100
AcDbDimStyleTableRecord
  2
Standard
 70
     0
178
     0
340
11
  0
ENDTAB
  0
TABLE
  2
BLOCK_RECORD
  5
1
330
0
100
AcDbSymbolTable
 70
     1
  0
BLOCK_RECORD
  5
1F
330
1
100
AcDbSymbolTableRecord
100
AcDbBlockTableRecord
  2
*Model_Space
340
22
  0
BLOCK_RECORD
  5
1B
330
1
100
AcDbSymbolTableRecord
100
AcDbBlockTableRecord
  2
*Paper_Space
340
1E
  0
BLOCK_RECORD
  5
23
330
1
100
AcDbSymbolTableRecord
100
AcDbBlockTableRecord
  2
*Paper_Space0
340
26
  0
ENDTAB
  0
ENDSEC
  0
SECTION
  2
BLOCKS
  0
BLOCK
  5
20
330
1F
100
AcDbEntity
  8
0
100
AcDbBlockBegin
  2
*Model_Space
 70
     0
 10
0.0
 20
0.0
 30
0.0
  3
*Model_Space
  1

  0
ENDBLK
  5
21
330
1F
100
AcDbEntity
  8
0
100
AcDbBlockEnd
  0
BLOCK
  5
1C
330
1B
100
AcDbEntity
 67
     1
  8
0
100
AcDbBlockBegin
  2
*Paper_Space
 70
     0
 10
0.0
 20
0.0
 30
0.0
  3
*Paper_Space
  1

  0
ENDBLK
  5
1D
330
1B
100
AcDbEntity
 67
     1
  8
0
100
AcDbBlockEnd
  0
BLOCK
  5
24
330
23
100
AcDbEntity
  8
0
100
AcDbBlockBegin
  2
*Paper_Space0
 70
     0
 10
0.0
 20
0.0
 30
0.0
  3
*Paper_Space0
  1

  0
ENDBLK
  5
25
330
23
100
AcDbEntity
  8
0
100
AcDbBlockEnd
  0
ENDSEC
  0
SECTION
  2
ENTITIES
  0
LINE
  5
77
330
1F
100
AcDbEntity
  8
0
  6
Continuous
 62
     7
370
    25
100
AcDbLine
 10
3.0744047002
 20
3.0459598078
 30
0.0
 11
3.0744047002
 21
4.6209598078
 31
0.0
  0
LINE
  5
78
330
1F
100
AcDbEntity
  8
0
  6
Continuous
 62
     7
370
    25
100
AcDbLine
 10
2.2344047002
 20
4.6209598078
 30
0.0
 11
2.2344047002
 21
3.0459598078
 31
0.0
  0
LINE
  5
79
330
1F
100
AcDbEntity
  8
0
  6
Continuous
 62
     7
370
    25
100
AcDbLine
 10
2.3744047002
 20
2.0889598078
 30
0.0
 11
2.3744047002
 21
1.6589598078
 31
0.0
  0
LINE
  5
7A
330
1F
100
AcDbEntity
  8
0
  6
Continuous
 62
     7
370
    25
100
AcDbLine
 10
2.9344047002
 20
1.6589598078
 30
0.0
 11
2.9344047002
 21
2.0889598078
 31
0.0
  0
LINE
  5
7B
330
1F
100
AcDbEntity
  8
0
  6
Continuous
 62
     7
370
    25
100
AcDbLine
 10
2.9044047002
 20
1.6509598078
 30
0.0
 11
2.8964047002
 21
1.6589598078
 31
0.0
  0
LINE
  5
7C
330
1F
100
AcDbEntity
  8
0
  6
Continuous
 62
     7
370
    25
100
AcDbLine
 10
2.4124047002
 20
1.6589598078
 30
0.0
 11
2.4044047002
 21
1.6509598078
 31
0.0
  0
LINE
  5
7D
330
1F
100
AcDbEntity
  8
0
  6
Continuous
 62
     7
370
    25
100
AcDbLine
 10
2.4044047002
 20
1.5969598078
 30
0.0
 11
2.4124047002
 21
1.5889598078
 31
0.0
  0
LINE
  5
7E
330
1F
100
AcDbEntity
  8
0
  6
Continuous
 62
     7
370
    25
100
AcDbLine
 10
2.8964047002
 20
1.5889598078
 30
0.0
 11
2.9044047002
 21
1.5969598078
 31
0.0
  0
LINE
  5
7F
330
1F
100
AcDbEntity
  8
0
  6
Continuous
 62
     7
370
    25
100
AcDbLine
 10
2.4044047002
 20
1.6509598078
 30
0.0
 11
2.4044047002
 21
1.5969598078
 31
0.0
  0
LINE
  5
80
330
1F
100
AcDbEntity
  8
0
  6
Continuous
 62
     7
370
    25
100
AcDbLine
 10
2.9044047002
 20
1.5969598078
 30
0.0
 11
2.9044047002
 21
1.6509598078
 31
0.0
  0
LINE
  5
81
330
1F
100
AcDbEntity
  8
0
  6
Continuous
 62
     7
370
    25
100
AcDbLine
 10
2.8784047002
 20
1.5009598078
 30
0.0
 11
2.8784047002
 21
1.5889598078
 31
0.0
  0
LINE
  5
82
330
1F
100
AcDbEntity
  8
0
  6
Continuous
 62
     7
370
    25
100
AcDbLine
 10
2.4304047002
 20
1.5889598078
 30
0.0
 11
2.4304047002
 21
1.5009598078
 31
0.0
  0
ARC
  5
83
330
1F
100
AcDbEntity
  8
0
  6
Continuous
 62
     7
370
    25
100
AcDbCircle
 10
2.4994047002
 20
1.5009598078
 30
0.0
 40
0.0300000000000002
100
AcDbArc
 50
180.0
 51
270.0
  0
ARC
  5
84
330
1F
100
AcDbEntity
  8
0
  6
Continuous
 62
     7
370
    25
100
AcDbCircle
 10
2.8094047002
 20
1.5009598078
 30
0.0
 40
0.0300000000000002
100
AcDbArc
 50
270.0
 51
360.0
  0
LINE
  5
85
330
1F
100
AcDbEntity
  8
0
  6
Continuous
 62
     7
370
    25
100
AcDbLine
 10
2.4994047002
 20
1.4709598078
 30
0.0
 11
2.8094047002
 21
1.4709598078
 31
0.0
  0
LINE
  5
86
330
1F
100
AcDbEntity
  8
0
  6
Continuous
 62
     7
370
    25
100
AcDbLine
 10
2.4669047002
 20
2.6609598078
 30
0.0
 11
2.4669047002
 21
2.3689598078
 31
0.0
  0
LINE
  5
87
330
1F
100
AcDbEntity
  8
0
  6
Continuous
 62
     7
370
    25
100
AcDbLine
 10
2.8419047002
 20
2.3689598078
 30
0.0
 11
2.8419047002
 21
2.6609598078
 31
0.0
  0
ARC
  5
88
330
1F
100
AcDbEntity
  8
0
  6
Continuous
 62
     7
370
    25
100
AcDbCircle
 10
2.2444047002
 20
2.8459598078
 30
0.0
 40
0.0100000000000002
100
AcDbArc
 50
180.0
 51
270.0
  0
ARC
  5
89
330
1F
100
AcDbEntity
  8
0
  6
Continuous
 62
     7
370
    25
100
AcDbCircle
 10
3.0644047002
 20
2.8459598078
 30
0.0
 40
0.0100000000000002
100
AcDbArc
 50
270.0
 51
0.0
  0
ARC
  5
8A
330
1F
100
AcDbEntity
  8
0
  6
Continuous
 62
     7
370
    25
100
AcDbCircle
 10
2.2444047002
 20
3.0359598078
 30
0.0
 40
0.0100000000000002
100
AcDbArc
 50
90.0
 51
180.0
  0
ARC
  5
8B
330
1F
100
AcDbEntity
  8
0
  6
Continuous
 62
     7
370
    25
100
AcDbCircle
 10
3.0644047002
 20
3.0359598078
 30
0.0
 40
0.0100000000000002
100
AcDbArc
 50
0.0
 51
90.0
  0
LINE
  5
8C
330
1F
100
AcDbEntity
  8
0
  6
Continuous
 62
     7
370
    25
100
AcDbLine
 10
3.0744047002
 20
2.8459598078
 30
0.0
 11
3.0744047002
 21
3.0359598078
 31
0.0
  0
LINE
  5
8D
330
1F
100
AcDbEntity
  8
0
  6
Continuous
 62
     7
370
    25
100
AcDbLine
 10
2.2344047002
 20
3.0359598078
 30
0.0
 11
2.2344047002
 21
2.8459598078
 31
0.0
  0
ARC
  5
8E
330
1F
100
AcDbEntity
  8
0
  6
Continuous
 62
     7
370
    25
100
AcDbCircle
 10
2.4469047002
 20
2.8159598078
 30
0.0
 40
0.02
100
AcDbArc
 50
0.0
 51
90.0
  0
ARC
  5
8F
330
1F
100
AcDbEntity
  8
0
  6
Continuous
 62
     7
370
    25
100
AcDbCircle
 10
2.8619047002
 20
2.8159598078
 30
0.0
 40
0.02
100
AcDbArc
 50
90.0
 51
180.0
  0
LINE
  5
90
330
1F
100
AcDbEntity
  8
0
  6
Continuous
 62
     7
370
    25
100
AcDbLine
 10
2.8419047002
 20
2.6609598078
 30
0.0
 11
2.8419047002
 21
2.8159598078
 31
0.0
  0
LINE
  5
91
330
1F
100
AcDbEntity
  8
0
  6
Continuous
 62
     7
370
    25
100
AcDbLine
 10
2.4669047002
 20
2.8159598078
 30
0.0
 11
2.4669047002
 21
2.6609598078
 31
0.0
  0
ARC
  5
92
330
1F
100
AcDbEntity
  8
0
  6
Continuous
 62
     7
370
    25
100
AcDbCircle
 10
3.0351842278
 20
4.8839519338
 30
0.0
 40
0.0314960629921259
100
AcDbArc
 50
180.0
 51
270.0
  0
ARC
  5
93
330
1F
100
AcDbEntity
  8
0
  6
Continuous
 62
     7
370
    25
100
AcDbCircle
 10
2.2737669049
 20
4.8839519338
 30
0.0
 40
0.0314960629921259
100
AcDbArc
 50
270.0
 51
0.0
  0
LINE
  5
94
330
1F
100
AcDbEntity
  8
0
  6
Continuous
 62
     7
370
    25
100
AcDbLine
 10
3.0036881648
 20
4.8839519338
 30
0.0
 11
3.0036881648
 21
5.0424830361
 31
0.0
  0
ARC
  5
95
330
1F
100
AcDbEntity
  8
0
  6
Continuous
 62
     7
370
    25
100
AcDbCircle
 10
2.9391212356
 20
5.0424830361
 30
0.0
 40
0.0645669291336795
100
AcDbArc
 50
359.9999999999
 51
40.8786351465
  0
LINE
  5
96
330
1F
100
AcDbEntity
  8
0
  6
Continuous
 62
     7
370
    25
100
AcDbLine
 10
2.3052629679
 20
5.0424830361
 30
0.0
 11
2.3052629679
 21
4.8839519338
 31
0.0
  0
ARC
  5
97
330
1F
100
AcDbEntity
  8
0
  6
Continuous
 62
     7
370
    25
100
AcDbCircle
 10
2.3698298971
 20
5.0424830361
 30
0.0
 40
0.064566929133929
100
AcDbArc
 50
139.1213648535
 51
180.0
  0
LWPOLYLINE
  5
98
330
1F
100
AcDbEntity
  8
0
  6
Continuous
 62
   144
370
    18
100
AcDbPolyline
 90
        3
 70
   128
 43
0.0
 10
2.249988128
 20
4.8367078393
 10
2.2583085654
 20
4.8358757057
 10
2.2647117868
 20
4.8340452785
  0
LINE
  5
99
330
1F
100
AcDbEntity
  8
0
  6
Continuous
 62
     7
370
    25
100
AcDbLine
 10
2.2344047002
 20
3.0459598078
 30
0.0
 11
3.0744047002
 21
3.0459598078
 31
0.0
  0
SPLINE
  5
9A
330
1F
100
AcDbEntity
  8
0
  6
Continuous
 62
     7
370
    25
100
AcDbSpline
210
0.0
220
0.0
230
1.0
 70
    11
 71
     3
 72
    54
 73
    50
 74
     0
 42
0.000000001
 43
0.00000001
 40
0.0
 40
0.0
 40
0.0
 40
0.0
 40
0.0312499999999976
 40
0.0312499999999976
 40
0.0624999999999953
 40
0.0624999999999953
 40
0.0937499999999929
 40
0.0937499999999929
 40
0.1249999999999905
 40
0.1249999999999905
 40
0.1874999999999857
 40
0.1874999999999857
 40
0.249999999999981
 40
0.249999999999981
 40
0.2812499999999797
 40
0.2812499999999797
 40
0.3124999999999785
 40
0.3124999999999785
 40
0.3749999999999782
 40
0.3749999999999782
 40
0.406249999999978
 40
0.406249999999978
 40
0.4374999999999779
 40
0.4374999999999779
 40
0.4999999999999785
 40
0.4999999999999785
 40
0.5312499999999787
 40
0.5312499999999787
 40
0.5624999999999789
 40
0.5624999999999789
 40
0.5937499999999792
 40
0.5937499999999792
 40
0.6249999999999795
 40
0.6249999999999795
 40
0.6874999999999818
 40
0.6874999999999818
 40
0.749999999999984
 40
0.749999999999984
 40
0.7812499999999863
 40
0.7812499999999863
 40
0.8124999999999886
 40
0.8124999999999886
 40
0.8749999999999932
 40
0.8749999999999932
 40
0.9062499999999948
 40
0.9062499999999948
 40
0.9374999999999963
 40
0.9374999999999963
 40
1.0
 40
1.0
 40
1.0
 40
1.0
 10
2.65440470021376
 20
4.414459807772685
 30
0.0
 10
2.650667927031661
 20
4.414459807772685
 30
0.0
 10
2.646994431197436
 20
4.414826860797822
 30
0.0
 10
2.63976856209273
 20
4.41626425691268
 30
0.0
 10
2.636178430852572
 20
4.417352346911644
 30
0.0
 10
2.629338867395751
 20
4.420189139272709
 30
0.0
 10
2.626095606000271
 20
4.42192446754622
 30
0.0
 10
2.61995760114823
 20
4.42602355545584
 30
0.0
 10
2.617054631621687
 20
4.428406675992004
 30
0.0
 10
2.609247149622125
 20
4.436214560367172
 30
0.0
 10
2.605038858504908
 20
4.442510002246029
 30
0.0
 10
2.599399382317011
 20
4.456100710720523
 30
0.0
 10
2.597910148082279
 20
4.463540506810366
 30
0.0
 10
2.597901999255559
 20
4.474607052795254
 30
0.0
 10
2.598268954543538
 20
4.478354700620035
 30
0.0
 10
2.599710427879307
 20
4.485603678708346
 30
0.0
 10
2.600777239198054
 20
4.489127441405906
 30
0.0
 10
2.605023123164972
 20
4.499395345317505
 30
0.0
 10
2.609162568020394
 20
4.505614000550337
 30
0.0
 10
2.617060231211483
 20
4.513521751285126
 30
0.0
 10
2.619908186902998
 20
4.515857113335812
 30
0.0
 10
2.626019998477781
 20
4.519950482240261
 30
0.0
 10
2.629323435594258
 20
4.521722782600341
 30
0.0
 10
2.639578675952597
 20
4.525980138539353
 30
0.0
 10
2.6469312847915
 20
4.52745982343102
 30
0.0
 10
2.658141585492046
 20
4.527459799943334
 30
0.0
 10
2.661815075277296
 20
4.527092740440053
 30
0.0
 10
2.669040932583798
 20
4.525655333096351
 30
0.0
 10
2.672631058164032
 20
4.524567238130336
 30
0.0
 10
2.679470606946698
 20
4.521730439375388
 30
0.0
 10
2.682713861565465
 20
4.519995108901919
 30
0.0
 10
2.688851853670551
 20
4.515896018026729
 30
0.0
 10
2.691754816292511
 20
4.51351289743518
 30
0.0
 10
2.699562279499431
 20
4.505705015740687
 30
0.0
 10
2.703770560306561
 20
4.499409578893606
 30
0.0
 10
2.709410022058293
 20
4.485818885412775
 30
0.0
 10
2.710899252352403
 20
4.478379098996752
 30
0.0
 10
2.710907401168381
 20
4.467312567619362
 30
0.0
 10
2.710540446864202
 20
4.463564924762295
 30
0.0
 10
2.709098977276122
 20
4.456315955705504
 30
0.0
 10
2.70803216871238
 20
4.452792197267462
 30
0.0
 10
2.703786295923403
 20
4.442524305291994
 30
0.0
 10
2.699646862561451
 20
4.436305656199723
 30
0.0
 10
2.691749216686958
 20
4.428397906285944
 30
0.0
 10
2.688901267224136
 20
4.426062543880256
 30
0.0
 10
2.682789469261235
 20
4.421969172681382
 30
0.0
 10
2.679486039902047
 20
4.420196870346733
 30
0.0
 10
2.669230817996315
 20
4.415939503355315
 30
0.0
 10
2.66187824657796
 20
4.414459807772685
 30
0.0
 10
2.65440470021376
 20
4.414459807772685
 30
0.0
  0
SPLINE
  5
9B
330
1F
100
AcDbEntity
  8
0
  6
Continuous
 62
     7
370
    25
100
AcDbSpline
210
0.0
220
0.0
230
1.0
 70
    11
 71
     3
 72
    54
 73
    50
 74
     0
 42
0.000000001
 43
0.00000001
 40
0.0
 40
0.0
 40
0.0
 40
0.0
 40
0.03125
 40
0.03125
 40
0.0625000000000001
 40
0.0625000000000001
 40
0.0937500000000001
 40
0.0937500000000001
 40
0.1250000000000002
 40
0.1250000000000002
 40
0.1875
 40
0.1875
 40
0.2499999999999999
 40
0.2499999999999999
 40
0.2812500000000002
 40
0.2812500000000002
 40
0.3125000000000004
 40
0.3125000000000004
 40
0.3750000000000013
 40
0.3750000000000013
 40
0.4062500000000017
 40
0.4062500000000017
 40
0.437500000000002
 40
0.437500000000002
 40
0.5000000000000027
 40
0.5000000000000027
 40
0.531250000000003
 40
0.531250000000003
 40
0.5625000000000034
 40
0.5625000000000034
 40
0.5937500000000038
 40
0.5937500000000038
 40
0.6250000000000042
 40
0.6250000000000042
 40
0.6875000000000037
 40
0.6875000000000037
 40
0.7500000000000032
 40
0.7500000000000032
 40
0.7812500000000031
 40
0.7812500000000031
 40
0.8125000000000031
 40
0.8125000000000031
 40
0.8750000000000022
 40
0.8750000000000022
 40
0.9062500000000011
 40
0.9062500000000011
 40
0.9375
 40
0.9375
 40
1.0
 40
1.0
 40
1.0
 40
1.0
 10
2.903888709099865
 20
4.335959807772687
 30
0.0
 10
2.903888709099865
 20
4.340094527399955
 30
0.0
 10
2.90421960466327
 20
4.344158996531054
 30
0.0
 10
2.905510308974199
 20
4.352153541995334
 30
0.0
 10
2.906486031534604
 20
4.356125468598703
 30
0.0
 10
2.909013083953112
 20
4.363690658482351
 30
0.0
 10
2.910552707890063
 20
4.367277845221404
 30
0.0
 10
2.914158712948681
 20
4.374066786614618
 30
0.0
 10
2.916241001227116
 20
4.377276776366849
 30
0.0
 10
2.922992417034449
 20
4.385910808029873
 30
0.0
 10
2.928346251485908
 20
4.390565838938413
 30
0.0
 10
2.939583637293431
 20
4.396805124744533
 30
0.0
 10
2.945583304884284
 20
4.398453670798708
 30
0.0
 10
2.954242974923002
 20
4.398462849920176
 30
0.0
 10
2.957132185008706
 20
4.398056680765447
 30
0.0
 10
2.962638205051991
 20
4.396461692002727
 30
0.0
 10
2.965274191514836
 20
4.395281263219428
 30
0.0
 10
2.972849607031501
 20
4.390582765538308
 30
0.0
 10
2.977288647923324
 20
4.386001676721269
 30
0.0
 10
2.982816347868972
 20
4.377270585289436
 30
0.0
 10
2.984427873153046
 20
4.374121608449322
 30
0.0
 10
2.987230590739303
 20
4.367361901887442
 30
0.0
 10
2.988431232827864
 20
4.363707001096019
 30
0.0
 10
2.991298911468344
 20
4.352366134007248
 30
0.0
 10
2.992277063842003
 20
4.344229148292989
 30
0.0
 10
2.99227705320122
 20
4.331825003630603
 30
0.0
 10
2.992033424491071
 20
4.327760539062912
 30
0.0
 10
2.991074585620136
 20
4.31976600249814
 30
0.0
 10
2.990347407640476
 20
4.315794080174839
 30
0.0
 10
2.988436239450242
 20
4.30822890135473
 30
0.0
 10
2.987261134451527
 20
4.304641719723654
 30
0.0
 10
2.98445478663891
 20
4.29785278793717
 30
0.0
 10
2.982810112290079
 20
4.294642803397926
 30
0.0
 10
2.977350719219501
 20
4.286008785886978
 30
0.0
 10
2.972858305614135
 20
4.281353762750207
 30
0.0
 10
2.962835650052887
 20
4.275114487821982
 30
0.0
 10
2.957194495032263
 20
4.273465944741165
 30
0.0
 10
2.948536764512012
 20
4.273456765627945
 30
0.0
 10
2.945561298987973
 20
4.273862934040875
 30
0.0
 10
2.939725930415396
 20
4.275457919977877
 30
0.0
 10
2.936848593876141
 20
4.276638346683853
 30
0.0
 10
2.928357977065377
 20
4.281336835935027
 30
0.0
 10
2.92306864022602
 20
4.285917916115283
 30
0.0
 10
2.91623363024618
 20
4.294648994491605
 30
0.0
 10
2.914192927368982
 20
4.297797966633559
 30
0.0
 10
2.910592411637931
 20
4.304557662920824
 30
0.0
 10
2.909019700113013
 20
4.308212557892947
 30
0.0
 10
2.905228030652511
 20
4.319553411042511
 30
0.0
 10
2.903888709099865
 20
4.327690368518149
 30
0.0
 10
2.903888709099865
 20
4.335959807772687
 30
0.0
  0
LINE
  5
9C
330
1F
100
AcDbEntity
  8
0
  6
Continuous
 62
   144
370
    18
100
AcDbLine
 10
2.9766650741
 20
4.6209598078
 30
0.0
 11
2.3321443263
 21
4.6209598078
 31
0.0
  0
SPLINE
  5
9D
330
1F
100
AcDbEntity
  8
0
  6
Continuous
 62
   144
370
    18
100
AcDbSpline
210
0.0
220
0.0
230
1.0
 70
     8
 71
     3
 72
    15
 73
    11
 74
     0
 42
0.000000001
 43
0.00000001
 40
0.0
 40
0.0
 40
0.0
 40
0.0
 40
0.1485058017056528
 40
0.2970383439407583
 40
0.407377656328575
 40
0.5541907529702101
 40
0.7009584758734694
 40
0.8489010312512405
 40
0.9976319788008501
 40
1.0
 40
1.0
 40
1.0
 40
1.0
 10
2.957191000179089
 20
4.285959807772685
 30
0.0
 10
2.960472957702599
 20
4.290732508628662
 30
0.0
 10
2.967037463711594
 20
4.300278769731605
 30
0.0
 10
2.971653345705505
 20
4.318503365610764
 30
0.0
 10
2.973128481541674
 20
4.337670112781799
 30
0.0
 10
2.971194770486735
 20
4.356863651594225
 30
0.0
 10
2.965067844809345
 20
4.375635439736467
 30
0.0
 10
2.955003728485256
 20
4.389235246994307
 30
0.0
 10
2.946538216297498
 20
4.39647742733299
 30
0.0
 10
2.94153464509025
 20
4.396876744058281
 30
0.0
 10
2.94145622918319
 20
4.396883002145139
 30
0.0
  0
SPLINE
  5
9E
330
1F
100
AcDbEntity
  8
0
  6
Continuous
 62
   144
370
    18
100
AcDbSpline
210
0.0
220
0.0
230
1.0
 70
     8
 71
     3
 72
     9
 73
     5
 74
     0
 42
0.000000001
 43
0.00000001
 40
0.0
 40
0.0
 40
0.0
 40
0.0
 40
0.403697833509726
 40
1.0
 40
1.0
 40
1.0
 40
1.0
 10
2.938552707117311
 20
4.276907573673708
 30
0.0
 10
2.94103750151298
 20
4.277727485187509
 30
0.0
 10
2.947192586305152
 20
4.279758488194571
 30
0.0
 10
2.953456070803153
 20
4.28364329127778
 30
0.0
 10
2.957191000179089
 20
4.285959807772685
 30
0.0
  0
LWPOLYLINE
  5
9F
330
1F
100
AcDbEntity
  8
0
  6
Continuous
 62
   144
370
    18
100
AcDbPolyline
 90
        3
 70
   128
 43
0.0
 10
3.0442393459
 20
4.8340452785
 10
3.0506425674
 20
4.8358757057
 10
3.0589630047
 20
4.8367078393
  0
LINE
  5
A0
330
1F
100
AcDbEntity
  8
0
  6
Continuous
 62
     7
370
    25
100
AcDbLine
 10
2.9766650741
 20
4.6209598078
 30
0.0
 11
2.9766650741
 21
4.8209598078
 31
0.0
  0
LINE
  5
A1
330
1F
100
AcDbEntity
  8
0
  6
Continuous
 62
     7
370
    25
100
AcDbLine
 10
2.9766650741
 20
4.6209598078
 30
0.0
 11
2.3321443263
 21
4.6209598078
 31
0.0
  0
LINE
  5
A2
330
1F
100
AcDbEntity
  8
0
  6
Continuous
 62
     7
370
    25
100
AcDbLine
 10
2.3321443263
 20
4.8209598078
 30
0.0
 11
2.3321443263
 21
4.6209598078
 31
0.0
  0
LINE
  5
A3
330
1F
100
AcDbEntity
  8
0
  6
Continuous
 62
     7
370
    25
100
AcDbLine
 10
2.9766650741
 20
4.8209598078
 30
0.0
 11
2.3321443263
 21
4.8209598078
 31
0.0
  0
LINE
  5
A4
330
1F
100
AcDbEntity
  8
0
  6
Continuous
 62
     7
370
    25
100
AcDbLine
 10
2.0844047002
 20
4.6209598078
 30
0.0
 11
2.0444047002
 21
4.6209598078
 31
0.0
  0
LINE
  5
A5
330
1F
100
AcDbEntity
  8
0
  6
Continuous
 62
     7
370
    25
100
AcDbLine
 10
2.3014528621
 20
4.6209598078
 30
0.0
 11
2.0844047002
 21
4.6209598078
 31
0.0
  0
LINE
  5
A6
330
1F
100
AcDbEntity
  8
0
  6
Continuous
 62
     7
370
    25
100
AcDbLine
 10
2.3321443263
 20
4.6209598078
 30
0.0
 11
2.3014528621
 21
4.6209598078
 31
0.0
  0
LINE
  5
A7
330
1F
100
AcDbEntity
  8
0
  6
Continuous
 62
     7
370
    25
100
AcDbLine
 10
3.0073565383
 20
4.6209598078
 30
0.0
 11
2.9766650741
 21
4.6209598078
 31
0.0
  0
LINE
  5
A8
330
1F
100
AcDbEntity
  8
0
  6
Continuous
 62
     7
370
    25
100
AcDbLine
 10
3.2244047002
 20
4.6209598078
 30
0.0
 11
3.0073565383
 21
4.6209598078
 31
0.0
  0
LINE
  5
A9
330
1F
100
AcDbEntity
  8
0
  6
Continuous
 62
     7
370
    25
100
AcDbLine
 10
3.2644047002
 20
4.6209598078
 30
0.0
 11
3.2244047002
 21
4.6209598078
 31
0.0
  0
LINE
  5
AA
330
1F
100
AcDbEntity
  8
0
  6
Continuous
 62
     7
370
    25
100
AcDbLine
 10
3.2244047002
 20
4.8209598078
 30
0.0
 11
3.2644047002
 21
4.8209598078
 31
0.0
  0
LINE
  5
AB
330
1F
100
AcDbEntity
  8
0
  6
Continuous
 62
     7
370
    25
100
AcDbLine
 10
3.2244047002
 20
4.8209598078
 30
0.0
 11
3.0073565383
 21
4.8209598078
 31
0.0
  0
LINE
  5
AC
330
1F
100
AcDbEntity
  8
0
  6
Continuous
 62
     7
370
    25
100
AcDbLine
 10
2.9766650741
 20
4.8209598078
 30
0.0
 11
3.0073565383
 21
4.8209598078
 31
0.0
  0
LINE
  5
AD
330
1F
100
AcDbEntity
  8
0
  6
Continuous
 62
     7
370
    25
100
AcDbLine
 10
2.3014528621
 20
4.8209598078
 30
0.0
 11
2.3321443263
 21
4.8209598078
 31
0.0
  0
LINE
  5
AE
330
1F
100
AcDbEntity
  8
0
  6
Continuous
 62
     7
370
    25
100
AcDbLine
 10
2.3014528621
 20
4.8209598078
 30
0.0
 11
2.0844047002
 21
4.8209598078
 31
0.0
  0
LINE
  5
AF
330
1F
100
AcDbEntity
  8
0
  6
Continuous
 62
     7
370
    25
100
AcDbLine
 10
2.0444047002
 20
4.8209598078
 30
0.0
 11
2.0844047002
 21
4.8209598078
 31
0.0
  0
SPLINE
  5
B0
330
1F
100
AcDbEntity
  8
0
  6
Continuous
 62
     7
370
    25
100
AcDbSpline
210
0.0
220
0.0
230
1.0
 70
    11
 71
     3
 72
    38
 73
    34
 74
     0
 42
0.000000001
 43
0.00000001
 40
0.0
 40
0.0
 40
0.0
 40
0.0
 40
0.0625
 40
0.0625
 40
0.125
 40
0.125
 40
0.1875
 40
0.1875
 40
0.25
 40
0.25
 40
0.3125
 40
0.3125
 40
0.375
 40
0.375
 40
0.4375
 40
0.4375
 40
0.5
 40
0.5
 40
0.5625
 40
0.5625
 40
0.625
 40
0.625
 40
0.6875
 40
0.6875
 40
0.75
 40
0.75
 40
0.8125
 40
0.8125
 40
0.875
 40
0.875
 40
0.9375
 40
0.9375
 40
1.0
 40
1.0
 40
1.0
 40
1.0
 10
2.654404700213758
 20
4.515459807772687
 30
0.0
 10
2.660289676561273
 20
4.515459807772686
 30
0.0
 10
2.666064076574508
 20
4.514299517891907
 30
0.0
 10
2.676839747696064
 20
4.509830621692727
 30
0.0
 10
2.681773241106812
 20
4.506524647063517
 30
0.0
 10
2.689975390848867
 20
4.49832074328554
 30
0.0
 10
2.693290056277283
 20
4.493359970400514
 30
0.0
 10
2.697730273937311
 20
4.482653090607939
 30
0.0
 10
2.698901487642646
 20
4.476793854138338
 30
0.0
 10
2.698907899234362
 20
4.465174873423821
 30
0.0
 10
2.697755127982237
 20
4.459339956457212
 30
0.0
 10
2.693295292443042
 20
4.448558862070342
 30
0.0
 10
2.690035094051406
 20
4.443661093531441
 30
0.0
 10
2.681732491418884
 20
4.435351710489904
 30
0.0
 10
2.67683894329785
 20
4.432088561946007
 30
0.0
 10
2.666063600970785
 20
4.427619998728206
 30
0.0
 10
2.660231679673628
 20
4.426461971957963
 30
0.0
 10
2.648610823052981
 20
4.426457649743377
 30
0.0
 10
2.642751358549429
 20
4.42762325646729
 30
0.0
 10
2.632037539124154
 20
4.432055217352243
 30
0.0
 10
2.627074716226339
 20
4.435365157688864
 30
0.0
 10
2.618862351318075
 20
4.443561841163465
 30
0.0
 10
2.61555357960937
 20
4.44849075287854
 30
0.0
 10
2.611075410171192
 20
4.459261918028803
 30
0.0
 10
2.609910167506387
 20
4.465034921825457
 30
0.0
 10
2.609899271077765
 20
4.476802280858291
 30
0.0
 10
2.611054250928019
 20
4.48257948461502
 30
0.0
 10
2.615513856511128
 20
4.493360268020041
 30
0.0
 10
2.618815409415295
 20
4.498296563225816
 30
0.0
 10
2.627012116957633
 20
4.506506146554592
 30
0.0
 10
2.631969959226841
 20
4.509825232340608
 30
0.0
 10
2.642672991152413
 20
4.514274999478309
 30
0.0
 10
2.648519723866242
 20
4.515459807772688
 30
0.0
 10
2.654404700213758
 20
4.515459807772687
 30
0.0
  0
SPLINE
  5
B1
330
1F
100
AcDbEntity
  8
0
  6
Continuous
 62
     7
370
    25
100
AcDbSpline
210
0.0
220
0.0
230
1.0
 70
     8
 71
     3
 72
    14
 73
    10
 74
     0
 42
0.000000001
 43
0.00000001
 40
0.0
 40
0.0
 40
0.0
 40
0.0
 40
0.1408806043322425
 40
0.3018212719284895
 40
0.4618115112688104
 40
0.6222704845526948
 40
0.7838969865901488
 40
0.9455868364283717
 40
1.0
 40
1.0
 40
1.0
 40
1.0
 10
2.910025852752198
 20
4.364078347122622
 30
0.0
 10
2.913327943147135
 20
4.366267299453217
 30
0.0
 10
2.920402310323134
 20
4.370956890186751
 30
0.0
 10
2.932145995916755
 20
4.371512375046858
 30
0.0
 10
2.943245840778214
 20
4.366919552803259
 30
0.0
 10
2.952327294569857
 20
4.357083641916567
 30
0.0
 10
2.95854372490271
 20
4.343207194566141
 30
0.0
 10
2.960915121355169
 20
4.330349022572848
 30
0.0
 10
2.961076245585422
 20
4.322848407879457
 30
0.0
 10
2.961116815492143
 20
4.320959807772686
 30
0.0
  0
LINE
  5
B2
330
1F
100
AcDbEntity
  8
0
  6
Continuous
 62
     7
370
    25
100
AcDbLine
 10
2.9611168155
 20
4.3084598078
 30
0.0
 11
2.9099296082
 21
4.3084598078
 31
0.0
  0
LINE
  5
B3
330
1F
100
AcDbEntity
  8
0
  6
Continuous
 62
   144
370
    18
100
AcDbLine
 10
2.9611168155
 20
4.3209598078
 30
0.0
 11
2.9611168155
 21
4.3084598078
 31
0.0
  0
LINE
  5
B4
330
1F
100
AcDbEntity
  8
0
  6
Continuous
 62
   144
370
    18
100
AcDbLine
 10
2.9611168155
 20
4.3084598078
 30
0.0
 11
2.9689143544
 21
4.3084598078
 31
0.0
  0
ARC
  5
B5
330
1F
100
AcDbEntity
  8
0
  6
Continuous
 62
   144
370
    18
100
AcDbCircle
 10
2.8753256647
 20
4.3237098596
 30
0.0
 40
0.054919576690126
100
AcDbArc
 50
357.1297614891
 51
48.9586893493
  0
LINE
  5
B6
330
1F
100
AcDbEntity
  8
0
  6
Continuous
 62
   144
370
    18
100
AcDbLine
 10
2.9611168155
 20
4.3209598078
 30
0.0
 11
2.9301763449
 21
4.3209598078
 31
0.0
  0
LINE
  5
B7
330
1F
100
AcDbEntity
  8
0
  6
Continuous
 62
     7
370
    25
100
AcDbLine
 10
3.0073565383
 20
4.8209598078
 30
0.0
 11
3.0073565383
 21
4.6209598078
 31
0.0
  0
LINE
  5
B8
330
1F
100
AcDbEntity
  8
0
  6
Continuous
 62
     7
370
    25
100
AcDbLine
 10
2.3014528621
 20
4.6209598078
 30
0.0
 11
2.3014528621
 21
4.8209598078
 31
0.0
  0
LINE
  5
B9
330
1F
100
AcDbEntity
  8
0
  6
Continuous
 62
     7
370
    25
100
AcDbLine
 10
2.0444047002
 20
4.6209598078
 30
0.0
 11
2.0444047002
 21
4.8209598078
 31
0.0
  0
LINE
  5
BA
330
1F
100
AcDbEntity
  8
0
  6
Continuous
 62
     7
370
    25
100
AcDbLine
 10
2.0844047002
 20
4.8209598078
 30
0.0
 11
2.0844047002
 21
4.6209598078
 31
0.0
  0
LINE
  5
BB
330
1F
100
AcDbEntity
  8
0
  6
Continuous
 62
     7
370
    25
100
AcDbLine
 10
3.2244047002
 20
4.6209598078
 30
0.0
 11
3.2244047002
 21
4.8209598078
 31
0.0
  0
LINE
  5
BC
330
1F
100
AcDbEntity
  8
0
  6
Continuous
 62
     7
370
    25
100
AcDbLine
 10
3.2644047002
 20
4.8209598078
 30
0.0
 11
3.2644047002
 21
4.6209598078
 31
0.0
  0
LINE
  5
BD
330
1F
100
AcDbEntity
  8
0
  6
Continuous
 62
   144
370
    18
100
AcDbLine
 10
2.9608431366
 20
4.2909598078
 30
0.0
 11
2.9197431177
 21
4.2909598078
 31
0.0
  0
LINE
  5
BE
330
1F
100
AcDbEntity
  8
0
  6
Continuous
 62
     7
370
    25
100
AcDbLine
 10
2.0689047002
 20
5.0394558708
 30
0.0
 11
2.1624047002
 21
5.0394558708
 31
0.0
  0
LINE
  5
BF
330
1F
100
AcDbEntity
  8
0
  6
Continuous
 62
     7
370
    25
100
AcDbLine
 10
2.1624047002
 20
5.0394558708
 30
0.0
 11
2.2559047002
 21
5.0394558708
 31
0.0
  0
LINE
  5
C0
330
1F
100
AcDbEntity
  8
0
  6
Continuous
 62
     7
370
    25
100
AcDbLine
 10
2.0689047002
 20
5.0394558708
 30
0.0
 11
2.0689047002
 21
4.8524558708
 31
0.0
  0
LINE
  5
C1
330
1F
100
AcDbEntity
  8
0
  6
Continuous
 62
     7
370
    25
100
AcDbLine
 10
2.1624047002
 20
5.0394558708
 30
0.0
 11
2.1624047002
 21
4.8524558708
 31
0.0
  0
LINE
  5
C2
330
1F
100
AcDbEntity
  8
0
  6
Continuous
 62
     7
370
    25
100
AcDbLine
 10
2.2559047002
 20
5.0394558708
 30
0.0
 11
2.2559047002
 21
4.8524558708
 31
0.0
  0
LINE
  5
C3
330
1F
100
AcDbEntity
  8
0
  6
Continuous
 62
     7
370
    25
100
AcDbLine
 10
3.0529047002
 20
5.0394558708
 30
0.0
 11
3.1464047002
 21
5.0394558708
 31
0.0
  0
LINE
  5
C4
330
1F
100
AcDbEntity
  8
0
  6
Continuous
 62
     7
370
    25
100
AcDbLine
 10
3.1464047002
 20
5.0394558708
 30
0.0
 11
3.2399047002
 21
5.0394558708
 31
0.0
  0
LINE
  5
C5
330
1F
100
AcDbEntity
  8
0
  6
Continuous
 62
     7
370
    25
100
AcDbLine
 10
3.0529047002
 20
5.0394558708
 30
0.0
 11
3.0529047002
 21
4.8524558708
 31
0.0
  0
LINE
  5
C6
330
1F
100
AcDbEntity
  8
0
  6
Continuous
 62
     7
370
    25
100
AcDbLine
 10
3.1464047002
 20
5.0394558708
 30
0.0
 11
3.1464047002
 21
4.8524558708
 31
0.0
  0
LINE
  5
C7
330
1F
100
AcDbEntity
  8
0
  6
Continuous
 62
     7
370
    25
100
AcDbLine
 10
3.2399047002
 20
5.0394558708
 30
0.0
 11
3.2399047002
 21
4.8524558708
 31
0.0
  0
LINE
  5
C8
330
1F
100
AcDbEntity
  8
0
  6
Continuous
 62
     7
370
    25
100
AcDbLine
 10
2.5018694924
 20
2.0889598078
 30
0.0
 11
2.4643694924
 21
2.0889598078
 31
0.0
  0
LINE
  5
C9
330
1F
100
AcDbEntity
  8
0
  6
Continuous
 62
     7
370
    25
100
AcDbLine
 10
2.5018694924
 20
2.0889598078
 30
0.0
 11
2.806939908
 21
2.0889598078
 31
0.0
  0
LINE
  5
CA
330
1F
100
AcDbEntity
  8
0
  6
Continuous
 62
     7
370
    25
100
AcDbLine
 10
2.844439908
 20
2.0889598078
 30
0.0
 11
2.806939908
 21
2.0889598078
 31
0.0
  0
LINE
  5
CB
330
1F
100
AcDbEntity
  8
0
  6
Continuous
 62
     7
370
    25
100
AcDbLine
 10
2.844439908
 20
2.0889598078
 30
0.0
 11
2.9998618671
 21
2.0889598078
 31
0.0
  0
LINE
  5
CC
330
1F
100
AcDbEntity
  8
0
  6
Continuous
 62
     7
370
    25
100
AcDbLine
 10
2.4643694924
 20
2.0889598078
 30
0.0
 11
2.3089475333
 21
2.0889598078
 31
0.0
  0
LINE
  5
CD
330
1F
100
AcDbEntity
  8
0
  6
Continuous
 62
     7
370
    25
100
AcDbLine
 10
2.5018694924
 20
2.3689598078
 30
0.0
 11
2.5018694924
 21
2.0889598078
 31
0.0
  0
LINE
  5
CE
330
1F
100
AcDbEntity
  8
0
  6
Continuous
 62
     7
370
    25
100
AcDbLine
 10
2.5018694924
 20
2.3689598078
 30
0.0
 11
2.806939908
 21
2.3689598078
 31
0.0
  0
LINE
  5
CF
330
1F
100
AcDbEntity
  8
0
  6
Continuous
 62
     7
370
    25
100
AcDbLine
 10
2.806939908
 20
2.0889598078
 30
0.0
 11
2.806939908
 21
2.3689598078
 31
0.0
  0
LINE
  5
D0
330
1F
100
AcDbEntity
  8
0
  6
Continuous
 62
     7
370
    25
100
AcDbLine
 10
2.806939908
 20
2.3689598078
 30
0.0
 11
2.844439908
 21
2.3689598078
 31
0.0
  0
LINE
  5
D1
330
1F
100
AcDbEntity
  8
0
  6
Continuous
 62
     7
370
    25
100
AcDbLine
 10
2.844439908
 20
2.3689598078
 30
0.0
 11
2.844439908
 21
2.0889598078
 31
0.0
  0
LINE
  5
D2
330
1F
100
AcDbEntity
  8
0
  6
Continuous
 62
     7
370
    25
100
AcDbLine
 10
2.4643694924
 20
2.0889598078
 30
0.0
 11
2.4643694924
 21
2.3689598078
 31
0.0
  0
LINE
  5
D3
330
1F
100
AcDbEntity
  8
0
  6
Continuous
 62
     7
370
    25
100
AcDbLine
 10
2.4643694924
 20
2.3689598078
 30
0.0
 11
2.5018694924
 21
2.3689598078
 31
0.0
  0
LINE
  5
D4
330
1F
100
AcDbEntity
  8
0
  6
Continuous
 62
     7
370
    25
100
AcDbLine
 10
2.844439908
 20
2.3689598078
 30
0.0
 11
2.9998618671
 21
2.3689598078
 31
0.0
  0
LINE
  5
D5
330
1F
100
AcDbEntity
  8
0
  6
Continuous
 62
     7
370
    25
100
AcDbLine
 10
2.4643694924
 20
2.3689598078
 30
0.0
 11
2.3089475333
 21
2.3689598078
 31
0.0
  0
LINE
  5
D6
330
1F
100
AcDbEntity
  8
0
  6
Continuous
 62
     7
370
    25
100
AcDbLine
 10
2.3089475333
 20
2.3689598078
 30
0.0
 11
2.3089475333
 21
2.0889598078
 31
0.0
  0
LINE
  5
D7
330
1F
100
AcDbEntity
  8
0
  6
Continuous
 62
     7
370
    25
100
AcDbLine
 10
2.9998618671
 20
2.0889598078
 30
0.0
 11
2.9998618671
 21
2.3689598078
 31
0.0
  0
LINE
  5
D8
330
1F
100
AcDbEntity
  8
0
  6
Continuous
 62
     7
370
    25
100
AcDbLine
 10
2.3744047002
 20
1.6589598078
 30
0.0
 11
2.9344047002
 21
1.6589598078
 31
0.0
  0
LINE
  5
D9
330
1F
100
AcDbEntity
  8
0
  6
Continuous
 62
     7
370
    25
100
AcDbLine
 10
2.9044047002
 20
1.6509598078
 30
0.0
 11
2.4044047002
 21
1.6509598078
 31
0.0
  0
LINE
  5
DA
330
1F
100
AcDbEntity
  8
0
  6
Continuous
 62
     7
370
    25
100
AcDbLine
 10
2.8964047002
 20
1.5889598078
 30
0.0
 11
2.4124047002
 21
1.5889598078
 31
0.0
  0
LINE
  5
DB
330
1F
100
AcDbEntity
  8
0
  6
Continuous
 62
     7
370
    25
100
AcDbLine
 10
2.4044047002
 20
1.5969598078
 30
0.0
 11
2.9044047002
 21
1.5969598078
 31
0.0
  0
LINE
  5
DC
330
1F
100
AcDbEntity
  8
0
  6
Continuous
 62
     7
370
    25
100
AcDbLine
 10
2.4304047002
 20
1.5009598078
 30
0.0
 11
2.8784047002
 21
1.5009598078
 31
0.0
  0
LINE
  5
DD
330
1F
100
AcDbEntity
  8
0
  6
Continuous
 62
   144
370
    18
100
AcDbLine
 10
2.4669047002
 20
2.6609598078
 30
0.0
 11
2.8419047002
 21
2.6609598078
 31
0.0
  0
SPLINE
  5
DE
330
1F
100
AcDbEntity
  8
0
  6
Continuous
 62
     7
370
    25
100
AcDbSpline
210
0.0
220
0.0
230
1.0
 70
    24
 71
     3
 72
    10
 73
     6
 74
     0
 42
0.000000001
 43
0.00000001
 40
0.0
 40
0.0
 40
0.0
 40
0.0
 40
0.5
 40
0.5
 40
1.0
 40
1.0
 40
1.0
 40
1.0
 10
2.654404700213758
 20
2.835959807772686
 30
0.0
 10
2.545669016773758
 20
2.835959807772686
 30
0.0
 10
2.441378659044656
 20
2.835959807772686
 30
0.0
 10
2.287603180809898
 20
2.835959807772686
 30
0.0
 10
2.244404700213761
 20
2.835959807772686
 30
0.0
 10
2.244404700213758
 20
2.835959807772686
 30
0.0
  0
SPLINE
  5
DF
330
1F
100
AcDbEntity
  8
0
  6
Continuous
 62
     7
370
    25
100
AcDbSpline
210
0.0
220
0.0
230
1.0
 70
    24
 71
     3
 72
    10
 73
     6
 74
     0
 42
0.000000001
 43
0.00000001
 40
0.0
 40
0.0
 40
0.0
 40
0.0
 40
0.4999999999999999
 40
0.4999999999999999
 40
0.9999999999999999
 40
0.9999999999999999
 40
0.9999999999999999
 40
0.9999999999999999
 10
3.064404700213758
 20
2.835959807772686
 30
0.0
 10
3.06440470021376
 20
2.835959807772686
 30
0.0
 10
3.021206219617623
 20
2.835959807772686
 30
0.0
 10
2.867430741382869
 20
2.835959807772686
 30
0.0
 10
2.763140383653758
 20
2.835959807772686
 30
0.0
 10
2.654404700213758
 20
2.835959807772686
 30
0.0
  0
SPLINE
  5
E0
330
1F
100
AcDbEntity
  8
0
  6
Continuous
 62
   144
370
    18
100
AcDbSpline
210
0.0
220
0.0
230
1.0
 70
    24
 71
     3
 72
    10
 73
     6
 74
     0
 42
0.000000001
 43
0.00000001
 40
0.0
 40
0.0
 40
0.0
 40
0.0
 40
0.4999999999999999
 40
0.4999999999999999
 40
0.9999999999999999
 40
0.9999999999999999
 40
0.9999999999999999
 40
0.9999999999999999
 10
2.244404700213758
 20
3.045959807772686
 30
0.0
 10
2.244404700213755
 20
3.045959807772686
 30
0.0
 10
2.287603180809894
 20
3.045959807772686
 30
0.0
 10
2.441378659044647
 20
3.045959807772686
 30
0.0
 10
2.545669016773758
 20
3.045959807772686
 30
0.0
 10
2.654404700213758
 20
3.045959807772686
 30
0.0
  0
SPLINE
  5
E1
330
1F
100
AcDbEntity
  8
0
  6
Continuous
 62
   144
370
    18
100
AcDbSpline
210
0.0
220
0.0
230
1.0
 70
    24
 71
     3
 72
    10
 73
     6
 74
     0
 42
0.000000001
 43
0.00000001
 40
0.0
 40
0.0
 40
0.0
 40
0.0
 40
0.5000000000000002
 40
0.5000000000000002
 40
0.9999999999999999
 40
0.9999999999999999
 40
0.9999999999999999
 40
0.9999999999999999
 10
2.654404700213758
 20
3.045959807772686
 30
0.0
 10
2.763140383653758
 20
3.045959807772686
 30
0.0
 10
2.86743074138286
 20
3.045959807772686
 30
0.0
 10
3.021206219617618
 20
3.045959807772686
 30
0.0
 10
3.064404700213755
 20
3.045959807772686
 30
0.0
 10
3.064404700213758
 20
3.045959807772686
 30
0.0
  0
LINE
  5
E2
330
1F
100
AcDbEntity
  8
0
  6
Continuous
 62
     7
370
    25
100
AcDbLine
 10
2.4669047002
 20
2.6609598078
 30
0.0
 11
2.8419047002
 21
2.6609598078
 31
0.0
  0
LINE
  5
E3
330
1F
100
AcDbEntity
  8
0
  6
Continuous
 62
     7
370
    25
100
AcDbLine
 10
3.0442393459
 20
4.8367078393
 30
0.0
 11
3.1466015506
 21
4.8367078393
 31
0.0
  0
LINE
  5
E4
330
1F
100
AcDbEntity
  8
0
  6
Continuous
 62
     7
370
    25
100
AcDbLine
 10
3.1466015506
 20
4.8367078393
 30
0.0
 11
3.1466015506
 21
4.8209598078
 31
0.0
  0
LINE
  5
E5
330
1F
100
AcDbEntity
  8
0
  6
Continuous
 62
     7
370
    25
100
AcDbLine
 10
3.1952235979
 20
4.8209598078
 30
0.0
 11
3.1952235979
 21
4.8524558708
 31
0.0
  0
LINE
  5
E6
330
1F
100
AcDbEntity
  8
0
  6
Continuous
 62
     7
370
    25
100
AcDbLine
 10
3.1952235979
 20
4.8524558708
 30
0.0
 11
2.1137275349
 21
4.8524558708
 31
0.0
  0
LINE
  5
E7
330
1F
100
AcDbEntity
  8
0
  6
Continuous
 62
     7
370
    25
100
AcDbLine
 10
2.1137275349
 20
4.8209598078
 30
0.0
 11
2.1137275349
 21
4.8524558708
 31
0.0
  0
LINE
  5
E8
330
1F
100
AcDbEntity
  8
0
  6
Continuous
 62
     7
370
    25
100
AcDbLine
 10
2.1623495821
 20
4.8209598078
 30
0.0
 11
2.1623495821
 21
4.8367078393
 31
0.0
  0
LINE
  5
E9
330
1F
100
AcDbEntity
  8
0
  6
Continuous
 62
     7
370
    25
100
AcDbLine
 10
2.1623495821
 20
4.8367078393
 30
0.0
 11
2.2647117868
 21
4.8367078393
 31
0.0
  0
LINE
  5
EA
330
1F
100
AcDbEntity
  8
0
  6
Continuous
 62
   144
370
    18
100
AcDbLine
 10
2.2647117868
 20
4.8367078393
 30
0.0
 11
2.2647117868
 21
4.8209598078
 31
0.0
  0
LINE
  5
EB
330
1F
100
AcDbEntity
  8
0
  6
Continuous
 62
   144
370
    18
100
AcDbLine
 10
3.0442393459
 20
4.8209598078
 30
0.0
 11
3.0442393459
 21
4.8367078393
 31
0.0
  0
LINE
  5
EC
330
1F
100
AcDbEntity
  8
0
  6
Continuous
 62
     7
370
    25
100
AcDbLine
 10
2.1137275349
 20
4.8524558708
 30
0.0
 11
2.0507354089
 21
4.8524558708
 31
0.0
  0
LINE
  5
ED
330
1F
100
AcDbEntity
  8
0
  6
Continuous
 62
     7
370
    25
100
AcDbLine
 10
3.2582157238
 20
4.8524558708
 30
0.0
 11
3.1952235979
 21
4.8524558708
 31
0.0
  0
LINE
  5
EE
330
1F
100
AcDbEntity
  8
0
  6
Continuous
 62
     7
370
    25
100
AcDbLine
 10
2.0507354089
 20
4.8209598078
 30
0.0
 11
2.0507354089
 21
4.8524558708
 31
0.0
  0
LINE
  5
EF
330
1F
100
AcDbEntity
  8
0
  6
Continuous
 62
     7
370
    25
100
AcDbLine
 10
3.2582157238
 20
4.8209598078
 30
0.0
 11
3.2582157238
 21
4.8524558708
 31
0.0
  0
LINE
  5
F0
330
1F
100
AcDbEntity
  8
0
  6
Continuous
 62
     7
370
    25
100
AcDbLine
 10
2.4461667683
 20
4.8839519338
 30
0.0
 11
2.4461667683
 21
4.8524558708
 31
0.0
  0
LINE
  5
F1
330
1F
100
AcDbEntity
  8
0
  6
Continuous
 62
     7
370
    25
100
AcDbLine
 10
2.8627843644
 20
4.8524558708
 30
0.0
 11
2.8627843644
 21
4.8839519338
 31
0.0
  0
LINE
  5
F2
330
1F
100
AcDbEntity
  8
0
  6
Continuous
 62
     7
370
    25
100
AcDbLine
 10
2.4461667683
 20
4.8839519338
 30
0.0
 11
2.8627843644
 21
4.8839519338
 31
0.0
  0
ARC
  5
F3
330
1F
100
AcDbEntity
  8
0
  6
Continuous
 62
     7
370
    25
100
AcDbCircle
 10
2.2978167924
 20
4.8837145031
 30
0.0
 40
0.031259562110018
100
AcDbArc
 50
270.4419054192
 51
0.4351917552
  0
LINE
  5
F4
330
1F
100
AcDbEntity
  8
0
  6
Continuous
 62
     7
370
    25
100
AcDbLine
 10
2.3290754528
 20
4.8839519338
 30
0.0
 11
2.4461667683
 21
4.8839519338
 31
0.0
  0
ARC
  5
F5
330
1F
100
AcDbEntity
  8
0
  6
Continuous
 62
     7
370
    25
100
AcDbCircle
 10
3.0111343403
 20
4.8837145031
 30
0.0
 40
0.0312595621108956
100
AcDbArc
 50
179.5648082464
 51
269.5580945797
  0
LINE
  5
F6
330
1F
100
AcDbEntity
  8
0
  6
Continuous
 62
     7
370
    25
100
AcDbLine
 10
2.8627843644
 20
4.8839519338
 30
0.0
 11
2.9798756799
 21
4.8839519338
 31
0.0
  0
LINE
  5
F7
330
1F
100
AcDbEntity
  8
0
  6
Continuous
 62
     7
370
    25
100
AcDbLine
 10
2.4654991884
 20
5.0365908897
 30
0.0
 11
2.5442393459
 21
5.0365908897
 31
0.0
  0
LINE
  5
F8
330
1F
100
AcDbEntity
  8
0
  6
Continuous
 62
     7
370
    25
100
AcDbLine
 10
2.5442393459
 20
4.9901062383
 30
0.0
 11
2.4654991884
 21
4.9901062383
 31
0.0
  0
LINE
  5
F9
330
1F
100
AcDbEntity
  8
0
  6
Continuous
 62
     7
370
    25
100
AcDbLine
 10
2.8627843644
 20
5.0424830361
 30
0.0
 11
2.8627843644
 21
4.8839519338
 31
0.0
  0
LINE
  5
FA
330
1F
100
AcDbEntity
  8
0
  6
Continuous
 62
     7
370
    25
100
AcDbLine
 10
2.8627843644
 20
5.0424830361
 30
0.0
 11
2.4461667683
 21
5.0424830361
 31
0.0
  0
LINE
  5
FB
330
1F
100
AcDbEntity
  8
0
  6
Continuous
 62
     7
370
    25
100
AcDbLine
 10
2.4461667683
 20
4.8839519338
 30
0.0
 11
2.4461667683
 21
5.0424830361
 31
0.0
  0
LINE
  5
FC
330
1F
100
AcDbEntity
  8
0
  6
Continuous
 62
     7
370
    25
100
AcDbLine
 10
2.5442393459
 20
5.0365908897
 30
0.0
 11
2.5442393459
 21
4.9319881615
 31
0.0
  0
LINE
  5
FD
330
1F
100
AcDbEntity
  8
0
  6
Continuous
 62
     7
370
    25
100
AcDbLine
 10
2.5442393459
 20
4.9319881615
 30
0.0
 11
2.4654991884
 21
4.9319881615
 31
0.0
  0
LINE
  5
FE
330
1F
100
AcDbEntity
  8
0
  6
Continuous
 62
     7
370
    25
100
AcDbLine
 10
2.6938456451
 20
5.0365908897
 30
0.0
 11
2.6938456451
 21
4.9319881615
 31
0.0
  0
LINE
  5
FF
330
1F
100
AcDbEntity
  8
0
  6
Continuous
 62
     7
370
    25
100
AcDbLine
 10
2.6938456451
 20
4.9319881615
 30
0.0
 11
2.6151054876
 21
4.9319881615
 31
0.0
  0
LINE
  5
100
330
1F
100
AcDbEntity
  8
0
  6
Continuous
 62
     7
370
    25
100
AcDbLine
 10
2.6151054876
 20
4.9319881615
 30
0.0
 11
2.6151054876
 21
5.0365908897
 31
0.0
  0
LINE
  5
101
330
1F
100
AcDbEntity
  8
0
  6
Continuous
 62
     7
370
    25
100
AcDbLine
 10
2.6151054876
 20
5.0365908897
 30
0.0
 11
2.6938456451
 21
5.0365908897
 31
0.0
  0
LINE
  5
102
330
1F
100
AcDbEntity
  8
0
  6
Continuous
 62
     7
370
    25
100
AcDbLine
 10
2.8434519443
 20
4.9319881615
 30
0.0
 11
2.7647117868
 21
4.9319881615
 31
0.0
  0
LINE
  5
103
330
1F
100
AcDbEntity
  8
0
  6
Continuous
 62
     7
370
    25
100
AcDbLine
 10
2.7647117868
 20
4.9319881615
 30
0.0
 11
2.7647117868
 21
5.0365908897
 31
0.0
  0
LINE
  5
104
330
1F
100
AcDbEntity
  8
0
  6
Continuous
 62
     7
370
    25
100
AcDbLine
 10
2.7647117868
 20
5.0365908897
 30
0.0
 11
2.8434519443
 21
5.0365908897
 31
0.0
  0
LINE
  5
105
330
1F
100
AcDbEntity
  8
0
  6
Continuous
 62
   144
370
    18
100
AcDbLine
 10
2.8434519443
 20
5.0365908897
 30
0.0
 11
2.8434519443
 21
4.9319881615
 31
0.0
  0
LINE
  5
106
330
1F
100
AcDbEntity
  8
0
  6
Continuous
 62
   144
370
    18
100
AcDbLine
 10
2.4654991884
 20
4.9319881615
 30
0.0
 11
2.4654991884
 21
5.0365908897
 31
0.0
  0
LINE
  5
107
330
1F
100
AcDbEntity
  8
0
  6
Continuous
 62
     7
370
    25
100
AcDbLine
 10
2.6151054876
 20
4.9822205541
 30
0.0
 11
2.6938456451
 21
4.9822205541
 31
0.0
  0
LINE
  5
108
330
1F
100
AcDbEntity
  8
0
  6
Continuous
 62
     7
370
    25
100
AcDbLine
 10
2.8434519443
 20
4.9901062383
 30
0.0
 11
2.7647117868
 21
4.9901062383
 31
0.0
  0
LINE
  5
109
330
1F
100
AcDbEntity
  8
0
  6
Continuous
 62
     7
370
    25
100
AcDbLine
 10
2.6938456451
 20
4.9901062383
 30
0.0
 11
2.6151054876
 21
4.9901062383
 31
0.0
  0
LINE
  5
10A
330
1F
100
AcDbEntity
  8
0
  6
Continuous
 62
     7
370
    25
100
AcDbLine
 10
2.4654991884
 20
4.9822205541
 30
0.0
 11
2.5442393459
 21
4.9822205541
 31
0.0
  0
LINE
  5
10B
330
1F
100
AcDbEntity
  8
0
  6
Continuous
 62
     7
370
    25
100
AcDbLine
 10
2.7647117868
 20
4.9822205541
 30
0.0
 11
2.8434519443
 21
4.9822205541
 31
0.0
  0
LINE
  5
10C
330
1F
100
AcDbEntity
  8
0
  6
Continuous
 62
     7
370
    25
100
AcDbLine
 10
2.9643668964
 20
5.0847394388
 30
0.0
 11
2.8627843644
 21
5.0847394388
 31
0.0
  0
LINE
  5
10D
330
1F
100
AcDbEntity
  8
0
  6
Continuous
 62
     7
370
    25
100
AcDbLine
 10
2.8627843644
 20
5.0847394388
 30
0.0
 11
2.8627843644
 21
5.0424830361
 31
0.0
  0
LINE
  5
10E
330
1F
100
AcDbEntity
  8
0
  6
Continuous
 62
     7
370
    25
100
AcDbLine
 10
2.9798756799
 20
5.0424830361
 30
0.0
 11
2.8627843644
 21
5.0424830361
 31
0.0
  0
ARC
  5
10F
330
1F
100
AcDbEntity
  8
0
  6
Continuous
 62
     7
370
    25
100
AcDbCircle
 10
2.914728803
 20
5.0425472668
 30
0.0
 40
0.0651469086537437
100
AcDbArc
 50
359.9435100337
 51
40.3643975926
  0
LINE
  5
110
330
1F
100
AcDbEntity
  8
0
  6
Continuous
 62
     7
370
    25
100
AcDbLine
 10
2.4461667683
 20
5.0424830361
 30
0.0
 11
2.3290754528
 21
5.0424830361
 31
0.0
  0
LINE
  5
111
330
1F
100
AcDbEntity
  8
0
  6
Continuous
 62
     7
370
    25
100
AcDbLine
 10
2.3290754528
 20
5.0424830361
 30
0.0
 11
2.3290754528
 21
4.8839519338
 31
0.0
  0
LINE
  5
112
330
1F
100
AcDbEntity
  8
0
  6
Continuous
 62
     7
370
    25
100
AcDbLine
 10
2.9798756799
 20
5.0424830361
 30
0.0
 11
2.9798756799
 21
4.8839519338
 31
0.0
  0
LINE
  5
113
330
1F
100
AcDbEntity
  8
0
  6
Continuous
 62
     7
370
    25
100
AcDbLine
 10
2.4461667683
 20
5.0847394388
 30
0.0
 11
2.3445842363
 21
5.0847394388
 31
0.0
  0
ARC
  5
114
330
1F
100
AcDbEntity
  8
0
  6
Continuous
 62
     7
370
    25
100
AcDbCircle
 10
2.3942223298
 20
5.0425472668
 30
0.0
 40
0.0651469086629455
100
AcDbArc
 50
139.6356024091
 51
180.0564899624
  0
LINE
  5
115
330
1F
100
AcDbEntity
  8
0
  6
Continuous
 62
     7
370
    25
100
AcDbLine
 10
2.4461667683
 20
5.0424830361
 30
0.0
 11
2.4461667683
 21
5.0847394388
 31
0.0
  0
LINE
  5
116
330
1F
100
AcDbEntity
  8
0
  6
Continuous
 62
     7
370
    25
100
AcDbLine
 10
2.8627843644
 20
5.0847394388
 30
0.0
 11
2.4461667683
 21
5.0847394388
 31
0.0
  0
ARC
  5
117
330
1F
100
AcDbEntity
  8
0
  6
Continuous
 62
     7
370
    25
100
AcDbCircle
 10
3.0331405029
 20
4.8837145031
 30
0.0
 40
0.0312595621117474
100
AcDbArc
 50
179.564808248
 51
269.5580945793
  0
LINE
  5
118
330
1F
100
AcDbEntity
  8
0
  6
Continuous
 62
     7
370
    25
100
AcDbLine
 10
2.9798756799
 20
4.8839519338
 30
0.0
 11
3.0018818425
 21
4.8839519338
 31
0.0
  0
ARC
  5
119
330
1F
100
AcDbEntity
  8
0
  6
Continuous
 62
     7
370
    25
100
AcDbCircle
 10
2.2758106298
 20
4.8837145031
 30
0.0
 40
0.0312595621108992
100
AcDbArc
 50
270.4419054204
 51
0.4351917536
  0
LINE
  5
11A
330
1F
100
AcDbEntity
  8
0
  6
Continuous
 62
     7
370
    25
100
AcDbLine
 10
2.3070692902
 20
4.8839519338
 30
0.0
 11
2.3290754528
 21
4.8839519338
 31
0.0
  0
LINE
  5
11B
330
1F
100
AcDbEntity
  8
0
  6
Continuous
 62
     7
370
    25
100
AcDbLine
 10
3.0018818425
 20
5.0424830361
 30
0.0
 11
3.0018818425
 21
4.8839519338
 31
0.0
  0
LINE
  5
11C
330
1F
100
AcDbEntity
  8
0
  6
Continuous
 62
     7
370
    25
100
AcDbLine
 10
3.0018818425
 20
5.0424830361
 30
0.0
 11
2.9798756799
 21
5.0424830361
 31
0.0
  0
LINE
  5
11D
330
1F
100
AcDbEntity
  8
0
  6
Continuous
 62
     7
370
    25
100
AcDbLine
 10
2.986373059
 20
5.0847394388
 30
0.0
 11
2.9643668964
 21
5.0847394388
 31
0.0
  0
ARC
  5
11E
330
1F
100
AcDbEntity
  8
0
  6
Continuous
 62
     7
370
    25
100
AcDbCircle
 10
2.9367349655
 20
5.0425472668
 30
0.0
 40
0.0651469086477154
100
AcDbArc
 50
359.9435100311
 51
40.3643975938
  0
LINE
  5
11F
330
1F
100
AcDbEntity
  8
0
  6
Continuous
 62
     7
370
    25
100
AcDbLine
 10
2.3445842363
 20
5.0847394388
 30
0.0
 11
2.3225780737
 21
5.0847394388
 31
0.0
  0
ARC
  5
120
330
1F
100
AcDbEntity
  8
0
  6
Continuous
 62
     7
370
    25
100
AcDbCircle
 10
2.3722161672
 20
5.0425472668
 30
0.0
 40
0.0651469086537009
100
AcDbArc
 50
139.6356024074
 51
180.0564899664
  0
LINE
  5
121
330
1F
100
AcDbEntity
  8
0
  6
Continuous
 62
     7
370
    25
100
AcDbLine
 10
2.3290754528
 20
5.0424830361
 30
0.0
 11
2.3070692902
 21
5.0424830361
 31
0.0
  0
LINE
  5
122
330
1F
100
AcDbEntity
  8
0
  6
Continuous
 62
     7
370
    25
100
AcDbLine
 10
2.3070692902
 20
5.0424830361
 30
0.0
 11
2.3070692902
 21
4.8839519338
 31
0.0
  0
LINE
  5
123
330
1F
100
AcDbEntity
  8
0
  6
Continuous
 62
     7
370
    25
100
AcDbLine
 10
2.9879401333
 20
5.0847394388
 30
0.0
 11
2.986373059
 21
5.0847394388
 31
0.0
  0
LINE
  5
124
330
1F
100
AcDbEntity
  8
0
  6
Continuous
 62
     7
370
    25
100
AcDbLine
 10
2.3225780737
 20
5.0847394388
 30
0.0
 11
2.3210109994
 21
5.0847394388
 31
0.0
  0
LINE
  5
125
330
1F
100
AcDbEntity
  8
0
  6
Continuous
 62
     8
370
    25
100
AcDbLine
 10
2.6544047002
 20
2.8459598078
 30
0.0
 11
2.2344047002
 21
2.8459598078
 31
0.0
  0
LINE
  5
126
330
1F
100
AcDbEntity
  8
0
  6
Continuous
 62
     8
370
    25
100
AcDbLine
 10
3.0744047002
 20
2.8459598078
 30
0.0
 11
2.6544047002
 21
2.8459598078
 31
0.0
  0
LINE
  5
127
330
1F
100
AcDbEntity
  8
0
  6
Continuous
 62
     8
370
    25
100
AcDbLine
 10
3.0744047002
 20
3.0359598078
 30
0.0
 11
2.2344047002
 21
3.0359598078
 31
0.0
  0
LINE
  5
128
330
1F
100
AcDbEntity
  8
0
  6
Continuous
 62
     8
370
    25
100
AcDbLine
 10
2.6544047002
 20
2.8159598078
 30
0.0
 11
2.4669047002
 21
2.8159598078
 31
0.0
  0
LINE
  5
129
330
1F
100
AcDbEntity
  8
0
  6
Continuous
 62
     8
370
    25
100
AcDbLine
 10
2.8419047002
 20
2.8159598078
 30
0.0
 11
2.6544047002
 21
2.8159598078
 31
0.0
  0
LINE
  5
12A
330
1F
100
AcDbEntity
  8
0
  6
Continuous
 62
     8
370
    25
100
AcDbLine
 10
3.0018818425
 20
4.8839519338
 30
0.0
 11
3.0036881648
 21
4.8839519338
 31
0.0
  0
LINE
  5
12B
330
1F
100
AcDbEntity
  8
0
  6
Continuous
 62
     8
370
    25
100
AcDbLine
 10
2.3052629679
 20
4.8839519338
 30
0.0
 11
2.3070692902
 21
4.8839519338
 31
0.0
  0
LINE
  5
12C
330
1F
100
AcDbEntity
  8
0
  6
Continuous
 62
     8
370
    25
100
AcDbLine
 10
3.0036881648
 20
5.0424830361
 30
0.0
 11
3.0018818425
 21
5.0424830361
 31
0.0
  0
LINE
  5
12D
330
1F
100
AcDbEntity
  8
0
  6
Continuous
 62
     8
370
    25
100
AcDbLine
 10
2.3070692902
 20
5.0424830361
 30
0.0
 11
2.3052629679
 21
5.0424830361
 31
0.0
  0
LINE
  5
12E
330
1F
100
AcDbEntity
  8
0
  6
Continuous
 62
     7
370
    25
100
AcDbLine
 10
5.2649620586
 20
4.5274598078
 30
0.0
 11
5.2649620586
 21
4.6209598078
 31
0.0
  0
LINE
  5
12F
330
1F
100
AcDbEntity
  8
0
  6
Continuous
 62
     7
370
    25
100
AcDbLine
 10
5.2649620586
 20
3.0459598078
 30
0.0
 11
5.2649620586
 21
4.4144598078
 31
0.0
  0
LINE
  5
130
330
1F
100
AcDbEntity
  8
0
  6
Continuous
 62
     7
370
    25
100
AcDbLine
 10
4.4249620586
 20
4.4144598078
 30
0.0
 11
4.4249620586
 21
3.0459598078
 31
0.0
  0
LINE
  5
131
330
1F
100
AcDbEntity
  8
0
  6
Continuous
 62
     7
370
    25
100
AcDbLine
 10
4.4249620586
 20
4.6209598078
 30
0.0
 11
4.4249620586
 21
4.5274598078
 31
0.0
  0
LINE
  5
132
330
1F
100
AcDbEntity
  8
0
  6
Continuous
 62
     7
370
    25
100
AcDbLine
 10
5.2649620586
 20
4.6209598078
 30
0.0
 11
5.2649620586
 21
4.8209598078
 31
0.0
  0
LINE
  5
133
330
1F
100
AcDbEntity
  8
0
  6
Continuous
 62
     7
370
    25
100
AcDbLine
 10
4.4249620586
 20
4.8209598078
 30
0.0
 11
4.4249620586
 21
4.6209598078
 31
0.0
  0
LINE
  5
134
330
1F
100
AcDbEntity
  8
0
  6
Continuous
 62
     7
370
    25
100
AcDbLine
 10
4.5649620586
 20
2.0889598078
 30
0.0
 11
4.5649620586
 21
1.6589598078
 31
0.0
  0
LINE
  5
135
330
1F
100
AcDbEntity
  8
0
  6
Continuous
 62
     7
370
    25
100
AcDbLine
 10
5.1249620586
 20
1.6589598078
 30
0.0
 11
5.1249620586
 21
2.0889598078
 31
0.0
  0
LINE
  5
136
330
1F
100
AcDbEntity
  8
0
  6
Continuous
 62
     7
370
    25
100
AcDbLine
 10
4.5949620586
 20
1.6509598078
 30
0.0
 11
4.5949620586
 21
1.5969598078
 31
0.0
  0
LINE
  5
137
330
1F
100
AcDbEntity
  8
0
  6
Continuous
 62
     7
370
    25
100
AcDbLine
 10
5.0949620586
 20
1.5969598078
 30
0.0
 11
5.0949620586
 21
1.6509598078
 31
0.0
  0
LINE
  5
138
330
1F
100
AcDbEntity
  8
0
  6
Continuous
 62
     7
370
    25
100
AcDbLine
 10
5.0949620586
 20
1.6509598078
 30
0.0
 11
5.0869620586
 21
1.6589598078
 31
0.0
  0
LINE
  5
139
330
1F
100
AcDbEntity
  8
0
  6
Continuous
 62
     7
370
    25
100
AcDbLine
 10
4.6029620586
 20
1.6589598078
 30
0.0
 11
4.5949620586
 21
1.6509598078
 31
0.0
  0
LINE
  5
13A
330
1F
100
AcDbEntity
  8
0
  6
Continuous
 62
     7
370
    25
100
AcDbLine
 10
4.5949620586
 20
1.5969598078
 30
0.0
 11
4.6029620586
 21
1.5889598078
 31
0.0
  0
LINE
  5
13B
330
1F
100
AcDbEntity
  8
0
  6
Continuous
 62
     7
370
    25
100
AcDbLine
 10
5.0869620586
 20
1.5889598078
 30
0.0
 11
5.0949620586
 21
1.5969598078
 31
0.0
  0
LINE
  5
13C
330
1F
100
AcDbEntity
  8
0
  6
Continuous
 62
     7
370
    25
100
AcDbLine
 10
5.0689620586
 20
1.5009598078
 30
0.0
 11
5.0689620586
 21
1.5889598078
 31
0.0
  0
LINE
  5
13D
330
1F
100
AcDbEntity
  8
0
  6
Continuous
 62
     7
370
    25
100
AcDbLine
 10
4.6209620586
 20
1.5889598078
 30
0.0
 11
4.6209620586
 21
1.5009598078
 31
0.0
  0
ARC
  5
13E
330
1F
100
AcDbEntity
  8
0
  6
Continuous
 62
     7
370
    25
100
AcDbCircle
 10
4.6899620586
 20
1.5009598078
 30
0.0
 40
0.0300000000000002
100
AcDbArc
 50
180.0
 51
270.0
  0
ARC
  5
13F
330
1F
100
AcDbEntity
  8
0
  6
Continuous
 62
     7
370
    25
100
AcDbCircle
 10
4.9999620586
 20
1.5009598078
 30
0.0
 40
0.0300000000000002
100
AcDbArc
 50
270.0
 51
360.0
  0
LINE
  5
140
330
1F
100
AcDbEntity
  8
0
  6
Continuous
 62
     7
370
    25
100
AcDbLine
 10
4.6899620586
 20
1.4709598078
 30
0.0
 11
4.9999620586
 21
1.4709598078
 31
0.0
  0
LINE
  5
141
330
1F
100
AcDbEntity
  8
0
  6
Continuous
 62
     7
370
    25
100
AcDbLine
 10
4.6574620586
 20
2.6609598078
 30
0.0
 11
4.6574620586
 21
2.3689598078
 31
0.0
  0
LINE
  5
142
330
1F
100
AcDbEntity
  8
0
  6
Continuous
 62
     7
370
    25
100
AcDbLine
 10
5.0324620586
 20
2.3689598078
 30
0.0
 11
5.0324620586
 21
2.6609598078
 31
0.0
  0
ARC
  5
143
330
1F
100
AcDbEntity
  8
0
  6
Continuous
 62
     7
370
    25
100
AcDbCircle
 10
4.4349620586
 20
2.8459598078
 30
0.0
 40
0.0100000000000007
100
AcDbArc
 50
180.0
 51
270.0
  0
ARC
  5
144
330
1F
100
AcDbEntity
  8
0
  6
Continuous
 62
     7
370
    25
100
AcDbCircle
 10
5.2549620586
 20
2.8459598078
 30
0.0
 40
0.0100000000000002
100
AcDbArc
 50
270.0
 51
0.0
  0
ARC
  5
145
330
1F
100
AcDbEntity
  8
0
  6
Continuous
 62
     7
370
    25
100
AcDbCircle
 10
4.4349620586
 20
3.0359598078
 30
0.0
 40
0.0100000000000007
100
AcDbArc
 50
90.0
 51
180.0
  0
ARC
  5
146
330
1F
100
AcDbEntity
  8
0
  6
Continuous
 62
     7
370
    25
100
AcDbCircle
 10
5.2549620586
 20
3.0359598078
 30
0.0
 40
0.0100000000000002
100
AcDbArc
 50
0.0
 51
90.0
  0
LINE
  5
147
330
1F
100
AcDbEntity
  8
0
  6
Continuous
 62
     7
370
    25
100
AcDbLine
 10
5.2649620586
 20
2.8459598078
 30
0.0
 11
5.2649620586
 21
3.0359598078
 31
0.0
  0
LINE
  5
148
330
1F
100
AcDbEntity
  8
0
  6
Continuous
 62
     7
370
    25
100
AcDbLine
 10
4.4249620586
 20
3.0359598078
 30
0.0
 11
4.4249620586
 21
2.8459598078
 31
0.0
  0
ARC
  5
149
330
1F
100
AcDbEntity
  8
0
  6
Continuous
 62
     7
370
    25
100
AcDbCircle
 10
4.6374620586
 20
2.8159598078
 30
0.0
 40
0.0200000000000005
100
AcDbArc
 50
0.0
 51
90.0
  0
ARC
  5
14A
330
1F
100
AcDbEntity
  8
0
  6
Continuous
 62
     7
370
    25
100
AcDbCircle
 10
5.0524620586
 20
2.8159598078
 30
0.0
 40
0.02
100
AcDbArc
 50
90.0
 51
180.0
  0
LINE
  5
14B
330
1F
100
AcDbEntity
  8
0
  6
Continuous
 62
     7
370
    25
100
AcDbLine
 10
5.0324620586
 20
2.6609598078
 30
0.0
 11
5.0324620586
 21
2.8159598078
 31
0.0
  0
LINE
  5
14C
330
1F
100
AcDbEntity
  8
0
  6
Continuous
 62
     7
370
    25
100
AcDbLine
 10
4.6574620586
 20
2.8159598078
 30
0.0
 11
4.6574620586
 21
2.6609598078
 31
0.0
  0
ARC
  5
14D
330
1F
100
AcDbEntity
  8
0
  6
Continuous
 62
     7
370
    25
100
AcDbCircle
 10
5.6830023567
 20
4.4709598078
 30
0.0
 40
0.4218411322925431
100
AcDbArc
 50
172.3028623526
 51
187.6971376474
  0
ARC
  5
14E
330
1F
100
AcDbEntity
  8
0
  6
Continuous
 62
     7
370
    25
100
AcDbCircle
 10
4.0069217604
 20
4.4709598078
 30
0.0
 40
0.4218411322922869
100
AcDbArc
 50
352.3028623526
 51
7.6971376474
  0
SPLINE
  5
14F
330
1F
100
AcDbEntity
  8
0
  6
Continuous
 62
     7
370
    25
100
AcDbSpline
210
0.0
220
0.0
230
1.0
 70
    11
 71
     3
 72
    54
 73
    50
 74
     0
 42
0.000000001
 43
0.00000001
 40
0.0
 40
0.0
 40
0.0
 40
0.0
 40
0.03125
 40
0.03125
 40
0.0625000000000001
 40
0.0625000000000001
 40
0.0937500000000001
 40
0.0937500000000001
 40
0.1250000000000002
 40
0.1250000000000002
 40
0.1875
 40
0.1875
 40
0.2499999999999999
 40
0.2499999999999999
 40
0.2812500000000002
 40
0.2812500000000002
 40
0.3125000000000004
 40
0.3125000000000004
 40
0.3750000000000013
 40
0.3750000000000013
 40
0.4062500000000017
 40
0.4062500000000017
 40
0.437500000000002
 40
0.437500000000002
 40
0.5000000000000027
 40
0.5000000000000027
 40
0.531250000000003
 40
0.531250000000003
 40
0.5625000000000034
 40
0.5625000000000034
 40
0.5937500000000038
 40
0.5937500000000038
 40
0.6250000000000042
 40
0.6250000000000042
 40
0.6875000000000037
 40
0.6875000000000037
 40
0.7500000000000032
 40
0.7500000000000032
 40
0.7812500000000031
 40
0.7812500000000031
 40
0.8125000000000031
 40
0.8125000000000031
 40
0.8750000000000022
 40
0.8750000000000022
 40
0.9062500000000011
 40
0.9062500000000011
 40
0.9375
 40
0.9375
 40
1.0
 40
1.0
 40
1.0
 40
1.0
 10
4.507089702023723
 20
4.335959807772687
 30
0.0
 10
4.507089702023722
 20
4.340094527399955
 30
0.0
 10
4.507333327797829
 20
4.344158996531054
 30
0.0
 10
4.50829216152399
 20
4.352153541995334
 30
0.0
 10
4.509019337196264
 20
4.356125468598703
 30
0.0
 10
4.5109305023151
 20
4.363690658482351
 30
0.0
 10
4.512105606200191
 20
4.367277845221404
 30
0.0
 10
4.51491195239096
 20
4.374066786614618
 30
0.0
 10
4.516556626568653
 20
4.377276776366849
 30
0.0
 10
4.522016020453826
 20
4.385910808029873
 30
0.0
 10
4.526508436129657
 20
4.390565838938413
 30
0.0
 10
4.536531098702741
 20
4.396805124744533
 30
0.0
 10
4.542172258548245
 20
4.398453670798708
 30
0.0
 10
4.550829996855638
 20
4.398462849920176
 30
0.0
 10
4.553805465106462
 20
4.398056680765447
 30
0.0
 10
4.559640838779799
 20
4.396461692002727
 30
0.0
 10
4.562518177796176
 20
4.395281263219428
 30
0.0
 10
4.571008801726792
 20
4.390582765538308
 30
0.0
 10
4.576298142490987
 20
4.386001676721269
 30
0.0
 10
4.583133153439443
 20
4.377270585289436
 30
0.0
 10
4.585173856254973
 20
4.374121608449322
 30
0.0
 10
4.588774370858859
 20
4.367361901887442
 30
0.0
 10
4.590347081282616
 20
4.363707001096019
 30
0.0
 10
4.594138744258998
 20
4.352366134007248
 30
0.0
 10
4.595478059279088
 20
4.344229148292989
 30
0.0
 10
4.59547804486844
 20
4.331825003630603
 30
0.0
 10
4.595147145332997
 20
4.327760539062912
 30
0.0
 10
4.593856434194072
 20
4.31976600249814
 30
0.0
 10
4.592880708651045
 20
4.315794080174839
 30
0.0
 10
4.590353652492116
 20
4.30822890135473
 30
0.0
 10
4.588814027325361
 20
4.304641719723654
 30
0.0
 10
4.585208020728773
 20
4.29785278793717
 30
0.0
 10
4.583125732576618
 20
4.294642803397926
 30
0.0
 10
4.576374318803685
 20
4.286008785886978
 30
0.0
 10
4.57102048764701
 20
4.281353762750207
 30
0.0
 10
4.559783110795355
 20
4.275114487821982
 30
0.0
 10
4.553783448695066
 20
4.273465944741165
 30
0.0
 10
4.545123786445227
 20
4.273456765627945
 30
0.0
 10
4.542234578927462
 20
4.273862934040875
 30
0.0
 10
4.536728563412764
 20
4.275457919977877
 30
0.0
 10
4.534092579014674
 20
4.276638346683853
 30
0.0
 10
4.526517169107206
 20
4.281336835935027
 30
0.0
 10
4.522078130781318
 20
4.285917916115283
 30
0.0
 10
4.516550430767716
 20
4.294648994491605
 30
0.0
 10
4.514938905176104
 20
4.297797966633559
 30
0.0
 10
4.512136186288688
 20
4.304557662920824
 30
0.0
 10
4.510935543175993
 20
4.308212557892947
 30
0.0
 10
4.508067859267401
 20
4.319553411042511
 30
0.0
 10
4.507089702023722
 20
4.327690368518149
 30
0.0
 10
4.507089702023722
 20
4.335959807772687
 30
0.0
  0
LINE
  5
150
330
1F
100
AcDbEntity
  8
0
  6
Continuous
 62
   144
370
    18
100
AcDbLine
 10
4.5756142325
 20
4.6209598078
 30
0.0
 11
4.4249620586
 21
4.6209598078
 31
0.0
  0
LINE
  5
151
330
1F
100
AcDbEntity
  8
0
  6
Continuous
 62
   144
370
    18
100
AcDbLine
 10
5.2649620586
 20
4.6209598078
 30
0.0
 11
5.1143098846
 21
4.6209598078
 31
0.0
  0
LINE
  5
152
330
1F
100
AcDbEntity
  8
0
  6
Continuous
 62
     7
370
    25
100
AcDbLine
 10
4.8449620586
 20
3.0459598078
 30
0.0
 11
5.2649620586
 21
3.0459598078
 31
0.0
  0
LINE
  5
153
330
1F
100
AcDbEntity
  8
0
  6
Continuous
 62
     7
370
    25
100
AcDbLine
 10
4.4249620586
 20
3.0459598078
 30
0.0
 11
4.8449620586
 21
3.0459598078
 31
0.0
  0
SPLINE
  5
154
330
1F
100
AcDbEntity
  8
0
  6
Continuous
 62
   144
370
    18
100
AcDbSpline
210
0.0
220
0.0
230
1.0
 70
     8
 71
     3
 72
    15
 73
    11
 74
     0
 42
0.000000001
 43
0.00000001
 40
0.0
 40
0.0
 40
0.0
 40
0.0
 40
0.0957014215308202
 40
0.242716912222907
 40
0.3913560563869617
 40
0.5401187902253575
 40
0.5919431267909051
 40
0.738996400488081
 40
0.8860042262182778
 40
1.0
 40
1.0
 40
1.0
 40
1.0
 10
4.557944291068861
 20
4.396123536612455
 30
0.0
 10
4.554915691704016
 20
4.395128197847663
 30
0.0
 10
4.547234590687573
 20
4.392603830416732
 30
0.0
 10
4.537594596261654
 20
4.381139763710234
 30
0.0
 10
4.52990680097564
 20
4.364079812354528
 30
0.0
 10
4.527101512264788
 20
4.347876719291004
 30
0.0
 10
4.526523742869847
 20
4.331467174043132
 30
0.0
 10
4.528195064252474
 20
4.315078370506865
 30
0.0
 10
4.533741683761693
 20
4.297657249639506
 30
0.0
 10
4.539611890610685
 20
4.289515704213695
 30
0.0
 10
4.542175758592816
 20
4.285959807772688
 30
0.0
  0
SPLINE
  5
155
330
1F
100
AcDbEntity
  8
0
  6
Continuous
 62
   144
370
    18
100
AcDbSpline
210
0.0
220
0.0
230
1.0
 70
     8
 71
     3
 72
     9
 73
     5
 74
     0
 42
0.000000001
 43
0.00000001
 40
0.0
 40
0.0
 40
0.0
 40
0.0
 40
0.820863753195548
 40
1.0
 40
1.0
 40
1.0
 40
1.0
 10
4.542175758592816
 20
4.285959807772688
 30
0.0
 10
4.547497280049354
 20
4.282599484803306
 30
0.0
 10
4.553980111622588
 20
4.278505842032139
 30
0.0
 10
4.560046915861942
 20
4.277037970924373
 30
0.0
 10
4.561133700403476
 20
4.276775022003335
 30
0.0
  0
LINE
  5
156
330
1F
100
AcDbEntity
  8
0
  6
Continuous
 62
     7
370
    25
100
AcDbLine
 10
4.5756142325
 20
4.6209598078
 30
0.0
 11
4.4249620586
 21
4.6209598078
 31
0.0
  0
LINE
  5
157
330
1F
100
AcDbEntity
  8
0
  6
Continuous
 62
     7
370
    25
100
AcDbLine
 10
4.5899620586
 20
4.6209598078
 30
0.0
 11
4.5756142325
 21
4.6209598078
 31
0.0
  0
LINE
  5
158
330
1F
100
AcDbEntity
  8
0
  6
Continuous
 62
     7
370
    25
100
AcDbLine
 10
4.6299620586
 20
4.6209598078
 30
0.0
 11
4.5899620586
 21
4.6209598078
 31
0.0
  0
LINE
  5
159
330
1F
100
AcDbEntity
  8
0
  6
Continuous
 62
     7
370
    25
100
AcDbLine
 10
4.6299620586
 20
4.6209598078
 30
0.0
 11
5.0599620586
 21
4.6209598078
 31
0.0
  0
LINE
  5
15A
330
1F
100
AcDbEntity
  8
0
  6
Continuous
 62
     7
370
    25
100
AcDbLine
 10
5.0999620586
 20
4.6209598078
 30
0.0
 11
5.0599620586
 21
4.6209598078
 31
0.0
  0
LINE
  5
15B
330
1F
100
AcDbEntity
  8
0
  6
Continuous
 62
     7
370
    25
100
AcDbLine
 10
5.1143098846
 20
4.6209598078
 30
0.0
 11
5.0999620586
 21
4.6209598078
 31
0.0
  0
LINE
  5
15C
330
1F
100
AcDbEntity
  8
0
  6
Continuous
 62
     7
370
    25
100
AcDbLine
 10
5.1143098846
 20
4.6209598078
 30
0.0
 11
5.2649620586
 21
4.6209598078
 31
0.0
  0
LINE
  5
15D
330
1F
100
AcDbEntity
  8
0
  6
Continuous
 62
     7
370
    25
100
AcDbLine
 10
5.2649620586
 20
4.8209598078
 30
0.0
 11
5.1143098846
 21
4.8209598078
 31
0.0
  0
LINE
  5
15E
330
1F
100
AcDbEntity
  8
0
  6
Continuous
 62
     7
370
    25
100
AcDbLine
 10
5.0999620586
 20
4.8209598078
 30
0.0
 11
5.1143098846
 21
4.8209598078
 31
0.0
  0
LINE
  5
15F
330
1F
100
AcDbEntity
  8
0
  6
Continuous
 62
     7
370
    25
100
AcDbLine
 10
5.0599620586
 20
4.8209598078
 30
0.0
 11
5.0999620586
 21
4.8209598078
 31
0.0
  0
LINE
  5
160
330
1F
100
AcDbEntity
  8
0
  6
Continuous
 62
     7
370
    25
100
AcDbLine
 10
5.0599620586
 20
4.8209598078
 30
0.0
 11
4.6299620586
 21
4.8209598078
 31
0.0
  0
LINE
  5
161
330
1F
100
AcDbEntity
  8
0
  6
Continuous
 62
     7
370
    25
100
AcDbLine
 10
4.5899620586
 20
4.8209598078
 30
0.0
 11
4.6299620586
 21
4.8209598078
 31
0.0
  0
LINE
  5
162
330
1F
100
AcDbEntity
  8
0
  6
Continuous
 62
     7
370
    25
100
AcDbLine
 10
4.5756142325
 20
4.8209598078
 30
0.0
 11
4.5899620586
 21
4.8209598078
 31
0.0
  0
LINE
  5
163
330
1F
100
AcDbEntity
  8
0
  6
Continuous
 62
     7
370
    25
100
AcDbLine
 10
4.5756142325
 20
4.8209598078
 30
0.0
 11
4.4249620586
 21
4.8209598078
 31
0.0
  0
LINE
  5
164
330
1F
100
AcDbEntity
  8
0
  6
Continuous
 62
     7
370
    25
100
AcDbLine
 10
5.0599620586
 20
4.6209598078
 30
0.0
 11
5.0599620586
 21
4.8209598078
 31
0.0
  0
LINE
  5
165
330
1F
100
AcDbEntity
  8
0
  6
Continuous
 62
     7
370
    25
100
AcDbLine
 10
5.0999620586
 20
4.8209598078
 30
0.0
 11
5.0999620586
 21
4.6209598078
 31
0.0
  0
LINE
  5
166
330
1F
100
AcDbEntity
  8
0
  6
Continuous
 62
     7
370
    25
100
AcDbLine
 10
4.6299620586
 20
4.8209598078
 30
0.0
 11
4.6299620586
 21
4.6209598078
 31
0.0
  0
LINE
  5
167
330
1F
100
AcDbEntity
  8
0
  6
Continuous
 62
     7
370
    25
100
AcDbLine
 10
4.5899620586
 20
4.6209598078
 30
0.0
 11
4.5899620586
 21
4.8209598078
 31
0.0
  0
SPLINE
  5
168
330
1F
100
AcDbEntity
  8
0
  6
Continuous
 62
     7
370
    25
100
AcDbSpline
210
0.0
220
0.0
230
1.0
 70
     8
 71
     3
 72
    14
 73
    10
 74
     0
 42
0.000000001
 43
0.00000001
 40
0.0
 40
0.0
 40
0.0
 40
0.0
 40
0.1574913241724819
 40
0.3149506776496934
 40
0.473238520916283
 40
0.6320765039596139
 40
0.7900197657193502
 40
0.9470303002756295
 40
1.0
 40
1.0
 40
1.0
 40
1.0
 10
4.538249943279765
 20
4.320959807772686
 30
0.0
 10
4.538585405032704
 20
4.326555686085446
 30
0.0
 10
4.539256260439938
 20
4.337746306749215
 30
0.0
 10
4.544575106699928
 20
4.352663548497566
 30
0.0
 10
4.552681633483273
 20
4.364044857036562
 30
0.0
 10
4.563317001227565
 20
4.370684175496527
 30
0.0
 10
4.575170561294723
 20
4.371391747814498
 30
0.0
 10
4.584833683951561
 20
4.368472552717822
 30
0.0
 10
4.589349054212528
 20
4.363961451554288
 30
0.0
 10
4.590488103360116
 20
4.362823479330963
 30
0.0
  0
LINE
  5
169
330
1F
100
AcDbEntity
  8
0
  6
Continuous
 62
   144
370
    18
100
AcDbLine
 10
4.5890249909
 20
4.3084598078
 30
0.0
 11
4.5382499433
 21
4.3084598078
 31
0.0
  0
LINE
  5
16A
330
1F
100
AcDbEntity
  8
0
  6
Continuous
 62
   144
370
    18
100
AcDbLine
 10
4.5304906208
 20
4.3084598078
 30
0.0
 11
4.5382499433
 21
4.3084598078
 31
0.0
  0
LINE
  5
16B
330
1F
100
AcDbEntity
  8
0
  6
Continuous
 62
   144
370
    18
100
AcDbLine
 10
4.5382499433
 20
4.3084598078
 30
0.0
 11
4.5382499433
 21
4.3209598078
 31
0.0
  0
LINE
  5
16C
330
1F
100
AcDbEntity
  8
0
  6
Continuous
 62
     7
370
    25
100
AcDbLine
 10
5.1143098846
 20
4.8209598078
 30
0.0
 11
5.1143098846
 21
4.6209598078
 31
0.0
  0
LINE
  5
16D
330
1F
100
AcDbEntity
  8
0
  6
Continuous
 62
     7
370
    25
100
AcDbLine
 10
4.5756142325
 20
4.6209598078
 30
0.0
 11
4.5756142325
 21
4.8209598078
 31
0.0
  0
LINE
  5
16E
330
1F
100
AcDbEntity
  8
0
  6
Continuous
 62
   144
370
    18
100
AcDbLine
 10
4.5382499433
 20
4.3209598078
 30
0.0
 11
4.5691904139
 21
4.3209598078
 31
0.0
  0
ARC
  5
16F
330
1F
100
AcDbEntity
  8
0
  6
Continuous
 62
   144
370
    18
100
AcDbCircle
 10
4.6227974539
 20
4.3242138734
 30
0.0
 40
0.0537057136511416
100
AcDbArc
 50
130.0478500497
 51
183.4737177933
  0
LINE
  5
170
330
1F
100
AcDbEntity
  8
0
  6
Continuous
 62
     7
370
    25
100
AcDbLine
 10
4.8989443087
 20
5.0394558708
 30
0.0
 11
4.8989443087
 21
4.8524558708
 31
0.0
  0
LINE
  5
171
330
1F
100
AcDbEntity
  8
0
  6
Continuous
 62
     7
370
    25
100
AcDbLine
 10
4.8989443087
 20
5.0394558708
 30
0.0
 11
4.9529265589
 21
5.0394558708
 31
0.0
  0
LINE
  5
172
330
1F
100
AcDbEntity
  8
0
  6
Continuous
 62
     7
370
    25
100
AcDbLine
 10
4.9529265589
 20
5.0394558708
 30
0.0
 11
4.9529265589
 21
4.8524558708
 31
0.0
  0
LINE
  5
173
330
1F
100
AcDbEntity
  8
0
  6
Continuous
 62
     7
370
    25
100
AcDbLine
 10
4.7909798084
 20
5.0394558708
 30
0.0
 11
4.8989443087
 21
5.0394558708
 31
0.0
  0
LINE
  5
174
330
1F
100
AcDbEntity
  8
0
  6
Continuous
 62
     7
370
    25
100
AcDbLine
 10
4.7369975582
 20
5.0394558708
 30
0.0
 11
4.7909798084
 21
5.0394558708
 31
0.0
  0
LINE
  5
175
330
1F
100
AcDbEntity
  8
0
  6
Continuous
 62
     7
370
    25
100
AcDbLine
 10
4.7909798084
 20
5.0394558708
 30
0.0
 11
4.7909798084
 21
4.8524558708
 31
0.0
  0
LINE
  5
176
330
1F
100
AcDbEntity
  8
0
  6
Continuous
 62
     7
370
    25
100
AcDbLine
 10
4.7369975582
 20
5.0394558708
 30
0.0
 11
4.7369975582
 21
4.8524558708
 31
0.0
  0
LINE
  5
177
330
1F
100
AcDbEntity
  8
0
  6
Continuous
 62
     7
370
    25
100
AcDbLine
 10
5.1358114235
 20
2.3689598078
 30
0.0
 11
5.1574620586
 21
2.3689598078
 31
0.0
  0
LINE
  5
178
330
1F
100
AcDbEntity
  8
0
  6
Continuous
 62
     7
370
    25
100
AcDbLine
 10
5.1358114235
 20
2.3689598078
 30
0.0
 11
4.8666126937
 21
2.3689598078
 31
0.0
  0
LINE
  5
179
330
1F
100
AcDbEntity
  8
0
  6
Continuous
 62
     7
370
    25
100
AcDbLine
 10
4.8233114235
 20
2.3689598078
 30
0.0
 11
4.8666126937
 21
2.3689598078
 31
0.0
  0
LINE
  5
17A
330
1F
100
AcDbEntity
  8
0
  6
Continuous
 62
     7
370
    25
100
AcDbLine
 10
4.5541126937
 20
2.3689598078
 30
0.0
 11
4.8233114235
 21
2.3689598078
 31
0.0
  0
LINE
  5
17B
330
1F
100
AcDbEntity
  8
0
  6
Continuous
 62
     7
370
    25
100
AcDbLine
 10
4.5324620586
 20
2.3689598078
 30
0.0
 11
4.5541126937
 21
2.3689598078
 31
0.0
  0
LINE
  5
17C
330
1F
100
AcDbEntity
  8
0
  6
Continuous
 62
     7
370
    25
100
AcDbLine
 10
4.5541126937
 20
2.0889598078
 30
0.0
 11
4.5324620586
 21
2.0889598078
 31
0.0
  0
LINE
  5
17D
330
1F
100
AcDbEntity
  8
0
  6
Continuous
 62
     7
370
    25
100
AcDbLine
 10
4.5541126937
 20
2.0889598078
 30
0.0
 11
4.8233114235
 21
2.0889598078
 31
0.0
  0
LINE
  5
17E
330
1F
100
AcDbEntity
  8
0
  6
Continuous
 62
     7
370
    25
100
AcDbLine
 10
4.8666126937
 20
2.0889598078
 30
0.0
 11
4.8233114235
 21
2.0889598078
 31
0.0
  0
LINE
  5
17F
330
1F
100
AcDbEntity
  8
0
  6
Continuous
 62
     7
370
    25
100
AcDbLine
 10
5.1358114235
 20
2.0889598078
 30
0.0
 11
4.8666126937
 21
2.0889598078
 31
0.0
  0
LINE
  5
180
330
1F
100
AcDbEntity
  8
0
  6
Continuous
 62
     7
370
    25
100
AcDbLine
 10
5.1574620586
 20
2.0889598078
 30
0.0
 11
5.1358114235
 21
2.0889598078
 31
0.0
  0
LINE
  5
181
330
1F
100
AcDbEntity
  8
0
  6
Continuous
 62
     7
370
    25
100
AcDbLine
 10
4.8666126937
 20
2.3689598078
 30
0.0
 11
4.8666126937
 21
2.0889598078
 31
0.0
  0
LINE
  5
182
330
1F
100
AcDbEntity
  8
0
  6
Continuous
 62
     7
370
    25
100
AcDbLine
 10
5.1358114235
 20
2.0889598078
 30
0.0
 11
5.1358114235
 21
2.3689598078
 31
0.0
  0
LINE
  5
183
330
1F
100
AcDbEntity
  8
0
  6
Continuous
 62
     7
370
    25
100
AcDbLine
 10
4.8233114235
 20
2.0889598078
 30
0.0
 11
4.8233114235
 21
2.3689598078
 31
0.0
  0
LINE
  5
184
330
1F
100
AcDbEntity
  8
0
  6
Continuous
 62
     7
370
    25
100
AcDbLine
 10
4.5541126937
 20
2.3689598078
 30
0.0
 11
4.5541126937
 21
2.0889598078
 31
0.0
  0
LINE
  5
185
330
1F
100
AcDbEntity
  8
0
  6
Continuous
 62
     7
370
    25
100
AcDbLine
 10
4.5649620586
 20
1.6589598078
 30
0.0
 11
5.1249620586
 21
1.6589598078
 31
0.0
  0
LINE
  5
186
330
1F
100
AcDbEntity
  8
0
  6
Continuous
 62
     7
370
    25
100
AcDbLine
 10
5.1574620586
 20
2.3689598078
 30
0.0
 11
5.1574620586
 21
2.0889598078
 31
0.0
  0
LINE
  5
187
330
1F
100
AcDbEntity
  8
0
  6
Continuous
 62
     7
370
    25
100
AcDbLine
 10
4.5324620586
 20
2.0889598078
 30
0.0
 11
4.5324620586
 21
2.3689598078
 31
0.0
  0
LINE
  5
188
330
1F
100
AcDbEntity
  8
0
  6
Continuous
 62
     7
370
    25
100
AcDbLine
 10
4.8449620586
 20
1.6509598078
 30
0.0
 11
4.5949620586
 21
1.6509598078
 31
0.0
  0
LINE
  5
189
330
1F
100
AcDbEntity
  8
0
  6
Continuous
 62
     7
370
    25
100
AcDbLine
 10
5.0949620586
 20
1.6509598078
 30
0.0
 11
4.8449620586
 21
1.6509598078
 31
0.0
  0
LINE
  5
18A
330
1F
100
AcDbEntity
  8
0
  6
Continuous
 62
     7
370
    25
100
AcDbLine
 10
4.5949620586
 20
1.5969598078
 30
0.0
 11
5.0949620586
 21
1.5969598078
 31
0.0
  0
LINE
  5
18B
330
1F
100
AcDbEntity
  8
0
  6
Continuous
 62
     7
370
    25
100
AcDbLine
 10
5.0869620586
 20
1.5889598078
 30
0.0
 11
4.6029620586
 21
1.5889598078
 31
0.0
  0
LINE
  5
18C
330
1F
100
AcDbEntity
  8
0
  6
Continuous
 62
     7
370
    25
100
AcDbLine
 10
4.6209620586
 20
1.5009598078
 30
0.0
 11
5.0689620586
 21
1.5009598078
 31
0.0
  0
LINE
  5
18D
330
1F
100
AcDbEntity
  8
0
  6
Continuous
 62
   144
370
    18
100
AcDbLine
 10
4.6574620586
 20
2.6609598078
 30
0.0
 11
5.0324620586
 21
2.6609598078
 31
0.0
  0
SPLINE
  5
18E
330
1F
100
AcDbEntity
  8
0
  6
Continuous
 62
     7
370
    25
100
AcDbSpline
210
0.0
220
0.0
230
1.0
 70
    24
 71
     3
 72
    14
 73
    10
 74
     0
 42
0.000000001
 43
0.00000001
 40
0.0
 40
0.0
 40
0.0
 40
0.0
 40
0.25
 40
0.25
 40
0.5
 40
0.5
 40
0.75
 40
0.75
 40
1.0
 40
1.0
 40
1.0
 40
1.0
 10
5.254962058558151
 20
2.835959807772686
 30
0.0
 10
5.254962058558151
 20
2.835959807772686
 30
0.0
 10
5.211763577962013
 20
2.835959807772686
 30
0.0
 10
5.057988099727258
 20
2.835959807772686
 30
0.0
 10
4.953697741998152
 20
2.835959807772686
 30
0.0
 10
4.736226375118152
 20
2.835959807772686
 30
0.0
 10
4.631936017389044
 20
2.835959807772686
 30
0.0
 10
4.478160539154289
 20
2.835959807772686
 30
0.0
 10
4.434962058558152
 20
2.835959807772686
 30
0.0
 10
4.434962058558152
 20
2.835959807772686
 30
0.0
  0
SPLINE
  5
18F
330
1F
100
AcDbEntity
  8
0
  6
Continuous
 62
   144
370
    18
100
AcDbSpline
210
0.0
220
0.0
230
1.0
 70
    24
 71
     3
 72
    14
 73
    10
 74
     0
 42
0.000000001
 43
0.00000001
 40
0.0
 40
0.0
 40
0.0
 40
0.0
 40
0.25
 40
0.25
 40
0.5
 40
0.5
 40
0.75
 40
0.75
 40
1.0
 40
1.0
 40
1.0
 40
1.0
 10
4.434962058558152
 20
3.045959807772686
 30
0.0
 10
4.434962058558152
 20
3.045959807772686
 30
0.0
 10
4.478160539154289
 20
3.045959807772686
 30
0.0
 10
4.631936017389044
 20
3.045959807772686
 30
0.0
 10
4.736226375118152
 20
3.045959807772686
 30
0.0
 10
4.953697741998152
 20
3.045959807772686
 30
0.0
 10
5.057988099727258
 20
3.045959807772686
 30
0.0
 10
5.211763577962013
 20
3.045959807772686
 30
0.0
 10
5.254962058558151
 20
3.045959807772686
 30
0.0
 10
5.254962058558151
 20
3.045959807772686
 30
0.0
  0
LINE
  5
190
330
1F
100
AcDbEntity
  8
0
  6
Continuous
 62
     7
370
    25
100
AcDbLine
 10
4.6574620586
 20
2.6609598078
 30
0.0
 11
5.0324620586
 21
2.6609598078
 31
0.0
  0
LINE
  5
191
330
1F
100
AcDbEntity
  8
0
  6
Continuous
 62
     7
370
    25
100
AcDbLine
 10
5.0264581216
 20
4.8209598078
 30
0.0
 11
5.0264581216
 21
4.8524558708
 31
0.0
  0
LINE
  5
192
330
1F
100
AcDbEntity
  8
0
  6
Continuous
 62
     7
370
    25
100
AcDbLine
 10
5.0894502475
 20
4.8524558708
 30
0.0
 11
5.0894502475
 21
4.8209598078
 31
0.0
  0
LINE
  5
193
330
1F
100
AcDbEntity
  8
0
  6
Continuous
 62
     7
370
    25
100
AcDbLine
 10
5.0894502475
 20
4.8524558708
 30
0.0
 11
5.0264581216
 21
4.8524558708
 31
0.0
  0
LINE
  5
194
330
1F
100
AcDbEntity
  8
0
  6
Continuous
 62
     7
370
    25
100
AcDbLine
 10
4.6634659956
 20
4.8524558708
 30
0.0
 11
4.6004738696
 21
4.8524558708
 31
0.0
  0
LINE
  5
195
330
1F
100
AcDbEntity
  8
0
  6
Continuous
 62
     7
370
    25
100
AcDbLine
 10
5.0264581216
 20
4.8524558708
 30
0.0
 11
4.6634659956
 21
4.8524558708
 31
0.0
  0
LINE
  5
196
330
1F
100
AcDbEntity
  8
0
  6
Continuous
 62
     7
370
    25
100
AcDbLine
 10
4.6634659956
 20
4.8209598078
 30
0.0
 11
4.6634659956
 21
4.8524558708
 31
0.0
  0
LINE
  5
197
330
1F
100
AcDbEntity
  8
0
  6
Continuous
 62
     7
370
    25
100
AcDbLine
 10
4.6004738696
 20
4.8209598078
 30
0.0
 11
4.6004738696
 21
4.8524558708
 31
0.0
  0
ARC
  5
198
330
1F
100
AcDbEntity
  8
0
  6
Continuous
 62
     7
370
    25
100
AcDbCircle
 10
5.0577573341
 20
4.8839519338
 30
0.0
 40
0.0314960629921268
100
AcDbArc
 50
180.0
 51
269.9999999996
  0
ARC
  5
199
330
1F
100
AcDbEntity
  8
0
  6
Continuous
 62
     7
370
    25
100
AcDbCircle
 10
4.632166783
 20
4.8839519338
 30
0.0
 40
0.0314960629921259
100
AcDbArc
 50
270.0
 51
0.0000000044
  0
LINE
  5
19A
330
1F
100
AcDbEntity
  8
0
  6
Continuous
 62
     7
370
    25
100
AcDbLine
 10
5.0262612712
 20
5.0424830361
 30
0.0
 11
5.0262612712
 21
4.8839519338
 31
0.0
  0
LINE
  5
19B
330
1F
100
AcDbEntity
  8
0
  6
Continuous
 62
     7
370
    25
100
AcDbLine
 10
5.0262612712
 20
5.0424830361
 30
0.0
 11
4.8867172752
 21
5.0424830361
 31
0.0
  0
LINE
  5
19C
330
1F
100
AcDbEntity
  8
0
  6
Continuous
 62
     7
370
    25
100
AcDbLine
 10
5.0105132397
 20
5.0847394388
 30
0.0
 11
4.8894518922
 21
5.0847394388
 31
0.0
  0
ARC
  5
19D
330
1F
100
AcDbEntity
  8
0
  6
Continuous
 62
     7
370
    25
100
AcDbCircle
 10
5.1826432663
 20
5.0445489151
 30
0.0
 40
0.2959332019913957
100
AcDbArc
 50
172.194571261
 51
180.3999791324
  0
ARC
  5
19E
330
1F
100
AcDbEntity
  8
0
  6
Continuous
 62
     7
370
    25
100
AcDbCircle
 10
4.961694342
 20
5.0424830361
 30
0.0
 40
0.0645669291338595
100
AcDbArc
 50
0.0
 51
40.8786351465
  0
LINE
  5
19F
330
1F
100
AcDbEntity
  8
0
  6
Continuous
 62
     7
370
    25
100
AcDbLine
 10
4.8894518922
 20
5.0847394388
 30
0.0
 11
4.7646487426
 21
5.0847394388
 31
0.0
  0
ARC
  5
1A0
330
1F
100
AcDbEntity
  8
0
  6
Continuous
 62
     7
370
    25
100
AcDbCircle
 10
5.0578401158
 20
5.0445489151
 30
0.0
 40
0.2959332011536689
100
AcDbArc
 50
172.1945712538
 51
180.3999791485
  0
LINE
  5
1A1
330
1F
100
AcDbEntity
  8
0
  6
Continuous
 62
     7
370
    25
100
AcDbLine
 10
4.8867172752
 20
5.0424830361
 30
0.0
 11
4.7619141256
 21
5.0424830361
 31
0.0
  0
LINE
  5
1A2
330
1F
100
AcDbEntity
  8
0
  6
Continuous
 62
     7
370
    25
100
AcDbLine
 10
4.7619141256
 20
5.0424830361
 30
0.0
 11
4.663662846
 21
5.0424830361
 31
0.0
  0
LINE
  5
1A3
330
1F
100
AcDbEntity
  8
0
  6
Continuous
 62
     7
370
    25
100
AcDbLine
 10
4.663662846
 20
5.0424830361
 30
0.0
 11
4.663662846
 21
4.8839519338
 31
0.0
  0
LINE
  5
1A4
330
1F
100
AcDbEntity
  8
0
  6
Continuous
 62
     7
370
    25
100
AcDbLine
 10
4.7646487426
 20
5.0847394388
 30
0.0
 11
4.6794108775
 21
5.0847394388
 31
0.0
  0
ARC
  5
1A5
330
1F
100
AcDbEntity
  8
0
  6
Continuous
 62
     7
370
    25
100
AcDbCircle
 10
4.7282297751
 20
5.0424830361
 30
0.0
 40
0.0645669291339992
100
AcDbArc
 50
139.1213648536
 51
179.9999999956
  0
LINE
  5
1A6
330
1F
100
AcDbEntity
  8
0
  6
Continuous
 62
     8
370
    25
100
AcDbLine
 10
5.2649620586
 20
2.8459598078
 30
0.0
 11
4.4249620586
 21
2.8459598078
 31
0.0
  0
LINE
  5
1A7
330
1F
100
AcDbEntity
  8
0
  6
Continuous
 62
     8
370
    25
100
AcDbLine
 10
5.2649620586
 20
3.0359598078
 30
0.0
 11
4.4249620586
 21
3.0359598078
 31
0.0
  0
LINE
  5
1A8
330
1F
100
AcDbEntity
  8
0
  6
Continuous
 62
     8
370
    25
100
AcDbLine
 10
5.0324620586
 20
2.8159598078
 30
0.0
 11
4.6574620586
 21
2.8159598078
 31
0.0
  0
LINE
  5
1A9
330
1F
100
AcDbEntity
  8
0
  6
Continuous
 62
     8
370
    25
100
AcDbLine
 10
4.9529265589
 20
4.8839519338
 30
0.0
 11
5.0262612712
 21
4.8839519338
 31
0.0
  0
LINE
  5
1AA
330
1F
100
AcDbEntity
  8
0
  6
Continuous
 62
     8
370
    25
100
AcDbLine
 10
4.663662846
 20
4.8839519338
 30
0.0
 11
4.7369975582
 21
4.8839519338
 31
0.0
  0
LINE
  5
1AB
330
1F
100
AcDbEntity
  8
0
  6
Continuous
 62
     8
370
    25
100
AcDbLine
 10
4.8867172752
 20
5.0424830361
 30
0.0
 11
4.8867172752
 21
5.0394558708
 31
0.0
  0
LINE
  5
1AC
330
1F
100
AcDbEntity
  8
0
  6
Continuous
 62
     8
370
    25
100
AcDbLine
 10
4.7619141256
 20
5.0424830361
 30
0.0
 11
4.7619141256
 21
5.0394558708
 31
0.0
  0
LINE
  5
1AD
330
1F
100
AcDbEntity
  8
0
  6
Continuous
 62
     7
370
    25
100
AcDbLine
 10
2.7109047002
 20
7.1331170468
 30
0.0
 11
2.7109047002
 21
7.1332121128
 31
0.0
  0
LINE
  5
1AE
330
1F
100
AcDbEntity
  8
0
  6
Continuous
 62
     7
370
    25
100
AcDbLine
 10
2.5979047002
 20
7.1332121128
 30
0.0
 11
2.5979047002
 21
7.1331170468
 31
0.0
  0
LINE
  5
1AF
330
1F
100
AcDbEntity
  8
0
  6
Continuous
 62
     7
370
    25
100
AcDbLine
 10
2.7109047002
 20
6.300657277
 30
0.0
 11
2.7109047002
 21
6.300752343
 31
0.0
  0
LINE
  5
1B0
330
1F
100
AcDbEntity
  8
0
  6
Continuous
 62
     7
370
    25
100
AcDbLine
 10
2.5979047002
 20
6.300752343
 30
0.0
 11
2.5979047002
 21
6.300657277
 31
0.0
  0
LINE
  5
1B1
330
1F
100
AcDbEntity
  8
0
  6
Continuous
 62
     7
370
    25
100
AcDbLine
 10
2.8434519443
 20
6.5643756398
 30
0.0
 11
2.7647117868
 21
6.5643756398
 31
0.0
  0
LINE
  5
1B2
330
1F
100
AcDbEntity
  8
0
  6
Continuous
 62
     7
370
    25
100
AcDbLine
 10
2.6938456451
 20
6.5643756398
 30
0.0
 11
2.6151054876
 21
6.5643756398
 31
0.0
  0
LINE
  5
1B3
330
1F
100
AcDbEntity
  8
0
  6
Continuous
 62
     7
370
    25
100
AcDbLine
 10
2.5442393459
 20
6.5643756398
 30
0.0
 11
2.4654991884
 21
6.5643756398
 31
0.0
  0
LINE
  5
1B4
330
1F
100
AcDbEntity
  8
0
  6
Continuous
 62
     7
370
    25
100
AcDbLine
 10
2.6151054876
 20
6.86949375
 30
0.0
 11
2.6938456451
 21
6.86949375
 31
0.0
  0
LINE
  5
1B5
330
1F
100
AcDbEntity
  8
0
  6
Continuous
 62
     7
370
    25
100
AcDbLine
 10
2.4654991884
 20
6.86949375
 30
0.0
 11
2.5442393459
 21
6.86949375
 31
0.0
  0
LINE
  5
1B6
330
1F
100
AcDbEntity
  8
0
  6
Continuous
 62
     7
370
    25
100
AcDbLine
 10
2.7647117868
 20
6.86949375
 30
0.0
 11
2.8434519443
 21
6.86949375
 31
0.0
  0
SPLINE
  5
1B7
330
1F
100
AcDbEntity
  8
0
  6
Continuous
 62
     7
370
    25
100
AcDbSpline
210
0.0
220
0.0
230
1.0
 70
     8
 71
     3
 72
    10
 73
     6
 74
     0
 42
0.000000001
 43
0.00000001
 40
0.0
 40
0.0
 40
0.0
 40
0.0
 40
0.5
 40
0.5
 40
1.0
 40
1.0
 40
1.0
 40
1.0
 10
2.817314054253403
 20
6.653222491004249
 30
0.0
 10
2.81776578084331
 20
6.649791286901141
 30
0.0
 10
2.818149680295713
 20
6.646875281056678
 30
0.0
 10
2.818683174191886
 20
6.642822992600705
 30
0.0
 10
2.818830109211795
 20
6.641708073359538
 30
0.0
 10
2.818830158569359
 20
6.641707698451618
 30
0.0
  0
ARC
  5
1B8
330
1F
100
AcDbEntity
  8
0
  6
Continuous
 62
     7
370
    25
100
AcDbCircle
 10
2.81628659
 20
6.6610291831
 30
0.0
 40
0.0194881889775601
100
AcDbArc
 50
277.4991073655
 51
97.5
  0
ARC
  5
1B9
330
1F
100
AcDbEntity
  8
0
  6
Continuous
 62
     7
370
    25
100
AcDbCircle
 10
2.81628659
 20
6.6610291831
 30
0.0
 40
0.019488188978266
100
AcDbArc
 50
97.5
 51
262.5011281548
  0
ARC
  5
1BA
330
1F
100
AcDbEntity
  8
0
  6
Continuous
 62
     7
370
    25
100
AcDbCircle
 10
2.81628659
 20
6.6610291831
 30
0.0
 40
0.0078740157463322
100
AcDbArc
 50
277.4999999996
 51
262.4999999994
  0
SPLINE
  5
1BB
330
1F
100
AcDbEntity
  8
0
  6
Continuous
 62
   144
370
    18
100
AcDbSpline
210
0.0
220
0.0
230
1.0
 70
    24
 71
     3
 72
    10
 73
     6
 74
     0
 42
0.000000001
 43
0.00000001
 40
0.0
 40
0.0
 40
0.0
 40
0.0
 40
0.5
 40
0.5
 40
1.0
 40
1.0
 40
1.0
 40
1.0
 10
2.813743251317632
 20
6.641707668184317
 30
0.0
 10
2.813743251317632
 20
6.641707668184317
 30
0.0
 10
2.813888348181009
 20
6.642809788281016
 30
0.0
 10
2.814424242478671
 20
6.646880309596468
 30
0.0
 10
2.814807858241599
 20
6.649794160605468
 30
0.0
 10
2.815259205124661
 20
6.653222480548753
 30
0.0
  0
LINE
  5
1BC
330
1F
100
AcDbEntity
  8
0
  6
Continuous
 62
     7
370
    25
100
AcDbLine
 10
2.8173143553
 20
6.6532225306
 30
0.0
 11
2.8168990966
 21
6.6563767336
 31
0.0
  0
ARC
  5
1BD
330
1F
100
AcDbEntity
  8
0
  6
Continuous
 62
     7
370
    25
100
AcDbCircle
 10
2.81628659
 20
6.6610291831
 30
0.0
 40
0.0046925952424787
100
AcDbArc
 50
277.4999999995
 51
262.4999999988
  0
LINE
  5
1BE
330
1F
100
AcDbEntity
  8
0
  6
Continuous
 62
   144
370
    18
100
AcDbLine
 10
2.8156740834
 20
6.6563767336
 30
0.0
 11
2.8152588247
 21
6.6532225306
 31
0.0
  0
SPLINE
  5
1BF
330
1F
100
AcDbEntity
  8
0
  6
Continuous
 62
   144
370
    18
100
AcDbSpline
210
0.0
220
0.0
230
1.0
 70
    24
 71
     3
 72
     8
 73
     4
 74
     0
 42
0.000000001
 43
0.00000001
 40
0.0
 40
0.0
 40
0.0
 40
0.0
 40
1.0
 40
1.0
 40
1.0
 40
1.0
 10
2.815674463829068
 20
6.656376683560598
 30
0.0
 10
2.815136043173049
 20
6.652286972648262
 30
0.0
 10
2.814771016611038
 20
6.649514320638619
 30
0.0
 10
2.814771016611038
 20
6.649514320638619
 30
0.0
  0
SPLINE
  5
1C0
330
1F
100
AcDbEntity
  8
0
  6
Continuous
 62
     7
370
    25
100
AcDbSpline
210
0.0
220
0.0
230
1.0
 70
     8
 71
     3
 72
    10
 73
     6
 74
     0
 42
0.000000001
 43
0.00000001
 40
0.0
 40
0.0
 40
0.0
 40
0.0
 40
0.5
 40
0.5
 40
1.0
 40
1.0
 40
1.0
 40
1.0
 10
2.761322117827655
 20
6.780646898786904
 30
0.0
 10
2.760870391237748
 20
6.784078102890012
 30
0.0
 10
2.760486491785345
 20
6.786994108734477
 30
0.0
 10
2.759952997889171
 20
6.791046397190447
 30
0.0
 10
2.759806062869263
 20
6.792161316431612
 30
0.0
 10
2.759806013511699
 20
6.792161691339536
 30
0.0
  0
ARC
  5
1C1
330
1F
100
AcDbEntity
  8
0
  6
Continuous
 62
     7
370
    25
100
AcDbCircle
 10
2.7623495821
 20
6.7728402067
 30
0.0
 40
0.0194881889775592
100
AcDbArc
 50
97.4991073655
 51
277.5
  0
ARC
  5
1C2
330
1F
100
AcDbEntity
  8
0
  6
Continuous
 62
     7
370
    25
100
AcDbCircle
 10
2.7623495821
 20
6.7728402067
 30
0.0
 40
0.019488188978266
100
AcDbArc
 50
277.5
 51
82.5011281548
  0
SPLINE
  5
1C3
330
1F
100
AcDbEntity
  8
0
  6
Continuous
 62
     7
370
    25
100
AcDbSpline
210
0.0
220
0.0
230
1.0
 70
    24
 71
     3
 72
    10
 73
     6
 74
     0
 42
0.000000001
 43
0.00000001
 40
0.0
 40
0.0
 40
0.0
 40
0.0
 40
0.5
 40
0.5
 40
1.0
 40
1.0
 40
1.0
 40
1.0
 10
2.764892920763426
 20
6.792161721606837
 30
0.0
 10
2.764892920763426
 20
6.792161721606837
 30
0.0
 10
2.764747823900048
 20
6.791059601510132
 30
0.0
 10
2.764211929602383
 20
6.786989080194663
 30
0.0
 10
2.763828313839455
 20
6.784075229185651
 30
0.0
 10
2.763376966956391
 20
6.780646909242353
 30
0.0
  0
ARC
  5
1C4
330
1F
100
AcDbEntity
  8
0
  6
Continuous
 62
     7
370
    25
100
AcDbCircle
 10
2.7623495821
 20
6.7728402067
 30
0.0
 40
0.0078740157463322
100
AcDbArc
 50
97.4999999996
 51
82.4999999983
  0
LINE
  5
1C5
330
1F
100
AcDbEntity
  8
0
  6
Continuous
 62
     7
370
    25
100
AcDbLine
 10
2.7613218168
 20
6.7806468592
 30
0.0
 11
2.7617370755
 21
6.7774926561
 31
0.0
  0
LINE
  5
1C6
330
1F
100
AcDbEntity
  8
0
  6
Continuous
 62
     7
370
    25
100
AcDbLine
 10
2.7629620887
 20
6.7774926561
 30
0.0
 11
2.7633773474
 21
6.7806468592
 31
0.0
  0
ARC
  5
1C7
330
1F
100
AcDbEntity
  8
0
  6
Continuous
 62
   144
370
    18
100
AcDbCircle
 10
2.7623495821
 20
6.7728402067
 30
0.0
 40
0.0046925952424796
100
AcDbArc
 50
97.4999999995
 51
82.499999997
  0
ARC
  5
1C8
330
1F
100
AcDbEntity
  8
0
  6
Continuous
 62
     7
370
    25
100
AcDbCircle
 10
2.6544755664
 20
6.7728402067
 30
0.0
 40
0.0194881889775602
100
AcDbArc
 50
97.4991073654
 51
277.5
  0
ARC
  5
1C9
330
1F
100
AcDbEntity
  8
0
  6
Continuous
 62
     7
370
    25
100
AcDbCircle
 10
2.6544755664
 20
6.7728402067
 30
0.0
 40
0.0194881889782656
100
AcDbArc
 50
277.5
 51
82.5011281548
  0
ARC
  5
1CA
330
1F
100
AcDbEntity
  8
0
  6
Continuous
 62
     7
370
    25
100
AcDbCircle
 10
2.6544755664
 20
6.7728402067
 30
0.0
 40
0.0078740157471777
100
AcDbArc
 50
97.5000000006
 51
82.5
  0
SPLINE
  5
1CB
330
1F
100
AcDbEntity
  8
0
  6
Continuous
 62
   144
370
    18
100
AcDbSpline
210
0.0
220
0.0
230
1.0
 70
    24
 71
     3
 72
    10
 73
     6
 74
     0
 42
0.000000001
 43
0.00000001
 40
0.0
 40
0.0
 40
0.0
 40
0.0
 40
0.5
 40
0.5
 40
1.0
 40
1.0
 40
1.0
 40
1.0
 10
2.657018905015412
 20
6.792161721606835
 30
0.0
 10
2.657018905015412
 20
6.792161721606835
 30
0.0
 10
2.656873808152034
 20
6.79105960151013
 30
0.0
 10
2.656337913854369
 20
6.786989080194658
 30
0.0
 10
2.65595429809144
 20
6.784075229185646
 30
0.0
 10
2.655502951208376
 20
6.780646909242348
 30
0.0
  0
SPLINE
  5
1CC
330
1F
100
AcDbEntity
  8
0
  6
Continuous
 62
   144
370
    18
100
AcDbSpline
210
0.0
220
0.0
230
1.0
 70
     8
 71
     3
 72
    10
 73
     6
 74
     0
 42
0.000000001
 43
0.00000001
 40
0.0
 40
0.0
 40
0.0
 40
0.0
 40
0.5
 40
0.5
 40
1.0
 40
1.0
 40
1.0
 40
1.0
 10
2.653448102079633
 20
6.780646898786882
 30
0.0
 10
2.652996375489725
 20
6.784078102889996
 30
0.0
 10
2.652612476037321
 20
6.786994108734465
 30
0.0
 10
2.652078982141147
 20
6.791046397190446
 30
0.0
 10
2.651932047121234
 20
6.792161316431621
 30
0.0
 10
2.65193199776367
 20
6.792161691339537
 30
0.0
  0
ARC
  5
1CD
330
1F
100
AcDbEntity
  8
0
  6
Continuous
 62
   144
370
    18
100
AcDbCircle
 10
2.6544755664
 20
6.7728402067
 30
0.0
 40
0.0046925952421784
100
AcDbArc
 50
97.4999999996
 51
82.5
  0
LINE
  5
1CE
330
1F
100
AcDbEntity
  8
0
  6
Continuous
 62
   144
370
    18
100
AcDbLine
 10
2.6550880729
 20
6.7774926561
 30
0.0
 11
2.6555033316
 21
6.7806468592
 31
0.0
  0
LINE
  5
1CF
330
1F
100
AcDbEntity
  8
0
  6
Continuous
 62
   144
370
    18
100
AcDbLine
 10
2.6534478011
 20
6.7806468592
 30
0.0
 11
2.6538630598
 21
6.7774926561
 31
0.0
  0
SPLINE
  5
1D0
330
1F
100
AcDbEntity
  8
0
  6
Continuous
 62
     7
370
    25
100
AcDbSpline
210
0.0
220
0.0
230
1.0
 70
     8
 71
     3
 72
    10
 73
     6
 74
     0
 42
0.000000001
 43
0.00000001
 40
0.0
 40
0.0
 40
0.0
 40
0.0
 40
0.5
 40
0.5
 40
1.0
 40
1.0
 40
1.0
 40
1.0
 10
2.545574086331592
 20
6.780646898786903
 30
0.0
 10
2.545122359741685
 20
6.784078102890011
 30
0.0
 10
2.544738460289282
 20
6.786994108734477
 30
0.0
 10
2.544204966393109
 20
6.791046397190447
 30
0.0
 10
2.544058031373199
 20
6.792161316431618
 30
0.0
 10
2.544057982015635
 20
6.792161691339536
 30
0.0
  0
ARC
  5
1D1
330
1F
100
AcDbEntity
  8
0
  6
Continuous
 62
     7
370
    25
100
AcDbCircle
 10
2.5466015506
 20
6.7728402067
 30
0.0
 40
0.0194881889775592
100
AcDbArc
 50
97.4991073655
 51
277.5
  0
ARC
  5
1D2
330
1F
100
AcDbEntity
  8
0
  6
Continuous
 62
     7
370
    25
100
AcDbCircle
 10
2.5466015506
 20
6.7728402067
 30
0.0
 40
0.019488188978266
100
AcDbArc
 50
277.5
 51
82.5011281548
  0
SPLINE
  5
1D3
330
1F
100
AcDbEntity
  8
0
  6
Continuous
 62
     7
370
    25
100
AcDbSpline
210
0.0
220
0.0
230
1.0
 70
    24
 71
     3
 72
    10
 73
     6
 74
     0
 42
0.000000001
 43
0.00000001
 40
0.0
 40
0.0
 40
0.0
 40
0.0
 40
0.5
 40
0.5
 40
1.0
 40
1.0
 40
1.0
 40
1.0
 10
2.549144889267362
 20
6.792161721606837
 30
0.0
 10
2.549144889267362
 20
6.792161721606837
 30
0.0
 10
2.548999792403983
 20
6.791059601510115
 30
0.0
 10
2.548463898106311
 20
6.786989080194592
 30
0.0
 10
2.548080282343377
 20
6.784075229185541
 30
0.0
 10
2.547628935460308
 20
6.780646909242208
 30
0.0
  0
ARC
  5
1D4
330
1F
100
AcDbEntity
  8
0
  6
Continuous
 62
     7
370
    25
100
AcDbCircle
 10
2.5466015506
 20
6.7728402067
 30
0.0
 40
0.0078740157463242
100
AcDbArc
 50
97.4999999996
 51
82.5000000003
  0
LINE
  5
1D5
330
1F
100
AcDbEntity
  8
0
  6
Continuous
 62
     7
370
    25
100
AcDbLine
 10
2.5455737853
 20
6.7806468592
 30
0.0
 11
2.545989044
 21
6.7774926561
 31
0.0
  0
LINE
  5
1D6
330
1F
100
AcDbEntity
  8
0
  6
Continuous
 62
     7
370
    25
100
AcDbLine
 10
2.5472140572
 20
6.7774926561
 30
0.0
 11
2.5476293159
 21
6.7806468592
 31
0.0
  0
ARC
  5
1D7
330
1F
100
AcDbEntity
  8
0
  6
Continuous
 62
   144
370
    18
100
AcDbCircle
 10
2.5466015506
 20
6.7728402067
 30
0.0
 40
0.0046925952424717
100
AcDbArc
 50
97.4999999995
 51
82.5000000004
  0
SPLINE
  5
1D8
330
1F
100
AcDbEntity
  8
0
  6
Continuous
 62
     7
370
    25
100
AcDbSpline
210
0.0
220
0.0
230
1.0
 70
     8
 71
     3
 72
    10
 73
     6
 74
     0
 42
0.000000001
 43
0.00000001
 40
0.0
 40
0.0
 40
0.0
 40
0.0
 40
0.5
 40
0.5
 40
1.0
 40
1.0
 40
1.0
 40
1.0
 10
2.709440038505368
 20
6.653222491004276
 30
0.0
 10
2.709891765095275
 20
6.64979128690116
 30
0.0
 10
2.71027566454768
 20
6.64687528105669
 30
0.0
 10
2.710809158443855
 20
6.642822992600709
 30
0.0
 10
2.710956093463763
 20
6.641708073359541
 30
0.0
 10
2.710956142821328
 20
6.641707698451618
 30
0.0
  0
ARC
  5
1D9
330
1F
100
AcDbEntity
  8
0
  6
Continuous
 62
     7
370
    25
100
AcDbCircle
 10
2.7084125742
 20
6.6610291831
 30
0.0
 40
0.0194881889775601
100
AcDbArc
 50
277.4991073655
 51
97.5
  0
ARC
  5
1DA
330
1F
100
AcDbEntity
  8
0
  6
Continuous
 62
     7
370
    25
100
AcDbCircle
 10
2.7084125742
 20
6.6610291831
 30
0.0
 40
0.019488188978266
100
AcDbArc
 50
97.5
 51
262.5011281548
  0
SPLINE
  5
1DB
330
1F
100
AcDbEntity
  8
0
  6
Continuous
 62
     7
370
    25
100
AcDbSpline
210
0.0
220
0.0
230
1.0
 70
    24
 71
     3
 72
    10
 73
     6
 74
     0
 42
0.000000001
 43
0.00000001
 40
0.0
 40
0.0
 40
0.0
 40
0.0
 40
0.5
 40
0.5
 40
1.0
 40
1.0
 40
1.0
 40
1.0
 10
2.705869235569601
 20
6.641707668184317
 30
0.0
 10
2.705869235569601
 20
6.641707668184317
 30
0.0
 10
2.706014332432978
 20
6.642809788281022
 30
0.0
 10
2.706550226730643
 20
6.646880309596495
 30
0.0
 10
2.706933842493572
 20
6.649794160605508
 30
0.0
 10
2.707385189376637
 20
6.653222480548807
 30
0.0
  0
ARC
  5
1DC
330
1F
100
AcDbEntity
  8
0
  6
Continuous
 62
     7
370
    25
100
AcDbCircle
 10
2.7084125742
 20
6.6610291831
 30
0.0
 40
0.0078740157471669
100
AcDbArc
 50
277.4999999996
 51
262.5
  0
LINE
  5
1DD
330
1F
100
AcDbEntity
  8
0
  6
Continuous
 62
     7
370
    25
100
AcDbLine
 10
2.7094403395
 20
6.6532225306
 30
0.0
 11
2.7090250808
 21
6.6563767336
 31
0.0
  0
LINE
  5
1DE
330
1F
100
AcDbEntity
  8
0
  6
Continuous
 62
     7
370
    25
100
AcDbLine
 10
2.7078000676
 20
6.6563767336
 30
0.0
 11
2.7073848089
 21
6.6532225306
 31
0.0
  0
ARC
  5
1DF
330
1F
100
AcDbEntity
  8
0
  6
Continuous
 62
   144
370
    18
100
AcDbCircle
 10
2.7084125742
 20
6.6610291831
 30
0.0
 40
0.0046925952421676
100
AcDbArc
 50
277.4999999979
 51
262.4999999998
  0
SPLINE
  5
1E0
330
1F
100
AcDbEntity
  8
0
  6
Continuous
 62
     7
370
    25
100
AcDbSpline
210
0.0
220
0.0
230
1.0
 70
     8
 71
     3
 72
    10
 73
     6
 74
     0
 42
0.000000001
 43
0.00000001
 40
0.0
 40
0.0
 40
0.0
 40
0.0
 40
0.5
 40
0.5
 40
1.0
 40
1.0
 40
1.0
 40
1.0
 10
2.601566022757337
 20
6.653222491004274
 30
0.0
 10
2.602017749347244
 20
6.649791286901159
 30
0.0
 10
2.602401648799648
 20
6.646875281056689
 30
0.0
 10
2.602935142695823
 20
6.642822992600709
 30
0.0
 10
2.603082077715731
 20
6.641708073359544
 30
0.0
 10
2.603082127073296
 20
6.641707698451618
 30
0.0
  0
ARC
  5
1E1
330
1F
100
AcDbEntity
  8
0
  6
Continuous
 62
     7
370
    25
100
AcDbCircle
 10
2.6005385585
 20
6.6610291831
 30
0.0
 40
0.01948818897756
100
AcDbArc
 50
277.4991073655
 51
97.5
  0
ARC
  5
1E2
330
1F
100
AcDbEntity
  8
0
  6
Continuous
 62
     7
370
    25
100
AcDbCircle
 10
2.6005385585
 20
6.6610291831
 30
0.0
 40
0.019488188978266
100
AcDbArc
 50
97.5
 51
262.5011281548
  0
SPLINE
  5
1E3
330
1F
100
AcDbEntity
  8
0
  6
Continuous
 62
     7
370
    25
100
AcDbSpline
210
0.0
220
0.0
230
1.0
 70
    24
 71
     3
 72
    10
 73
     6
 74
     0
 42
0.000000001
 43
0.00000001
 40
0.0
 40
0.0
 40
0.0
 40
0.0
 40
0.5
 40
0.5
 40
1.0
 40
1.0
 40
1.0
 40
1.0
 10
2.597995219821569
 20
6.641707668184317
 30
0.0
 10
2.597995219821569
 20
6.641707668184317
 30
0.0
 10
2.598140316684947
 20
6.642809788281022
 30
0.0
 10
2.598676210982612
 20
6.646880309596494
 30
0.0
 10
2.59905982674554
 20
6.649794160605507
 30
0.0
 10
2.599511173628605
 20
6.653222480548805
 30
0.0
  0
ARC
  5
1E4
330
1F
100
AcDbEntity
  8
0
  6
Continuous
 62
     7
370
    25
100
AcDbCircle
 10
2.6005385585
 20
6.6610291831
 30
0.0
 40
0.0078740157471701
100
AcDbArc
 50
277.5000000006
 51
262.5
  0
LINE
  5
1E5
330
1F
100
AcDbEntity
  8
0
  6
Continuous
 62
     7
370
    25
100
AcDbLine
 10
2.6015663238
 20
6.6532225306
 30
0.0
 11
2.6011510651
 21
6.6563767336
 31
0.0
  0
LINE
  5
1E6
330
1F
100
AcDbEntity
  8
0
  6
Continuous
 62
     7
370
    25
100
AcDbLine
 10
2.5999260519
 20
6.6563767336
 30
0.0
 11
2.5995107932
 21
6.6532225306
 31
0.0
  0
ARC
  5
1E7
330
1F
100
AcDbEntity
  8
0
  6
Continuous
 62
   144
370
    18
100
AcDbCircle
 10
2.6005385585
 20
6.6610291831
 30
0.0
 40
0.0046925952421715
100
AcDbArc
 50
277.4999999996
 51
262.4999999998
  0
ARC
  5
1E8
330
1F
100
AcDbEntity
  8
0
  6
Continuous
 62
     7
370
    25
100
AcDbCircle
 10
2.3014528621
 20
7.0119346949
 30
0.0
 40
0.04
100
AcDbArc
 50
270.0
 51
320.110849667
  0
ARC
  5
1E9
330
1F
100
AcDbEntity
  8
0
  6
Continuous
 62
     7
370
    25
100
AcDbCircle
 10
2.6544047002
 20
6.7169346949
 30
0.0
 40
0.4199999999999997
100
AcDbArc
 50
39.889150333
 51
140.110849667
  0
ARC
  5
1EA
330
1F
100
AcDbEntity
  8
0
  6
Continuous
 62
     7
370
    25
100
AcDbCircle
 10
3.0073565383
 20
7.0119346949
 30
0.0
 40
0.0400000000000003
100
AcDbArc
 50
219.889150333
 51
270.0
  0
LINE
  5
1EB
330
1F
100
AcDbEntity
  8
0
  6
Continuous
 62
     7
370
    25
100
AcDbLine
 10
3.0073565383
 20
6.9719346949
 30
0.0
 11
3.2244047002
 21
6.9719346949
 31
0.0
  0
ARC
  5
1EC
330
1F
100
AcDbEntity
  8
0
  6
Continuous
 62
     7
370
    25
100
AcDbCircle
 10
3.2244047002
 20
6.9319346949
 30
0.0
 40
0.04
100
AcDbArc
 50
0.0
 51
90.0
  0
LINE
  5
1ED
330
1F
100
AcDbEntity
  8
0
  6
Continuous
 62
     7
370
    25
100
AcDbLine
 10
3.2644047002
 20
6.9319346949
 30
0.0
 11
3.2644047002
 21
6.5019346949
 31
0.0
  0
ARC
  5
1EE
330
1F
100
AcDbEntity
  8
0
  6
Continuous
 62
     7
370
    25
100
AcDbCircle
 10
3.2244047002
 20
6.5019346949
 30
0.0
 40
0.0399999999999996
100
AcDbArc
 50
270.0
 51
0.0
  0
LINE
  5
1EF
330
1F
100
AcDbEntity
  8
0
  6
Continuous
 62
     7
370
    25
100
AcDbLine
 10
3.2244047002
 20
6.4619346949
 30
0.0
 11
3.0073565383
 21
6.4619346949
 31
0.0
  0
ARC
  5
1F0
330
1F
100
AcDbEntity
  8
0
  6
Continuous
 62
     7
370
    25
100
AcDbCircle
 10
3.0073565383
 20
6.4219346949
 30
0.0
 40
0.04
100
AcDbArc
 50
90.0
 51
140.110849667
  0
ARC
  5
1F1
330
1F
100
AcDbEntity
  8
0
  6
Continuous
 62
     7
370
    25
100
AcDbCircle
 10
2.6544047002
 20
6.7169346949
 30
0.0
 40
0.4200000000000003
100
AcDbArc
 50
219.889150333
 51
320.110849667
  0
ARC
  5
1F2
330
1F
100
AcDbEntity
  8
0
  6
Continuous
 62
     7
370
    25
100
AcDbCircle
 10
2.3014528621
 20
6.4219346949
 30
0.0
 40
0.04
100
AcDbArc
 50
39.889150333
 51
90.0
  0
LINE
  5
1F3
330
1F
100
AcDbEntity
  8
0
  6
Continuous
 62
     7
370
    25
100
AcDbLine
 10
2.3014528621
 20
6.4619346949
 30
0.0
 11
2.0844047002
 21
6.4619346949
 31
0.0
  0
ARC
  5
1F4
330
1F
100
AcDbEntity
  8
0
  6
Continuous
 62
     7
370
    25
100
AcDbCircle
 10
2.0844047002
 20
6.5019346949
 30
0.0
 40
0.0399999999999996
100
AcDbArc
 50
180.0
 51
270.0
  0
LINE
  5
1F5
330
1F
100
AcDbEntity
  8
0
  6
Continuous
 62
     7
370
    25
100
AcDbLine
 10
2.0444047002
 20
6.5019346949
 30
0.0
 11
2.0444047002
 21
6.9319346949
 31
0.0
  0
ARC
  5
1F6
330
1F
100
AcDbEntity
  8
0
  6
Continuous
 62
     7
370
    25
100
AcDbCircle
 10
2.0844047002
 20
6.9319346949
 30
0.0
 40
0.04
100
AcDbArc
 50
90.0
 51
180.0
  0
LINE
  5
1F7
330
1F
100
AcDbEntity
  8
0
  6
Continuous
 62
     7
370
    25
100
AcDbLine
 10
2.0844047002
 20
6.9719346949
 30
0.0
 11
2.3014528621
 21
6.9719346949
 31
0.0
  0
ARC
  5
1F8
330
1F
100
AcDbEntity
  8
0
  6
Continuous
 62
     7
370
    25
100
AcDbCircle
 10
2.4926645427
 20
6.6610291831
 30
0.0
 40
0.01948818897756
100
AcDbArc
 50
277.4991073655
 51
97.5
  0
ARC
  5
1F9
330
1F
100
AcDbEntity
  8
0
  6
Continuous
 62
     7
370
    25
100
AcDbCircle
 10
2.4926645427
 20
6.6610291831
 30
0.0
 40
0.019488188978266
100
AcDbArc
 50
97.5
 51
262.5011281548
  0
SPLINE
  5
1FA
330
1F
100
AcDbEntity
  8
0
  6
Continuous
 62
     7
370
    25
100
AcDbSpline
210
0.0
220
0.0
230
1.0
 70
    24
 71
     3
 72
    10
 73
     6
 74
     0
 42
0.000000001
 43
0.00000001
 40
0.0
 40
0.0
 40
0.0
 40
0.0
 40
0.5
 40
0.5
 40
1.0
 40
1.0
 40
1.0
 40
1.0
 10
2.490121204073538
 20
6.641707668184317
 30
0.0
 10
2.490121204073538
 20
6.641707668184317
 30
0.0
 10
2.490266300936915
 20
6.642809788281022
 30
0.0
 10
2.49080219523458
 20
6.646880309596495
 30
0.0
 10
2.491185810997509
 20
6.64979416060551
 30
0.0
 10
2.491637157880573
 20
6.653222480548809
 30
0.0
  0
ARC
  5
1FB
330
1F
100
AcDbEntity
  8
0
  6
Continuous
 62
     7
370
    25
100
AcDbCircle
 10
2.4926645427
 20
6.6610291831
 30
0.0
 40
0.0078740157463248
100
AcDbArc
 50
277.4999999996
 51
262.5000000014
  0
SPLINE
  5
1FC
330
1F
100
AcDbEntity
  8
0
  6
Continuous
 62
   144
370
    18
100
AcDbSpline
210
0.0
220
0.0
230
1.0
 70
     8
 71
     3
 72
    10
 73
     6
 74
     0
 42
0.000000001
 43
0.00000001
 40
0.0
 40
0.0
 40
0.0
 40
0.0
 40
0.5
 40
0.5
 40
1.0
 40
1.0
 40
1.0
 40
1.0
 10
2.493692007009308
 20
6.65322249100425
 30
0.0
 10
2.494143733599215
 20
6.649791286901142
 30
0.0
 10
2.494527633051618
 20
6.646875281056678
 30
0.0
 10
2.495061126947792
 20
6.642822992600705
 30
0.0
 10
2.4952080619677
 20
6.641708073359541
 30
0.0
 10
2.495208111325265
 20
6.641707698451618
 30
0.0
  0
LINE
  5
1FD
330
1F
100
AcDbEntity
  8
0
  6
Continuous
 62
     7
370
    25
100
AcDbLine
 10
2.4920520361
 20
6.6563767336
 30
0.0
 11
2.4916367774
 21
6.6532225306
 31
0.0
  0
ARC
  5
1FE
330
1F
100
AcDbEntity
  8
0
  6
Continuous
 62
     7
370
    25
100
AcDbCircle
 10
2.4926645427
 20
6.6610291831
 30
0.0
 40
0.0046925952424708
100
AcDbArc
 50
277.4999999995
 51
262.5000000004
  0
LINE
  5
1FF
330
1F
100
AcDbEntity
  8
0
  6
Continuous
 62
   144
370
    18
100
AcDbLine
 10
2.493692308
 20
6.6532225306
 30
0.0
 11
2.4932770493
 21
6.6563767336
 31
0.0
  0
LINE
  5
200
330
1F
100
AcDbEntity
  8
0
  6
Continuous
 62
   144
370
    18
100
AcDbLine
 10
2.4937775659
 20
6.6525726065
 30
0.0
 11
2.4941801955
 21
6.6495143311
 31
0.0
  0
SPLINE
  5
201
330
1F
100
AcDbEntity
  8
0
  6
Continuous
 62
     7
370
    25
100
AcDbSpline
210
0.0
220
0.0
230
1.0
 70
     8
 71
     3
 72
    10
 73
     6
 74
     0
 42
0.000000001
 43
0.00000001
 40
0.0
 40
0.0
 40
0.0
 40
0.0
 40
0.5
 40
0.5
 40
1.0
 40
1.0
 40
1.0
 40
1.0
 10
2.869196133575687
 20
6.780646898786902
 30
0.0
 10
2.86874440698578
 20
6.784078102890011
 30
0.0
 10
2.868360507533377
 20
6.786994108734475
 30
0.0
 10
2.867827013637203
 20
6.791046397190447
 30
0.0
 10
2.867680078617295
 20
6.792161316431607
 30
0.0
 10
2.86768002925973
 20
6.792161691339536
 30
0.0
  0
ARC
  5
202
330
1F
100
AcDbEntity
  8
0
  6
Continuous
 62
     7
370
    25
100
AcDbCircle
 10
2.8702235979
 20
6.7728402067
 30
0.0
 40
0.0194881889775592
100
AcDbArc
 50
97.4991073655
 51
277.5
  0
ARC
  5
203
330
1F
100
AcDbEntity
  8
0
  6
Continuous
 62
     7
370
    25
100
AcDbCircle
 10
2.8702235979
 20
6.7728402067
 30
0.0
 40
0.019488188978266
100
AcDbArc
 50
277.5
 51
82.5011281548
  0
SPLINE
  5
204
330
1F
100
AcDbEntity
  8
0
  6
Continuous
 62
   144
370
    18
100
AcDbSpline
210
0.0
220
0.0
230
1.0
 70
    24
 71
     3
 72
    10
 73
     6
 74
     0
 42
0.000000001
 43
0.00000001
 40
0.0
 40
0.0
 40
0.0
 40
0.0
 40
0.5
 40
0.5
 40
1.0
 40
1.0
 40
1.0
 40
1.0
 10
2.872766936511457
 20
6.792161721606837
 30
0.0
 10
2.872766936511457
 20
6.792161721606837
 30
0.0
 10
2.87262183964808
 20
6.791059601510131
 30
0.0
 10
2.872085945350415
 20
6.78698908019466
 30
0.0
 10
2.871702329587486
 20
6.784075229185646
 30
0.0
 10
2.871250982704422
 20
6.780646909242348
 30
0.0
  0
ARC
  5
205
330
1F
100
AcDbEntity
  8
0
  6
Continuous
 62
     7
370
    25
100
AcDbCircle
 10
2.8702235979
 20
6.7728402067
 30
0.0
 40
0.0078740157463175
100
AcDbArc
 50
97.4999999986
 51
82.4999999993
  0
LINE
  5
206
330
1F
100
AcDbEntity
  8
0
  6
Continuous
 62
     7
370
    25
100
AcDbLine
 10
2.8691958326
 20
6.7806468592
 30
0.0
 11
2.8696110913
 21
6.7774926561
 31
0.0
  0
ARC
  5
207
330
1F
100
AcDbEntity
  8
0
  6
Continuous
 62
   144
370
    18
100
AcDbCircle
 10
2.8702235979
 20
6.7728402067
 30
0.0
 40
0.0046925952424641
100
AcDbArc
 50
97.4999999978
 51
82.5000000005
  0
LINE
  5
208
330
1F
100
AcDbEntity
  8
0
  6
Continuous
 62
   144
370
    18
100
AcDbLine
 10
2.8708361044
 20
6.7774926561
 30
0.0
 11
2.8712513631
 21
6.7806468592
 31
0.0
  0
CIRCLE
  5
209
330
1F
100
AcDbEntity
  8
0
  6
Continuous
 62
     7
370
    25
100
AcDbCircle
 10
2.1624047002
 20
6.7169346949
 30
0.0
 40
0.0560000000000002
  0
LINE
  5
20A
330
1F
100
AcDbEntity
  8
0
  6
Continuous
 62
     7
370
    25
100
AcDbLine
 10
2.0689047002
 20
6.7709169451
 30
0.0
 11
2.0689047002
 21
6.6629524447
 31
0.0
  0
LINE
  5
20B
330
1F
100
AcDbEntity
  8
0
  6
Continuous
 62
     7
370
    25
100
AcDbLine
 10
2.2559047002
 20
6.7709169451
 30
0.0
 11
2.1624047002
 21
6.8248991952
 31
0.0
  0
LINE
  5
20C
330
1F
100
AcDbEntity
  8
0
  6
Continuous
 62
     7
370
    25
100
AcDbLine
 10
2.2559047002
 20
6.6629524447
 30
0.0
 11
2.2559047002
 21
6.7709169451
 31
0.0
  0
LINE
  5
20D
330
1F
100
AcDbEntity
  8
0
  6
Continuous
 62
     7
370
    25
100
AcDbLine
 10
2.0689047002
 20
6.6629524447
 30
0.0
 11
2.1624047002
 21
6.6089701946
 31
0.0
  0
LINE
  5
20E
330
1F
100
AcDbEntity
  8
0
  6
Continuous
 62
     7
370
    25
100
AcDbLine
 10
2.1624047002
 20
6.8248991952
 30
0.0
 11
2.0689047002
 21
6.7709169451
 31
0.0
  0
LINE
  5
20F
330
1F
100
AcDbEntity
  8
0
  6
Continuous
 62
     7
370
    25
100
AcDbLine
 10
2.1624047002
 20
6.6089701946
 30
0.0
 11
2.2559047002
 21
6.6629524447
 31
0.0
  0
LINE
  5
210
330
1F
100
AcDbEntity
  8
0
  6
Continuous
 62
     7
370
    25
100
AcDbLine
 10
3.0529047002
 20
6.7709169451
 30
0.0
 11
3.0529047002
 21
6.6629524447
 31
0.0
  0
LINE
  5
211
330
1F
100
AcDbEntity
  8
0
  6
Continuous
 62
     7
370
    25
100
AcDbLine
 10
3.2399047002
 20
6.7709169451
 30
0.0
 11
3.1464047002
 21
6.8248991952
 31
0.0
  0
CIRCLE
  5
212
330
1F
100
AcDbEntity
  8
0
  6
Continuous
 62
     7
370
    25
100
AcDbCircle
 10
3.1464047002
 20
6.7169346949
 30
0.0
 40
0.0560000000000002
  0
LINE
  5
213
330
1F
100
AcDbEntity
  8
0
  6
Continuous
 62
     7
370
    25
100
AcDbLine
 10
3.0529047002
 20
6.6629524447
 30
0.0
 11
3.1464047002
 21
6.6089701946
 31
0.0
  0
LINE
  5
214
330
1F
100
AcDbEntity
  8
0
  6
Continuous
 62
     7
370
    25
100
AcDbLine
 10
3.1464047002
 20
6.8248991952
 30
0.0
 11
3.0529047002
 21
6.7709169451
 31
0.0
  0
LINE
  5
215
330
1F
100
AcDbEntity
  8
0
  6
Continuous
 62
     7
370
    25
100
AcDbLine
 10
3.2399047002
 20
6.6629524447
 30
0.0
 11
3.2399047002
 21
6.7709169451
 31
0.0
  0
LINE
  5
216
330
1F
100
AcDbEntity
  8
0
  6
Continuous
 62
     7
370
    25
100
AcDbLine
 10
3.1464047002
 20
6.6089701946
 30
0.0
 11
3.2399047002
 21
6.6629524447
 31
0.0
  0
LINE
  5
217
330
1F
100
AcDbEntity
  8
0
  6
Continuous
 62
   144
370
    18
100
AcDbLine
 10
2.9479738326
 20
6.6933859501
 30
0.0
 11
2.9586893245
 21
6.7541565245
 31
0.0
  0
LINE
  5
218
330
1F
100
AcDbEntity
  8
0
  6
Continuous
 62
   144
370
    18
100
AcDbLine
 10
2.9586893245
 20
6.7541565245
 30
0.0
 11
2.9864006566
 21
6.7615817535
 31
0.0
  0
LINE
  5
219
330
1F
100
AcDbEntity
  8
0
  6
Continuous
 62
   144
370
    18
100
AcDbLine
 10
2.9714745006
 20
6.6769306053
 30
0.0
 11
2.9479738326
 21
6.6933859501
 31
0.0
  0
ARC
  5
21A
330
1F
100
AcDbEntity
  8
0
  6
Continuous
 62
   144
370
    18
100
AcDbCircle
 10
2.4387275349
 20
6.7728402067
 30
0.0
 40
0.0208661417322835
100
AcDbArc
 50
0.0
 51
180.0
  0
ARC
  5
21B
330
1F
100
AcDbEntity
  8
0
  6
Continuous
 62
   144
370
    18
100
AcDbCircle
 10
2.4387275349
 20
6.7728402067
 30
0.0
 40
0.0208661417322835
100
AcDbArc
 50
180.0
 51
0.0
  0
ARC
  5
21C
330
1F
100
AcDbEntity
  8
0
  6
Continuous
 62
   144
370
    18
100
AcDbCircle
 10
2.5466015506
 20
6.7728402067
 30
0.0
 40
0.0208661417322835
100
AcDbArc
 50
0.0
 51
180.0
  0
ARC
  5
21D
330
1F
100
AcDbEntity
  8
0
  6
Continuous
 62
   144
370
    18
100
AcDbCircle
 10
2.5466015506
 20
6.7728402067
 30
0.0
 40
0.0208661417322835
100
AcDbArc
 50
180.0
 51
0.0
  0
ARC
  5
21E
330
1F
100
AcDbEntity
  8
0
  6
Continuous
 62
   144
370
    18
100
AcDbCircle
 10
2.6544755664
 20
6.7728402067
 30
0.0
 40
0.0208661417322835
100
AcDbArc
 50
0.0
 51
180.0
  0
ARC
  5
21F
330
1F
100
AcDbEntity
  8
0
  6
Continuous
 62
   144
370
    18
100
AcDbCircle
 10
2.6544755664
 20
6.7728402067
 30
0.0
 40
0.0208661417322835
100
AcDbArc
 50
180.0
 51
0.0
  0
ARC
  5
220
330
1F
100
AcDbEntity
  8
0
  6
Continuous
 62
   144
370
    18
100
AcDbCircle
 10
2.7623495821
 20
6.7728402067
 30
0.0
 40
0.0208661417322835
100
AcDbArc
 50
0.0
 51
180.0
  0
ARC
  5
221
330
1F
100
AcDbEntity
  8
0
  6
Continuous
 62
   144
370
    18
100
AcDbCircle
 10
2.7623495821
 20
6.7728402067
 30
0.0
 40
0.0208661417322835
100
AcDbArc
 50
180.0
 51
0.0
  0
ARC
  5
222
330
1F
100
AcDbEntity
  8
0
  6
Continuous
 62
   144
370
    18
100
AcDbCircle
 10
2.8702235979
 20
6.7728402067
 30
0.0
 40
0.0208661417322835
100
AcDbArc
 50
0.0
 51
180.0
  0
ARC
  5
223
330
1F
100
AcDbEntity
  8
0
  6
Continuous
 62
   144
370
    18
100
AcDbCircle
 10
2.8702235979
 20
6.7728402067
 30
0.0
 40
0.0208661417322835
100
AcDbArc
 50
180.0
 51
0.0
  0
ARC
  5
224
330
1F
100
AcDbEntity
  8
0
  6
Continuous
 62
   144
370
    18
100
AcDbCircle
 10
2.4926645427
 20
6.6610291831
 30
0.0
 40
0.020866141732284
100
AcDbArc
 50
0.0
 51
180.0
  0
ARC
  5
225
330
1F
100
AcDbEntity
  8
0
  6
Continuous
 62
   144
370
    18
100
AcDbCircle
 10
2.4926645427
 20
6.6610291831
 30
0.0
 40
0.020866141732284
100
AcDbArc
 50
180.0
 51
0.0
  0
ARC
  5
226
330
1F
100
AcDbEntity
  8
0
  6
Continuous
 62
   144
370
    18
100
AcDbCircle
 10
2.6005385585
 20
6.6610291831
 30
0.0
 40
0.0208661417322835
100
AcDbArc
 50
0.0
 51
180.0
  0
ARC
  5
227
330
1F
100
AcDbEntity
  8
0
  6
Continuous
 62
   144
370
    18
100
AcDbCircle
 10
2.6005385585
 20
6.6610291831
 30
0.0
 40
0.0208661417322835
100
AcDbArc
 50
180.0
 51
0.0
  0
ARC
  5
228
330
1F
100
AcDbEntity
  8
0
  6
Continuous
 62
   144
370
    18
100
AcDbCircle
 10
2.7084125742
 20
6.6610291831
 30
0.0
 40
0.0208661417322835
100
AcDbArc
 50
0.0
 51
180.0
  0
ARC
  5
229
330
1F
100
AcDbEntity
  8
0
  6
Continuous
 62
   144
370
    18
100
AcDbCircle
 10
2.7084125742
 20
6.6610291831
 30
0.0
 40
0.0208661417322835
100
AcDbArc
 50
180.0
 51
0.0
  0
ARC
  5
22A
330
1F
100
AcDbEntity
  8
0
  6
Continuous
 62
   144
370
    18
100
AcDbCircle
 10
2.81628659
 20
6.6610291831
 30
0.0
 40
0.0208661417322835
100
AcDbArc
 50
0.0
 51
180.0
  0
ARC
  5
22B
330
1F
100
AcDbEntity
  8
0
  6
Continuous
 62
   144
370
    18
100
AcDbCircle
 10
2.81628659
 20
6.6610291831
 30
0.0
 40
0.0208661417322835
100
AcDbArc
 50
180.0
 51
0.0
  0
LINE
  5
22C
330
1F
100
AcDbEntity
  8
0
  6
Continuous
 62
   144
370
    18
100
AcDbLine
 10
2.5802552177
 20
6.6659263207
 30
0.0
 11
2.5813410811
 21
6.6643827439
 31
0.0
  0
LINE
  5
22D
330
1F
100
AcDbEntity
  8
0
  6
Continuous
 62
   144
370
    18
100
AcDbLine
 10
2.5979703207
 20
6.646826487
 30
0.0
 11
2.6021085091
 21
6.6436877946
 31
0.0
  0
LINE
  5
22E
330
1F
100
AcDbEntity
  8
0
  6
Continuous
 62
   144
370
    18
100
AcDbLine
 10
2.6046028717
 20
6.6419695171
 30
0.0
 11
2.6061857164
 21
6.6409417373
 31
0.0
  0
LINE
  5
22F
330
1F
100
AcDbEntity
  8
0
  6
Continuous
 62
   144
370
    18
100
AcDbLine
 10
2.7026674622
 20
6.6409695331
 30
0.0
 11
2.7042413128
 21
6.641992637
 31
0.0
  0
LINE
  5
230
330
1F
100
AcDbEntity
  8
0
  6
Continuous
 62
   144
370
    18
100
AcDbLine
 10
2.7070502022
 20
6.6439384545
 30
0.0
 11
2.7109599553
 21
6.6469239592
 31
0.0
  0
LINE
  5
231
330
1F
100
AcDbEntity
  8
0
  6
Continuous
 62
   144
370
    18
100
AcDbLine
 10
2.7275817645
 20
6.6645408283
 30
0.0
 11
2.7286585871
 21
6.666078424
 31
0.0
  0
LINE
  5
232
330
1F
100
AcDbEntity
  8
0
  6
Continuous
 62
     7
370
    25
100
AcDbLine
 10
2.7734190526
 20
6.7551522816
 30
0.0
 11
2.7729763809
 21
6.7565043365
 31
0.0
  0
LINE
  5
233
330
1F
100
AcDbEntity
  8
0
  6
Continuous
 62
     7
370
    25
100
AcDbLine
 10
2.7668541519
 20
6.7715251777
 30
0.0
 11
2.7638746914
 21
6.7772780544
 31
0.0
  0
LINE
  5
234
330
1F
100
AcDbEntity
  8
0
  6
Continuous
 62
     7
370
    25
100
AcDbLine
 10
2.7625341079
 20
6.7796485785
 30
0.0
 11
2.7611744209
 21
6.781936439
 31
0.0
  0
LINE
  5
235
330
1F
100
AcDbEntity
  8
0
  6
Continuous
 62
     7
370
    25
100
AcDbLine
 10
2.7551390787
 20
6.7909454035
 30
0.0
 11
2.7542902212
 21
6.7920870914
 31
0.0
  0
LINE
  5
236
330
1F
100
AcDbEntity
  8
0
  6
Continuous
 62
     7
370
    25
100
AcDbLine
 10
2.5545529433
 20
6.7921319465
 30
0.0
 11
2.5537021974
 21
6.7909887693
 31
0.0
  0
LINE
  5
237
330
1F
100
AcDbEntity
  8
0
  6
Continuous
 62
     7
370
    25
100
AcDbLine
 10
2.5476207847
 20
6.7819131174
 30
0.0
 11
2.5463676442
 21
6.7798075391
 31
0.0
  0
LINE
  5
238
330
1F
100
AcDbEntity
  8
0
  6
Continuous
 62
     7
370
    25
100
AcDbLine
 10
2.5448988759
 20
6.7772130032
 30
0.0
 11
2.5420464421
 21
6.7717126268
 31
0.0
  0
LINE
  5
239
330
1F
100
AcDbEntity
  8
0
  6
Continuous
 62
     7
370
    25
100
AcDbLine
 10
2.5358584847
 20
6.7565805621
 30
0.0
 11
2.5354142325
 21
6.7552265817
 31
0.0
  0
LINE
  5
23A
330
1F
100
AcDbEntity
  8
0
  6
Continuous
 62
     7
370
    25
100
AcDbLine
 10
2.4820759709
 20
6.6430492493
 30
0.0
 11
2.4811149915
 21
6.6453321332
 31
0.0
  0
LINE
  5
23B
330
1F
100
AcDbEntity
  8
0
  6
Continuous
 62
     7
370
    25
100
AcDbLine
 10
2.473886925
 20
6.6662436421
 30
0.0
 11
2.4732330546
 21
6.6686326782
 31
0.0
  0
LINE
  5
23C
330
1F
100
AcDbEntity
  8
0
  6
Continuous
 62
     7
370
    25
100
AcDbLine
 10
2.8356331503
 20
6.6688462462
 30
0.0
 11
2.8349927322
 21
6.6664945057
 31
0.0
  0
LINE
  5
23D
330
1F
100
AcDbEntity
  8
0
  6
Continuous
 62
     7
370
    25
100
AcDbLine
 10
2.8276335768
 20
6.6451850864
 30
0.0
 11
2.8266862613
 21
6.6429393321
 31
0.0
  0
LINE
  5
23E
330
1F
100
AcDbEntity
  8
0
  6
Continuous
 62
   144
370
    18
100
AcDbLine
 10
2.8011317262
 20
6.6753723338
 30
0.0
 11
2.8000960815
 21
6.6718761617
 31
0.0
  0
LINE
  5
23F
330
1F
100
AcDbEntity
  8
0
  6
Continuous
 62
   144
370
    18
100
AcDbLine
 10
2.79685285
 20
6.6624849509
 30
0.0
 11
2.7955103079
 21
6.6590947651
 31
0.0
  0
LINE
  5
240
330
1F
100
AcDbEntity
  8
0
  6
Continuous
 62
   144
370
    18
100
AcDbLine
 10
2.513413125
 20
6.6588173504
 30
0.0
 11
2.5121263549
 21
6.6620427787
 31
0.0
  0
LINE
  5
241
330
1F
100
AcDbEntity
  8
0
  6
Continuous
 62
   144
370
    18
100
AcDbLine
 10
2.5085982128
 20
6.6722500417
 30
0.0
 11
2.5076185517
 21
6.6755816222
 31
0.0
  0
LINE
  5
242
330
1F
100
AcDbEntity
  8
0
  6
Continuous
 62
     7
370
    25
100
AcDbLine
 10
2.8627843644
 20
6.5513835138
 30
0.0
 11
2.4461667683
 21
6.5513835138
 31
0.0
  0
LINE
  5
243
330
1F
100
AcDbEntity
  8
0
  6
Continuous
 62
     7
370
    25
100
AcDbLine
 10
2.4461667683
 20
6.5356354823
 30
0.0
 11
2.4461667683
 21
6.5513835138
 31
0.0
  0
LINE
  5
244
330
1F
100
AcDbEntity
  8
0
  6
Continuous
 62
     7
370
    25
100
AcDbLine
 10
2.8627843644
 20
6.5356354823
 30
0.0
 11
2.4461667683
 21
6.5356354823
 31
0.0
  0
LINE
  5
245
330
1F
100
AcDbEntity
  8
0
  6
Continuous
 62
     7
370
    25
100
AcDbLine
 10
2.8627843644
 20
6.5513835138
 30
0.0
 11
2.8627843644
 21
6.5356354823
 31
0.0
  0
ARC
  5
246
330
1F
100
AcDbEntity
  8
0
  6
Continuous
 62
     7
370
    25
100
AcDbCircle
 10
2.8627843644
 20
6.6545331201
 30
0.0
 40
0.1031496062992172
100
AcDbArc
 50
269.999999999
 51
350.0
  0
ARC
  5
247
330
1F
100
AcDbEntity
  8
0
  6
Continuous
 62
     7
370
    25
100
AcDbCircle
 10
2.8627843644
 20
6.6545331201
 30
0.0
 40
0.1188976377952794
100
AcDbArc
 50
269.9999999977
 51
350.0
  0
LINE
  5
248
330
1F
100
AcDbEntity
  8
0
  6
Continuous
 62
     7
370
    25
100
AcDbLine
 10
2.9643668964
 20
6.6366213789
 30
0.0
 11
2.9798756799
 21
6.633886762
 31
0.0
  0
LINE
  5
249
330
1F
100
AcDbEntity
  8
0
  6
Continuous
 62
     7
370
    25
100
AcDbLine
 10
2.3445842363
 20
6.6366213789
 30
0.0
 11
2.3225780737
 21
6.7614245285
 31
0.0
  0
LINE
  5
24A
330
1F
100
AcDbEntity
  8
0
  6
Continuous
 62
     7
370
    25
100
AcDbLine
 10
2.3225780737
 20
6.7614245285
 30
0.0
 11
2.3070692902
 21
6.7586899116
 31
0.0
  0
LINE
  5
24B
330
1F
100
AcDbEntity
  8
0
  6
Continuous
 62
     7
370
    25
100
AcDbLine
 10
2.3290754528
 20
6.633886762
 30
0.0
 11
2.3070692902
 21
6.7586899116
 31
0.0
  0
LINE
  5
24C
330
1F
100
AcDbEntity
  8
0
  6
Continuous
 62
     7
370
    25
100
AcDbLine
 10
2.3445842363
 20
6.6366213789
 30
0.0
 11
2.3290754528
 21
6.633886762
 31
0.0
  0
LINE
  5
24D
330
1F
100
AcDbEntity
  8
0
  6
Continuous
 62
     7
370
    25
100
AcDbLine
 10
2.4241606057
 20
6.882485876
 30
0.0
 11
2.884790527
 21
6.882485876
 31
0.0
  0
LINE
  5
24E
330
1F
100
AcDbEntity
  8
0
  6
Continuous
 62
     7
370
    25
100
AcDbLine
 10
2.884790527
 20
6.882485876
 30
0.0
 11
2.884790527
 21
6.8982339075
 31
0.0
  0
LINE
  5
24F
330
1F
100
AcDbEntity
  8
0
  6
Continuous
 62
     7
370
    25
100
AcDbLine
 10
2.4241606057
 20
6.8982339075
 30
0.0
 11
2.884790527
 21
6.8982339075
 31
0.0
  0
LINE
  5
250
330
1F
100
AcDbEntity
  8
0
  6
Continuous
 62
     7
370
    25
100
AcDbLine
 10
2.4241606057
 20
6.882485876
 30
0.0
 11
2.4241606057
 21
6.8982339075
 31
0.0
  0
ARC
  5
251
330
1F
100
AcDbEntity
  8
0
  6
Continuous
 62
     7
370
    25
100
AcDbCircle
 10
2.4241606057
 20
6.7793362697
 30
0.0
 40
0.1031496062992279
100
AcDbArc
 50
90.0
 51
190.0
  0
ARC
  5
252
330
1F
100
AcDbEntity
  8
0
  6
Continuous
 62
     7
370
    25
100
AcDbCircle
 10
2.4241606057
 20
6.7793362697
 30
0.0
 40
0.1188976377952748
100
AcDbArc
 50
90.0
 51
190.0
  0
ARC
  5
253
330
1F
100
AcDbEntity
  8
0
  6
Continuous
 62
     7
370
    25
100
AcDbCircle
 10
2.4461667683
 20
6.6545331201
 30
0.0
 40
0.1031496062992264
100
AcDbArc
 50
189.9999999999
 51
270.0
  0
ARC
  5
254
330
1F
100
AcDbEntity
  8
0
  6
Continuous
 62
     7
370
    25
100
AcDbCircle
 10
2.4461667683
 20
6.6545331201
 30
0.0
 40
0.1188976377952757
100
AcDbArc
 50
189.9999999975
 51
270.0000000007
  0
ARC
  5
255
330
1F
100
AcDbEntity
  8
0
  6
Continuous
 62
     7
370
    25
100
AcDbCircle
 10
2.884790527
 20
6.7793362697
 30
0.0
 40
0.1031496062991891
100
AcDbArc
 50
349.9999999991
 51
90.0
  0
LINE
  5
256
330
1F
100
AcDbEntity
  8
0
  6
Continuous
 62
     7
370
    25
100
AcDbLine
 10
2.986373059
 20
6.7614245285
 30
0.0
 11
3.0018818425
 21
6.7586899116
 31
0.0
  0
ARC
  5
257
330
1F
100
AcDbEntity
  8
0
  6
Continuous
 62
     7
370
    25
100
AcDbCircle
 10
2.884790527
 20
6.7793362697
 30
0.0
 40
0.1188976377952769
100
AcDbArc
 50
349.9999999976
 51
90.0
  0
LINE
  5
258
330
1F
100
AcDbEntity
  8
0
  6
Continuous
 62
     7
370
    25
100
AcDbLine
 10
2.986373059
 20
6.7614245285
 30
0.0
 11
2.9643668964
 21
6.6366213789
 31
0.0
  0
LINE
  5
259
330
1F
100
AcDbEntity
  8
0
  6
Continuous
 62
     7
370
    25
100
AcDbLine
 10
3.0018818425
 20
6.7586899116
 30
0.0
 11
2.9798756799
 21
6.633886762
 31
0.0
  0
LINE
  5
25A
330
1F
100
AcDbEntity
  8
0
  6
Continuous
 62
     7
370
    25
100
AcDbLine
 10
2.4654991884
 20
6.8705669523
 30
0.0
 11
2.5442393459
 21
6.8705669523
 31
0.0
  0
LINE
  5
25B
330
1F
100
AcDbEntity
  8
0
  6
Continuous
 62
     7
370
    25
100
AcDbLine
 10
2.5442393459
 20
6.8705669523
 30
0.0
 11
2.5442393459
 21
6.882485876
 31
0.0
  0
LINE
  5
25C
330
1F
100
AcDbEntity
  8
0
  6
Continuous
 62
   144
370
    18
100
AcDbLine
 10
2.4654991884
 20
6.8705669523
 30
0.0
 11
2.4654991884
 21
6.882485876
 31
0.0
  0
LINE
  5
25D
330
1F
100
AcDbEntity
  8
0
  6
Continuous
 62
     7
370
    25
100
AcDbLine
 10
2.7647117868
 20
6.86949375
 30
0.0
 11
2.7647117868
 21
6.8705669523
 31
0.0
  0
LINE
  5
25E
330
1F
100
AcDbEntity
  8
0
  6
Continuous
 62
     7
370
    25
100
AcDbLine
 10
2.7647117868
 20
6.8705669523
 30
0.0
 11
2.7647117868
 21
6.882485876
 31
0.0
  0
LINE
  5
25F
330
1F
100
AcDbEntity
  8
0
  6
Continuous
 62
     7
370
    25
100
AcDbLine
 10
2.6151054876
 20
6.8705669523
 30
0.0
 11
2.6151054876
 21
6.882485876
 31
0.0
  0
LINE
  5
260
330
1F
100
AcDbEntity
  8
0
  6
Continuous
 62
     7
370
    25
100
AcDbLine
 10
2.6151054876
 20
6.8705669523
 30
0.0
 11
2.6938456451
 21
6.8705669523
 31
0.0
  0
LINE
  5
261
330
1F
100
AcDbEntity
  8
0
  6
Continuous
 62
     7
370
    25
100
AcDbLine
 10
2.6938456451
 20
6.8705669523
 30
0.0
 11
2.6938456451
 21
6.882485876
 31
0.0
  0
LINE
  5
262
330
1F
100
AcDbEntity
  8
0
  6
Continuous
 62
     7
370
    25
100
AcDbLine
 10
2.6151054876
 20
6.86949375
 30
0.0
 11
2.6151054876
 21
6.8705669523
 31
0.0
  0
LINE
  5
263
330
1F
100
AcDbEntity
  8
0
  6
Continuous
 62
     7
370
    25
100
AcDbLine
 10
2.7647117868
 20
6.8705669523
 30
0.0
 11
2.8434519443
 21
6.8705669523
 31
0.0
  0
LINE
  5
264
330
1F
100
AcDbEntity
  8
0
  6
Continuous
 62
   144
370
    18
100
AcDbLine
 10
2.8434519443
 20
6.8705669523
 30
0.0
 11
2.8434519443
 21
6.882485876
 31
0.0
  0
LINE
  5
265
330
1F
100
AcDbEntity
  8
0
  6
Continuous
 62
     7
370
    25
100
AcDbLine
 10
2.6938456451
 20
6.5513835138
 30
0.0
 11
2.6938456451
 21
6.5633024375
 31
0.0
  0
LINE
  5
266
330
1F
100
AcDbEntity
  8
0
  6
Continuous
 62
     7
370
    25
100
AcDbLine
 10
2.6938456451
 20
6.5633024375
 30
0.0
 11
2.6938456451
 21
6.5643756398
 31
0.0
  0
LINE
  5
267
330
1F
100
AcDbEntity
  8
0
  6
Continuous
 62
     7
370
    25
100
AcDbLine
 10
2.5442393459
 20
6.5513835138
 30
0.0
 11
2.5442393459
 21
6.5633024375
 31
0.0
  0
LINE
  5
268
330
1F
100
AcDbEntity
  8
0
  6
Continuous
 62
     7
370
    25
100
AcDbLine
 10
2.5442393459
 20
6.5633024375
 30
0.0
 11
2.4654991884
 21
6.5633024375
 31
0.0
  0
LINE
  5
269
330
1F
100
AcDbEntity
  8
0
  6
Continuous
 62
   144
370
    18
100
AcDbLine
 10
2.4654991884
 20
6.5633024375
 30
0.0
 11
2.4654991884
 21
6.5513835138
 31
0.0
  0
LINE
  5
26A
330
1F
100
AcDbEntity
  8
0
  6
Continuous
 62
     7
370
    25
100
AcDbLine
 10
2.6938456451
 20
6.86949375
 30
0.0
 11
2.6938456451
 21
6.8705669523
 31
0.0
  0
LINE
  5
26B
330
1F
100
AcDbEntity
  8
0
  6
Continuous
 62
     7
370
    25
100
AcDbLine
 10
2.7647117868
 20
6.5633024375
 30
0.0
 11
2.7647117868
 21
6.5513835138
 31
0.0
  0
LINE
  5
26C
330
1F
100
AcDbEntity
  8
0
  6
Continuous
 62
     7
370
    25
100
AcDbLine
 10
2.7647117868
 20
6.5633024375
 30
0.0
 11
2.7647117868
 21
6.5643756398
 31
0.0
  0
LINE
  5
26D
330
1F
100
AcDbEntity
  8
0
  6
Continuous
 62
     7
370
    25
100
AcDbLine
 10
2.5442393459
 20
6.86949375
 30
0.0
 11
2.5442393459
 21
6.8705669523
 31
0.0
  0
LINE
  5
26E
330
1F
100
AcDbEntity
  8
0
  6
Continuous
 62
     7
370
    25
100
AcDbLine
 10
2.6938456451
 20
6.5633024375
 30
0.0
 11
2.6151054876
 21
6.5633024375
 31
0.0
  0
LINE
  5
26F
330
1F
100
AcDbEntity
  8
0
  6
Continuous
 62
     7
370
    25
100
AcDbLine
 10
2.6151054876
 20
6.5633024375
 30
0.0
 11
2.6151054876
 21
6.5513835138
 31
0.0
  0
LINE
  5
270
330
1F
100
AcDbEntity
  8
0
  6
Continuous
 62
     7
370
    25
100
AcDbLine
 10
2.6151054876
 20
6.5633024375
 30
0.0
 11
2.6151054876
 21
6.5643756398
 31
0.0
  0
LINE
  5
271
330
1F
100
AcDbEntity
  8
0
  6
Continuous
 62
     7
370
    25
100
AcDbLine
 10
2.5442393459
 20
6.5633024375
 30
0.0
 11
2.5442393459
 21
6.5643756398
 31
0.0
  0
LINE
  5
272
330
1F
100
AcDbEntity
  8
0
  6
Continuous
 62
     7
370
    25
100
AcDbLine
 10
2.8434519443
 20
6.5633024375
 30
0.0
 11
2.7647117868
 21
6.5633024375
 31
0.0
  0
LINE
  5
273
330
1F
100
AcDbEntity
  8
0
  6
Continuous
 62
   144
370
    18
100
AcDbLine
 10
2.8434519443
 20
6.5513835138
 30
0.0
 11
2.8434519443
 21
6.5633024375
 31
0.0
  0
LINE
  5
274
330
1F
100
AcDbEntity
  8
0
  6
Continuous
 62
   144
370
    18
100
AcDbLine
 10
2.8434519443
 20
6.5633024375
 30
0.0
 11
2.8434519443
 21
6.5643756398
 31
0.0
  0
LINE
  5
275
330
1F
100
AcDbEntity
  8
0
  6
Continuous
 62
   144
370
    18
100
AcDbLine
 10
2.4654991884
 20
6.5633024375
 30
0.0
 11
2.4654991884
 21
6.5643756398
 31
0.0
  0
LINE
  5
276
330
1F
100
AcDbEntity
  8
0
  6
Continuous
 62
   144
370
    18
100
AcDbLine
 10
2.4654991884
 20
6.86949375
 30
0.0
 11
2.4654991884
 21
6.8705669523
 31
0.0
  0
LINE
  5
277
330
1F
100
AcDbEntity
  8
0
  6
Continuous
 62
   144
370
    18
100
AcDbLine
 10
2.8434519443
 20
6.86949375
 30
0.0
 11
2.8434519443
 21
6.8705669523
 31
0.0
  0
LINE
  5
278
330
1F
100
AcDbEntity
  8
0
  6
Continuous
 62
     7
370
    25
100
AcDbLine
 10
2.2980578857
 20
6.628417528
 30
0.0
 11
2.3290754528
 21
6.633886762
 31
0.0
  0
SPLINE
  5
279
330
1F
100
AcDbEntity
  8
0
  6
Continuous
 62
     7
370
    25
100
AcDbSpline
210
0.0
220
0.0
230
1.0
 70
     8
 71
     3
 72
    22
 73
    18
 74
     0
 42
0.000000001
 43
0.00000001
 40
0.0
 40
0.0
 40
0.0
 40
0.0
 40
0.034807962539603
 40
0.0694166469808173
 40
0.1039067764456027
 40
0.1383599073831074
 40
0.1728578586476252
 40
0.2074821313570158
 40
0.242313339906426
 40
0.3711197340248066
 40
0.5000234000527649
 40
0.6288298203994942
 40
0.7577335126752949
 40
0.818501041310631
 40
0.8788429415165792
 40
0.9391968137549518
 40
1.0
 40
1.0
 40
1.0
 40
1.0
 10
2.298057885738993
 20
6.628417528019081
 30
0.0
 10
2.298513403554955
 20
6.626025395513553
 30
0.0
 10
2.299421831314498
 20
6.621254825633782
 30
0.0
 10
2.30121339738972
 20
6.614206925211679
 30
0.0
 10
2.303313669359392
 20
6.607272821270374
 30
0.0
 10
2.305753326872298
 20
6.600457995553121
 30
0.0
 10
2.308523980789483
 20
6.593761245667798
 30
0.0
 10
2.311628381726065
 20
6.587182602504448
 30
0.0
 10
2.318141131412468
 20
6.574937173300353
 30
0.0
 10
2.32977294951688
 20
6.557948192390677
 30
0.0
 10
2.34897965577438
 20
6.538721380583422
 30
0.0
 10
2.371255706164012
 20
6.523137343476408
 30
0.0
 10
2.391664601334625
 20
6.513883956264634
 30
0.0
 10
2.408401647981747
 20
6.50875889585283
 30
0.0
 10
2.420826388859701
 20
6.506101892581396
 30
0.0
 10
2.433435520475448
 20
6.504442742444803
 30
0.0
 10
2.441912539931031
 20
6.504240776683377
 30
0.0
 10
2.446166768279033
 20
6.504139419305105
 30
0.0
  0
LINE
  5
27A
330
1F
100
AcDbEntity
  8
0
  6
Continuous
 62
     7
370
    25
100
AcDbLine
 10
2.4461667683
 20
6.5356354823
 30
0.0
 11
2.4461667683
 21
6.5041394193
 31
0.0
  0
LINE
  5
27B
330
1F
100
AcDbEntity
  8
0
  6
Continuous
 62
     7
370
    25
100
AcDbLine
 10
2.8627843644
 20
6.5041394193
 30
0.0
 11
2.8627843644
 21
6.5356354823
 31
0.0
  0
SPLINE
  5
27C
330
1F
100
AcDbEntity
  8
0
  6
Continuous
 62
     7
370
    25
100
AcDbSpline
210
0.0
220
0.0
230
1.0
 70
     8
 71
     3
 72
    22
 73
    18
 74
     0
 42
0.000000001
 43
0.00000001
 40
0.0
 40
0.0
 40
0.0
 40
0.0
 40
0.0348079625397813
 40
0.0694166469811167
 40
0.1039067764459655
 40
0.1383599073834736
 40
0.1728578586479332
 40
0.2074821313572035
 40
0.2423133399064312
 40
0.3711197340249002
 40
0.5000234000527523
 40
0.6288298203994468
 40
0.7577335126752561
 40
0.8185010413110549
 40
0.8788429415171591
 40
0.9391968137553864
 40
1.0
 40
1.0
 40
1.0
 40
1.0
 10
2.862784364431474
 20
6.504139419305262
 30
0.0
 10
2.865219254907795
 20
6.504172627331737
 30
0.0
 10
2.870075095936676
 20
6.504238853266339
 30
0.0
 10
2.877327025098964
 20
6.50477934636258
 30
0.0
 10
2.884520492820689
 20
6.505643615968586
 30
0.0
 10
2.891655428103701
 20
6.506862827535067
 30
0.0
 10
2.89873155831439
 20
6.508428510579736
 30
0.0
 10
2.905749330671305
 20
6.510343379293686
 30
0.0
 10
2.918939651405066
 20
6.514630789212221
 30
0.0
 10
2.937690375537432
 20
6.523135788287647
 30
0.0
 10
2.959960298411498
 20
6.538712000687112
 30
0.0
 10
2.979175774533481
 20
6.557943488172901
 30
0.0
 10
2.991832549455878
 20
6.57643549254071
 30
0.0
 10
2.999786106333943
 20
6.592028308440356
 30
0.0
 10
3.00456027736692
 20
6.603802905809979
 30
0.0
 10
3.00838377401191
 20
6.615932367986158
 30
0.0
 10
3.010054690440111
 20
6.624245531481969
 30
0.0
 10
3.010893246972064
 20
6.628417528018097
 30
0.0
  0
LINE
  5
27D
330
1F
100
AcDbEntity
  8
0
  6
Continuous
 62
     7
370
    25
100
AcDbLine
 10
3.010893247
 20
6.628417528
 30
0.0
 11
2.9798756799
 21
6.633886762
 31
0.0
  0
LINE
  5
27E
330
1F
100
AcDbEntity
  8
0
  6
Continuous
 62
     7
370
    25
100
AcDbLine
 10
2.4241606057
 20
6.9297299705
 30
0.0
 11
2.4241606057
 21
6.8982339075
 31
0.0
  0
SPLINE
  5
27F
330
1F
100
AcDbEntity
  8
0
  6
Continuous
 62
     7
370
    25
100
AcDbSpline
210
0.0
220
0.0
230
1.0
 70
     8
 71
     3
 72
    25
 73
    21
 74
     0
 42
0.000000001
 43
0.00000001
 40
0.0
 40
0.0
 40
0.0
 40
0.0
 40
0.0247496884230159
 40
0.0494365269941976
 40
0.0741065428403908
 40
0.0988058571359708
 40
0.1235804274269129
 40
0.1868106666841065
 40
0.2501192865493429
 40
0.3133495287446478
 40
0.376658151551886
 40
0.500008230781637
 40
0.6233583100112766
 40
0.6865885492682477
 40
0.7498971691328038
 40
0.8131274113277739
 40
0.8764360341348757
 40
0.9176423927691697
 40
0.9587590858457163
 40
1.0
 40
1.0
 40
1.0
 40
1.0
 10
2.424160605726434
 20
6.929729970485892
 30
0.0
 10
2.421996604817655
 20
6.929703272513248
 30
0.0
 10
2.417674098307114
 20
6.929649944365323
 30
0.0
 10
2.411206510309472
 20
6.92921651665036
 30
0.0
 10
2.404767471940703
 20
6.928524075973682
 30
0.0
 10
2.398356828537253
 20
6.927547228178477
 30
0.0
 10
2.388686080169616
 20
6.925647402708766
 30
0.0
 10
2.375907996252477
 20
6.922107619024349
 30
0.0
 10
2.360479960704608
 20
6.915917206380596
 30
0.0
 10
2.345812117046508
 20
6.908073554318678
 30
0.0
 10
2.32777647917327
 20
6.895677044792965
 30
0.0
 10
2.308052916455541
 20
6.876762208662561
 30
0.0
 10
2.292854173277724
 20
6.854059466069534
 30
0.0
 10
2.283776657458938
 20
6.834145918240217
 30
0.0
 10
2.278599938583368
 20
6.818345698135356
 30
0.0
 10
2.275181137302563
 20
6.80207054342377
 30
0.0
 10
2.273772016421946
 20
6.78743921478357
 30
0.0
 10
2.273714448055671
 20
6.774699571370574
 30
0.0
 10
2.274393443838594
 20
6.763903394864116
 30
0.0
 10
2.275498407859488
 20
6.756785162212736
 30
0.0
 10
2.276051723185923
 20
6.753220677624408
 30
0.0
  0
LINE
  5
280
330
1F
100
AcDbEntity
  8
0
  6
Continuous
 62
     7
370
    25
100
AcDbLine
 10
2.2760517232
 20
6.7532206776
 30
0.0
 11
2.3070692902
 21
6.7586899116
 31
0.0
  0
LINE
  5
281
330
1F
100
AcDbEntity
  8
0
  6
Continuous
 62
     7
370
    25
100
AcDbLine
 10
3.0328994095
 20
6.7532206776
 30
0.0
 11
3.0018818425
 21
6.7586899116
 31
0.0
  0
SPLINE
  5
282
330
1F
100
AcDbEntity
  8
0
  6
Continuous
 62
     7
370
    25
100
AcDbSpline
210
0.0
220
0.0
230
1.0
 70
     8
 71
     3
 72
    25
 73
    21
 74
     0
 42
0.000000001
 43
0.00000001
 40
0.0
 40
0.0
 40
0.0
 40
0.0
 40
0.0247496884226235
 40
0.0494365269936101
 40
0.0741065428398069
 40
0.0988058571355905
 40
0.1235804274269365
 40
0.1868106666842112
 40
0.2501192865493836
 40
0.3133495287451203
 40
0.376658151551932
 40
0.5000082307816798
 40
0.6233583100113099
 40
0.686588549268012
 40
0.7498971691328251
 40
0.8131274113282327
 40
0.8764360341348926
 40
0.9176423927696803
 40
0.9587590858462237
 40
0.9999999999999999
 40
0.9999999999999999
 40
0.9999999999999999
 40
0.9999999999999999
 10
3.032899409524663
 20
6.753220677623585
 30
0.0
 10
3.033248891968492
 20
6.755356438550339
 30
0.0
 10
3.033946969373474
 20
6.759622536810017
 30
0.0
 10
3.034643211269097
 20
6.76606713154619
 30
0.0
 10
3.035079417600866
 20
6.772528587515343
 30
0.0
 10
3.035230606863315
 20
6.779011466680407
 30
0.0
 10
3.035038951842093
 20
6.788865195881048
 30
0.0
 10
3.033771836411991
 20
6.80206382897746
 30
0.0
 10
3.030354520303916
 20
6.818332431873379
 30
0.0
 10
3.025177075262942
 20
6.834139473914647
 30
0.0
 10
3.016100752221469
 20
6.854053741211299
 30
0.0
 10
3.000898235676347
 20
6.876762185517625
 30
0.0
 10
2.981179632811763
 20
6.895672315514481
 30
0.0
 10
2.963144910599153
 20
6.908069874762365
 30
0.0
 10
2.948483659139586
 20
6.915911627074144
 30
0.0
 10
2.93304942921035
 20
6.922104640038442
 30
0.0
 10
2.91888507460159
 20
6.926033056761801
 30
0.0
 10
2.906348971639745
 20
6.928301966397991
 30
0.0
 10
2.89559890693295
 20
6.92950802246283
 30
0.0
 10
2.888396941241555
 20
6.929655913456376
 30
0.0
 10
2.884790526985411
 20
6.929729970486128
 30
0.0
  0
LINE
  5
283
330
1F
100
AcDbEntity
  8
0
  6
Continuous
 62
     7
370
    25
100
AcDbLine
 10
2.884790527
 20
6.9297299705
 30
0.0
 11
2.884790527
 21
6.8982339075
 31
0.0
  0
LINE
  5
284
330
1F
100
AcDbEntity
  8
0
  6
Continuous
 62
     7
370
    25
100
AcDbLine
 10
2.884790527
 20
6.9297299705
 30
0.0
 11
2.4241606057
 21
6.9297299705
 31
0.0
  0
LINE
  5
285
330
1F
100
AcDbEntity
  8
0
  6
Continuous
 62
     7
370
    25
100
AcDbLine
 10
3.010893247
 20
6.628417528
 30
0.0
 11
3.0328994095
 21
6.7532206776
 31
0.0
  0
LINE
  5
286
330
1F
100
AcDbEntity
  8
0
  6
Continuous
 62
     7
370
    25
100
AcDbLine
 10
2.2760517232
 20
6.7532206776
 30
0.0
 11
2.2980578857
 21
6.628417528
 31
0.0
  0
LINE
  5
287
330
1F
100
AcDbEntity
  8
0
  6
Continuous
 62
     7
370
    25
100
AcDbLine
 10
2.4461667683
 20
6.5041394193
 30
0.0
 11
2.8627843644
 21
6.5041394193
 31
0.0
  0
LINE
  5
288
330
1F
100
AcDbEntity
  8
0
  6
Continuous
 62
     7
370
    25
100
AcDbLine
 10
2.0507354089
 20
6.5354386319
 30
0.0
 11
2.0507354089
 21
6.8984307579
 31
0.0
  0
ARC
  5
289
330
1F
100
AcDbEntity
  8
0
  6
Continuous
 62
     7
370
    25
100
AcDbCircle
 10
2.1137275349
 20
6.5354386319
 30
0.0
 40
0.0629921259842519
100
AcDbArc
 50
180.0
 51
270.0
  0
LINE
  5
28A
330
1F
100
AcDbEntity
  8
0
  6
Continuous
 62
     7
370
    25
100
AcDbLine
 10
3.1952235979
 20
6.4724465059
 30
0.0
 11
2.1137275349
 21
6.4724465059
 31
0.0
  0
ARC
  5
28B
330
1F
100
AcDbEntity
  8
0
  6
Continuous
 62
     7
370
    25
100
AcDbCircle
 10
3.1952235979
 20
6.5354386319
 30
0.0
 40
0.0629921259842523
100
AcDbArc
 50
270.0
 51
0.0
  0
LINE
  5
28C
330
1F
100
AcDbEntity
  8
0
  6
Continuous
 62
     7
370
    25
100
AcDbLine
 10
3.2582157238
 20
6.8984307579
 30
0.0
 11
3.2582157238
 21
6.5354386319
 31
0.0
  0
ARC
  5
28D
330
1F
100
AcDbEntity
  8
0
  6
Continuous
 62
     7
370
    25
100
AcDbCircle
 10
3.1952235979
 20
6.8984307579
 30
0.0
 40
0.0629921259842523
100
AcDbArc
 50
0.0
 51
90.0
  0
LINE
  5
28E
330
1F
100
AcDbEntity
  8
0
  6
Continuous
 62
     7
370
    25
100
AcDbLine
 10
2.1137275349
 20
6.9614228839
 30
0.0
 11
3.1952235979
 21
6.9614228839
 31
0.0
  0
ARC
  5
28F
330
1F
100
AcDbEntity
  8
0
  6
Continuous
 62
     7
370
    25
100
AcDbCircle
 10
2.1137275349
 20
6.8984307579
 30
0.0
 40
0.0629921259842519
100
AcDbArc
 50
90.0
 51
180.0
  0
SPLINE
  5
290
330
1F
100
AcDbEntity
  8
0
  6
Continuous
 62
     7
370
    25
100
AcDbSpline
210
0.0
220
0.0
230
1.0
 70
     8
 71
     3
 72
    10
 73
     6
 74
     0
 42
0.000000001
 43
0.00000001
 40
0.0
 40
0.0
 40
0.0
 40
0.0
 40
0.5
 40
0.5
 40
1.0
 40
1.0
 40
1.0
 40
1.0
 10
2.437700070583561
 20
6.780646898786903
 30
0.0
 10
2.437248343993654
 20
6.784078102890011
 30
0.0
 10
2.436864444541251
 20
6.786994108734477
 30
0.0
 10
2.436330950645077
 20
6.791046397190447
 30
0.0
 10
2.436184015625168
 20
6.792161316431616
 30
0.0
 10
2.436183966267604
 20
6.792161691339536
 30
0.0
  0
ARC
  5
291
330
1F
100
AcDbEntity
  8
0
  6
Continuous
 62
     7
370
    25
100
AcDbCircle
 10
2.4387275349
 20
6.7728402067
 30
0.0
 40
0.0194881889775592
100
AcDbArc
 50
97.4991073655
 51
277.5
  0
ARC
  5
292
330
1F
100
AcDbEntity
  8
0
  6
Continuous
 62
     7
370
    25
100
AcDbCircle
 10
2.4387275349
 20
6.7728402067
 30
0.0
 40
0.019488188978266
100
AcDbArc
 50
277.5
 51
82.5011281548
  0
SPLINE
  5
293
330
1F
100
AcDbEntity
  8
0
  6
Continuous
 62
     7
370
    25
100
AcDbSpline
210
0.0
220
0.0
230
1.0
 70
    24
 71
     3
 72
    10
 73
     6
 74
     0
 42
0.000000001
 43
0.00000001
 40
0.0
 40
0.0
 40
0.0
 40
0.0
 40
0.5
 40
0.5
 40
1.0
 40
1.0
 40
1.0
 40
1.0
 10
2.441270873519331
 20
6.792161721606837
 30
0.0
 10
2.441270873519331
 20
6.792161721606837
 30
0.0
 10
2.441125776655954
 20
6.791059601510131
 30
0.0
 10
2.440589882358289
 20
6.78698908019466
 30
0.0
 10
2.440206266595359
 20
6.784075229185646
 30
0.0
 10
2.439754919712295
 20
6.780646909242348
 30
0.0
  0
ARC
  5
294
330
1F
100
AcDbEntity
  8
0
  6
Continuous
 62
     7
370
    25
100
AcDbCircle
 10
2.4387275349
 20
6.7728402067
 30
0.0
 40
0.0078740157463215
100
AcDbArc
 50
97.4999999996
 51
82.5000000003
  0
LINE
  5
295
330
1F
100
AcDbEntity
  8
0
  6
Continuous
 62
     7
370
    25
100
AcDbLine
 10
2.4376997696
 20
6.7806468592
 30
0.0
 11
2.4381150283
 21
6.7774926561
 31
0.0
  0
LINE
  5
296
330
1F
100
AcDbEntity
  8
0
  6
Continuous
 62
     7
370
    25
100
AcDbLine
 10
2.4393400414
 20
6.7774926561
 30
0.0
 11
2.4397553002
 21
6.7806468592
 31
0.0
  0
ARC
  5
297
330
1F
100
AcDbEntity
  8
0
  6
Continuous
 62
   144
370
    18
100
AcDbCircle
 10
2.4387275349
 20
6.7728402067
 30
0.0
 40
0.004692595242468
100
AcDbArc
 50
97.4999999995
 51
82.5000000022
  0
LINE
  5
298
330
1F
100
AcDbEntity
  8
0
  6
Continuous
 62
     8
370
    25
100
AcDbLine
 10
2.8509572748
 20
6.7807188103
 30
0.0
 11
2.8516003308
 21
6.7784822701
 31
0.0
  0
LINE
  5
299
330
1F
100
AcDbEntity
  8
0
  6
Continuous
 62
     8
370
    25
100
AcDbLine
 10
2.8573528563
 20
6.7584750621
 30
0.0
 11
2.8579191456
 21
6.7565055152
 31
0.0
  0
LINE
  5
29A
330
1F
100
AcDbEntity
  8
0
  6
Continuous
 62
     8
370
    25
100
AcDbLine
 10
2.451120436
 20
6.7564931114
 30
0.0
 11
2.4515093506
 21
6.7585743436
 31
0.0
  0
LINE
  5
29B
330
1F
100
AcDbEntity
  8
0
  6
Continuous
 62
     8
370
    25
100
AcDbLine
 10
2.4568840848
 20
6.779103191
 30
0.0
 11
2.4575571824
 21
6.7811873843
 31
0.0
  0
SPLINE
  5
29C
330
1F
100
AcDbEntity
  8
0
  6
Continuous
 62
     7
370
    25
100
AcDbSpline
210
0.0
220
0.0
230
1.0
 70
     8
 71
     3
 72
    16
 73
    12
 74
     0
 42
0.000000001
 43
0.00000001
 40
0.0
 40
0.0
 40
0.0
 40
0.0
 40
0.1420768647140978
 40
0.205789803000775
 40
0.3140505792891437
 40
0.4329310061556997
 40
0.5630714147995373
 40
0.7009426431562339
 40
0.8464661339040733
 40
0.9777607100926671
 40
1.0
 40
1.0
 40
1.0
 40
1.0
 10
7.282792881477258
 20
4.748705307909383
 30
0.0
 10
7.281221163162956
 20
4.750413732312545
 30
0.0
 10
7.278944623608652
 20
4.752888282423682
 30
0.0
 10
7.274410737909086
 20
4.755252530654715
 30
0.0
 10
7.26984877272563
 20
4.75656863080692
 30
0.0
 10
7.263986564326069
 20
4.756527402968462
 30
0.0
 10
7.257950612292118
 20
4.754545967749142
 30
0.0
 10
7.252505608786598
 20
4.750411348228447
 30
0.0
 10
7.248949059352661
 20
4.744629028938598
 30
0.0
 10
7.24761139173678
 20
4.739813204291581
 30
0.0
 10
7.247795929904417
 20
4.737336988773538
 30
0.0
 10
7.247822660149106
 20
4.736978310416905
 30
0.0
  0
SPLINE
  5
29D
330
1F
100
AcDbEntity
  8
0
  6
Continuous
 62
     7
370
    25
100
AcDbSpline
210
0.0
220
0.0
230
1.0
 70
     8
 71
     3
 72
    10
 73
     6
 74
     0
 42
0.000000001
 43
0.00000001
 40
0.0
 40
0.0
 40
0.0
 40
0.0
 40
0.2607299468234192
 40
0.6116358410076755
 40
1.0
 40
1.0
 40
1.0
 40
1.0
 10
7.286615513139061
 20
4.737025062480786
 30
0.0
 10
7.286595203546539
 20
4.738113739575778
 30
0.0
 10
7.286547560094552
 20
4.740667623157982
 30
0.0
 10
7.285333206126706
 20
4.744735898685366
 30
0.0
 10
7.283667784912613
 20
4.747338218955941
 30
0.0
 10
7.282792881477258
 20
4.748705307909383
 30
0.0
  0
SPLINE
  5
29E
330
1F
100
AcDbEntity
  8
0
  6
Continuous
 62
     7
370
    25
100
AcDbSpline
210
0.0
220
0.0
230
1.0
 70
     8
 71
     3
 72
    11
 73
     7
 74
     0
 42
0.000000001
 43
0.00000001
 40
0.0
 40
0.0
 40
0.0
 40
0.0
 40
0.1483579666647841
 40
0.4772901637648969
 40
0.7906739642560116
 40
1.0
 40
1.0
 40
1.0
 40
1.0
 10
7.262464464467077
 20
4.747388335453814
 30
0.0
 10
7.261853262436635
 20
4.747149265048907
 30
0.0
 10
7.259886932459481
 20
4.746380139161876
 30
0.0
 10
7.257495130725136
 20
4.743679959000314
 30
0.0
 10
7.255777176484981
 20
4.740246466099184
 30
0.0
 10
7.255756529730687
 20
4.737928374826881
 30
0.0
 10
7.255748261466102
 20
4.73700006465767
 30
0.0
  0
LINE
  5
29F
330
1F
100
AcDbEntity
  8
0
  6
Continuous
 62
     7
370
    25
100
AcDbLine
 10
7.2477316204
 20
4.7369891253
 30
0.0
 11
7.2477316204
 21
4.7092850412
 31
0.0
  0
LINE
  5
2A0
330
1F
100
AcDbEntity
  8
0
  6
Continuous
 62
     7
370
    25
100
AcDbLine
 10
7.2867079984
 20
4.7027303345
 30
0.0
 11
7.2867079984
 21
4.7369891253
 31
0.0
  0
LINE
  5
2A1
330
1F
100
AcDbEntity
  8
0
  6
Continuous
 62
     7
370
    25
100
AcDbLine
 10
7.2606847077
 20
4.7484659853
 30
0.0
 11
7.2616807689
 21
4.7467167157
 31
0.0
  0
LINE
  5
2A2
330
1F
100
AcDbEntity
  8
0
  6
Continuous
 62
     7
370
    25
100
AcDbLine
 10
7.6122831939
 20
3.2078475971
 30
0.0
 11
7.6122831939
 21
4.2383512666
 31
0.0
  0
LINE
  5
2A3
330
1F
100
AcDbEntity
  8
0
  6
Continuous
 62
     7
370
    25
100
AcDbLine
 10
6.7722831939
 20
4.4938993758
 30
0.0
 11
6.7722831939
 21
3.2078475971
 31
0.0
  0
SPLINE
  5
2A4
330
1F
100
AcDbEntity
  8
0
  6
Continuous
 62
     7
370
    25
100
AcDbSpline
210
0.0
220
0.0
230
1.0
 70
     8
 71
     3
 72
    10
 73
     6
 74
     0
 42
0.000000001
 43
0.00000001
 40
0.0
 40
0.0
 40
0.0
 40
0.0
 40
0.2622150232710648
 40
0.6124160031753165
 40
1.0
 40
1.0
 40
1.0
 40
1.0
 10
7.327540067659251
 20
4.804658958813236
 30
0.0
 10
7.327519778372585
 20
4.805756057412719
 30
0.0
 10
7.327472391751891
 20
4.808318384814874
 30
0.0
 10
7.326256541644106
 20
4.812394938773934
 30
0.0
 10
7.324590971920288
 20
4.814997245032436
 30
0.0
 10
7.32371599046782
 20
4.816364326624561
 30
0.0
  0
SPLINE
  5
2A5
330
1F
100
AcDbEntity
  8
0
  6
Continuous
 62
     7
370
    25
100
AcDbSpline
210
0.0
220
0.0
230
1.0
 70
     8
 71
     3
 72
    15
 73
    11
 74
     0
 42
0.000000001
 43
0.00000001
 40
0.0
 40
0.0
 40
0.0
 40
0.0
 40
0.0028520531964007
 40
0.13868697085274
 40
0.2878463760207075
 40
0.4511336929792323
 40
0.6241208781191014
 40
0.8067093654790874
 40
0.9714448177583372
 40
1.0
 40
1.0
 40
1.0
 40
1.0
 10
7.316044643628123
 20
4.822453319242741
 30
0.0
 10
7.316012298433686
 20
4.822470704949529
 30
0.0
 10
7.314439446621609
 20
4.823316120811184
 30
0.0
 10
7.310737090055466
 20
4.824164085396823
 30
0.0
 10
7.304920374319392
 20
4.824205953332065
 30
0.0
 10
7.298870508606398
 20
4.822199202835948
 30
0.0
 10
7.293429837587145
 20
4.818072062412848
 30
0.0
 10
7.28987120511812
 20
4.812287616439813
 30
0.0
 10
7.288533761874877
 20
4.807463867944241
 30
0.0
 10
7.288719739806201
 20
4.804979262149812
 30
0.0
 10
7.288747214669301
 20
4.804612206749354
 30
0.0
  0
LINE
  5
2A6
330
1F
100
AcDbEntity
  8
0
  6
Continuous
 62
     7
370
    25
100
AcDbLine
 10
7.3237159905
 20
4.8163643266
 30
0.0
 11
7.3197453863
 21
4.8200501498
 31
0.0
  0
LINE
  5
2A7
330
1F
100
AcDbEntity
  8
0
  6
Continuous
 62
     7
370
    25
100
AcDbLine
 10
7.2886547294
 20
4.804648144
 30
0.0
 11
7.2886547294
 21
4.702644842
 31
0.0
  0
LINE
  5
2A8
330
1F
100
AcDbEntity
  8
0
  6
Continuous
 62
     7
370
    25
100
AcDbLine
 10
7.3276311074
 20
4.7054750642
 30
0.0
 11
7.3276311074
 21
4.804648144
 31
0.0
  0
SPLINE
  5
2A9
330
1F
100
AcDbEntity
  8
0
  6
Continuous
 62
     7
370
    25
100
AcDbSpline
210
0.0
220
0.0
230
1.0
 70
     8
 71
     3
 72
    10
 73
     6
 74
     0
 42
0.000000001
 43
0.00000001
 40
0.0
 40
0.0
 40
0.0
 40
0.0
 40
0.2622150232554664
 40
0.6124160031172862
 40
1.0
 40
1.0
 40
1.0
 40
1.0
 10
7.251261619609999
 20
4.848693569569027
 30
0.0
 10
7.251241330323336
 20
4.849790668168453
 30
0.0
 10
7.251193943702654
 20
4.852352995570385
 30
0.0
 10
7.249978093594959
 20
4.856429549529492
 30
0.0
 10
7.248312523871104
 20
4.859031855788084
 30
0.0
 10
7.247437542418504
 20
4.860398937380431
 30
0.0
  0
SPLINE
  5
2AA
330
1F
100
AcDbEntity
  8
0
  6
Continuous
 62
     7
370
    25
100
AcDbSpline
210
0.0
220
0.0
230
1.0
 70
     8
 71
     3
 72
    15
 73
    11
 74
     0
 42
0.000000001
 43
0.00000001
 40
0.0
 40
0.0
 40
0.0
 40
0.0
 40
0.0028520531953022
 40
0.1386869708528946
 40
0.28784637602068
 40
0.4511336929791787
 40
0.6241208781189884
 40
0.8067093654789127
 40
0.9714448177581354
 40
1.0
 40
1.0
 40
1.0
 40
1.0
 10
7.239766195578873
 20
4.866487929998534
 30
0.0
 10
7.239733850384448
 20
4.866505315705315
 30
0.0
 10
7.238160998572364
 20
4.867350731566973
 30
0.0
 10
7.23445864200623
 20
4.868198696152613
 30
0.0
 10
7.228641926270137
 20
4.868240564087857
 30
0.0
 10
7.222592060557146
 20
4.866233813591742
 30
0.0
 10
7.217151389537893
 20
4.862106673168645
 30
0.0
 10
7.213592757068866
 20
4.85632222719561
 30
0.0
 10
7.21225531382562
 20
4.85149847870004
 30
0.0
 10
7.212441291756944
 20
4.849013872905605
 30
0.0
 10
7.212468766620043
 20
4.848646817505145
 30
0.0
  0
LINE
  5
2AB
330
1F
100
AcDbEntity
  8
0
  6
Continuous
 62
     7
370
    25
100
AcDbLine
 10
7.2474375424
 20
4.8603989374
 30
0.0
 11
7.2434669383
 21
4.8640847605
 31
0.0
  0
LINE
  5
2AC
330
1F
100
AcDbEntity
  8
0
  6
Continuous
 62
     7
370
    25
100
AcDbLine
 10
7.2123762814
 20
4.8486827547
 30
0.0
 11
7.2123762814
 21
4.7258375526
 31
0.0
  0
LINE
  5
2AD
330
1F
100
AcDbEntity
  8
0
  6
Continuous
 62
     7
370
    25
100
AcDbLine
 10
7.2513526593
 20
4.7477575403
 30
0.0
 11
7.2513526593
 21
4.8486827547
 31
0.0
  0
SPLINE
  5
2AE
330
1F
100
AcDbEntity
  8
0
  6
Continuous
 62
     7
370
    25
100
AcDbSpline
210
0.0
220
0.0
230
1.0
 70
     8
 71
     3
 72
    10
 73
     6
 74
     0
 42
0.000000001
 43
0.00000001
 40
0.0
 40
0.0
 40
0.0
 40
0.0
 40
0.2622150232711397
 40
0.6124160031753472
 40
0.9999999999999999
 40
0.9999999999999999
 40
0.9999999999999999
 40
0.9999999999999999
 10
7.174983171560736
 20
4.892728180324819
 30
0.0
 10
7.17496288227407
 20
4.893825278924302
 30
0.0
 10
7.174915495653377
 20
4.896387606326459
 30
0.0
 10
7.173699645545591
 20
4.900464160285519
 30
0.0
 10
7.172034075821774
 20
4.903066466544021
 30
0.0
 10
7.171159094369306
 20
4.904433548136145
 30
0.0
  0
SPLINE
  5
2AF
330
1F
100
AcDbEntity
  8
0
  6
Continuous
 62
     7
370
    25
100
AcDbSpline
210
0.0
220
0.0
230
1.0
 70
     8
 71
     3
 72
    15
 73
    11
 74
     0
 42
0.000000001
 43
0.00000001
 40
0.0
 40
0.0
 40
0.0
 40
0.0
 40
0.0028520531963944
 40
0.1386869708527327
 40
0.2878463760206997
 40
0.4511336929792243
 40
0.6241208781190927
 40
0.80670936547907
 40
0.9714448177583198
 40
1.0
 40
1.0
 40
1.0
 40
1.0
 10
7.163487747529608
 20
4.910522540754325
 30
0.0
 10
7.16345540233517
 20
4.910539926461114
 30
0.0
 10
7.161882550523091
 20
4.911385342322768
 30
0.0
 10
7.158180193956953
 20
4.912233306908407
 30
0.0
 10
7.152363478220876
 20
4.91227517484365
 30
0.0
 10
7.146313612507883
 20
4.910268424347532
 30
0.0
 10
7.14087294148863
 20
4.906141283924432
 30
0.0
 10
7.137314309019605
 20
4.900356837951395
 30
0.0
 10
7.135976865776362
 20
4.895533089455829
 30
0.0
 10
7.136162843707686
 20
4.893048483661395
 30
0.0
 10
7.136190318570786
 20
4.892681428260937
 30
0.0
  0
LINE
  5
2B0
330
1F
100
AcDbEntity
  8
0
  6
Continuous
 62
     7
370
    25
100
AcDbLine
 10
7.1711590944
 20
4.9044335481
 30
0.0
 11
7.1671884902
 21
4.9081193713
 31
0.0
  0
LINE
  5
2B1
330
1F
100
AcDbEntity
  8
0
  6
Continuous
 62
     7
370
    25
100
AcDbLine
 10
7.1360978333
 20
4.8927173655
 30
0.0
 11
7.1360978333
 21
4.7698721634
 31
0.0
  0
LINE
  5
2B2
330
1F
100
AcDbEntity
  8
0
  6
Continuous
 62
     7
370
    25
100
AcDbLine
 10
7.1750742113
 20
4.7917921511
 30
0.0
 11
7.1750742113
 21
4.8927173655
 31
0.0
  0
SPLINE
  5
2B3
330
1F
100
AcDbEntity
  8
0
  6
Continuous
 62
     7
370
    25
100
AcDbSpline
210
0.0
220
0.0
230
1.0
 70
     8
 71
     3
 72
    16
 73
    12
 74
     0
 42
0.000000001
 43
0.00000001
 40
0.0
 40
0.0
 40
0.0
 40
0.0
 40
0.1420768647140909
 40
0.2057898030007647
 40
0.3140505792891287
 40
0.4329310061556793
 40
0.5630714147995106
 40
0.7009426431561944
 40
0.8464661339040376
 40
0.9777607100926232
 40
1.0
 40
1.0
 40
1.0
 40
1.0
 10
7.206514433428001
 20
4.792739918665176
 30
0.0
 10
7.204942715113698
 20
4.794448343068337
 30
0.0
 10
7.202666175559395
 20
4.796922893179474
 30
0.0
 10
7.198132289859829
 20
4.799287141410507
 30
0.0
 10
7.193570324676371
 20
4.800603241562713
 30
0.0
 10
7.187708116276811
 20
4.800562013724256
 30
0.0
 10
7.181672164242862
 20
4.798580578504933
 30
0.0
 10
7.17622716073734
 20
4.794445958984239
 30
0.0
 10
7.172670611303407
 20
4.78866363969439
 30
0.0
 10
7.171332943687514
 20
4.783847815047371
 30
0.0
 10
7.171517481855162
 20
4.781371599529328
 30
0.0
 10
7.171544212099853
 20
4.781012921172694
 30
0.0
  0
SPLINE
  5
2B4
330
1F
100
AcDbEntity
  8
0
  6
Continuous
 62
     7
370
    25
100
AcDbSpline
210
0.0
220
0.0
230
1.0
 70
     8
 71
     3
 72
    10
 73
     6
 74
     0
 42
0.000000001
 43
0.00000001
 40
0.0
 40
0.0
 40
0.0
 40
0.0
 40
0.2607299468237251
 40
0.6116358410080217
 40
1.0
 40
1.0
 40
1.0
 40
1.0
 10
7.210337065089805
 20
4.781059673236578
 30
0.0
 10
7.210316755497282
 20
4.78214835033157
 30
0.0
 10
7.210269112045294
 20
4.784702233913777
 30
0.0
 10
7.209054758077447
 20
4.788770509441161
 30
0.0
 10
7.207389336863355
 20
4.791372829711733
 30
0.0
 10
7.206514433428001
 20
4.792739918665176
 30
0.0
  0
LINE
  5
2B5
330
1F
100
AcDbEntity
  8
0
  6
Continuous
 62
     7
370
    25
100
AcDbLine
 10
7.1714531724
 20
4.781023736
 30
0.0
 11
7.1714531724
 21
4.7494619606
 31
0.0
  0
LINE
  5
2B6
330
1F
100
AcDbEntity
  8
0
  6
Continuous
 62
     7
370
    25
100
AcDbLine
 10
7.2104295503
 20
4.7269613765
 30
0.0
 11
7.2104295503
 21
4.781023736
 31
0.0
  0
SPLINE
  5
2B7
330
1F
100
AcDbEntity
  8
0
  6
Continuous
 62
     7
370
    25
100
AcDbSpline
210
0.0
220
0.0
230
1.0
 70
     8
 71
     3
 72
    16
 73
    12
 74
     0
 42
0.000000001
 43
0.00000001
 40
0.0
 40
0.0
 40
0.0
 40
0.0
 40
0.1420768647140911
 40
0.205789803000765
 40
0.3140505792891282
 40
0.4329310061556808
 40
0.5630714147995131
 40
0.7009426431562026
 40
0.8464661339040365
 40
0.9777607100926232
 40
1.0
 40
1.0
 40
1.0
 40
1.0
 10
7.130235985378743
 20
4.836774529420968
 30
0.0
 10
7.128664267064441
 20
4.838482953824128
 30
0.0
 10
7.126387727510138
 20
4.840957503935265
 30
0.0
 10
7.121853841810571
 20
4.843321752166299
 30
0.0
 10
7.117291876627115
 20
4.844637852318502
 30
0.0
 10
7.111429668227554
 20
4.844596624480048
 30
0.0
 10
7.105393716193604
 20
4.842615189260726
 30
0.0
 10
7.099948712688082
 20
4.838480569740032
 30
0.0
 10
7.09639216325415
 20
4.832698250450182
 30
0.0
 10
7.095054495638258
 20
4.827882425803162
 30
0.0
 10
7.095239033805905
 20
4.82540621028512
 30
0.0
 10
7.095265764050597
 20
4.825047531928486
 30
0.0
  0
SPLINE
  5
2B8
330
1F
100
AcDbEntity
  8
0
  6
Continuous
 62
     7
370
    25
100
AcDbSpline
210
0.0
220
0.0
230
1.0
 70
     8
 71
     3
 72
    10
 73
     6
 74
     0
 42
0.000000001
 43
0.00000001
 40
0.0
 40
0.0
 40
0.0
 40
0.0
 40
0.2607299468237262
 40
0.6116358410080257
 40
1.0
 40
1.0
 40
1.0
 40
1.0
 10
7.134058617040548
 20
4.825094283992369
 30
0.0
 10
7.134038307448024
 20
4.826182961087363
 30
0.0
 10
7.133990663996037
 20
4.82873684466957
 30
0.0
 10
7.13277631002819
 20
4.832805120196952
 30
0.0
 10
7.131110888814097
 20
4.835407440467525
 30
0.0
 10
7.130235985378743
 20
4.836774529420968
 30
0.0
  0
LINE
  5
2B9
330
1F
100
AcDbEntity
  8
0
  6
Continuous
 62
     7
370
    25
100
AcDbLine
 10
7.0951747243
 20
4.8250583468
 30
0.0
 11
7.0951747243
 21
4.7934965713
 31
0.0
  0
LINE
  5
2BA
330
1F
100
AcDbEntity
  8
0
  6
Continuous
 62
     7
370
    25
100
AcDbLine
 10
7.1341511023
 20
4.7709959873
 30
0.0
 11
7.1341511023
 21
4.8250583468
 31
0.0
  0
LINE
  5
2BB
330
1F
100
AcDbEntity
  8
0
  6
Continuous
 62
     7
370
    25
100
AcDbLine
 10
6.7722831939
 20
4.6572075382
 30
0.0
 11
6.7722831939
 21
4.4938993758
 31
0.0
  0
LINE
  5
2BC
330
1F
100
AcDbEntity
  8
0
  6
Continuous
 62
     7
370
    25
100
AcDbLine
 10
7.7873620171
 20
4.3489869359
 30
0.0
 11
7.7873620171
 21
4.5122950983
 31
0.0
  0
LINE
  5
2BD
330
1F
100
AcDbEntity
  8
0
  6
Continuous
 62
     7
370
    25
100
AcDbLine
 10
6.5972043707
 20
4.802119978
 30
0.0
 11
6.5972043707
 21
4.6388118156
 31
0.0
  0
SPLINE
  5
2BE
330
1F
100
AcDbEntity
  8
0
  6
Continuous
 62
     7
370
    25
100
AcDbSpline
210
0.0
220
0.0
230
1.0
 70
     8
 71
     3
 72
    16
 73
    12
 74
     0
 42
0.000000001
 43
0.00000001
 40
0.0
 40
0.0
 40
0.0
 40
0.0
 40
0.1420768647140972
 40
0.2057898030007738
 40
0.3140505792891416
 40
0.4329310061556973
 40
0.5630714147995346
 40
0.7009426431562238
 40
0.8464661339040743
 40
0.9777607100926672
 40
1.0
 40
1.0
 40
1.0
 40
1.0
 10
7.053957537329486
 20
4.880809140176759
 30
0.0
 10
7.052385819015183
 20
4.882517564579921
 30
0.0
 10
7.05010927946088
 20
4.884992114691056
 30
0.0
 10
7.045575393761314
 20
4.887356362922091
 30
0.0
 10
7.041013428577858
 20
4.888672463074295
 30
0.0
 10
7.035151220178296
 20
4.88863123523584
 30
0.0
 10
7.029115268144347
 20
4.886649800016518
 30
0.0
 10
7.023670264638826
 20
4.882515180495823
 30
0.0
 10
7.020113715204889
 20
4.876732861205974
 30
0.0
 10
7.018776047589008
 20
4.871917036558955
 30
0.0
 10
7.018960585756644
 20
4.869440821040913
 30
0.0
 10
7.018987316001335
 20
4.86908214268428
 30
0.0
  0
SPLINE
  5
2BF
330
1F
100
AcDbEntity
  8
0
  6
Continuous
 62
     7
370
    25
100
AcDbSpline
210
0.0
220
0.0
230
1.0
 70
     8
 71
     3
 72
    10
 73
     6
 74
     0
 42
0.000000001
 43
0.00000001
 40
0.0
 40
0.0
 40
0.0
 40
0.0
 40
0.2607299468233027
 40
0.611635841007551
 40
1.0
 40
1.0
 40
1.0
 40
1.0
 10
7.05778016899129
 20
4.869128894748161
 30
0.0
 10
7.057759859398767
 20
4.870217571843154
 30
0.0
 10
7.057712215946781
 20
4.872771455425357
 30
0.0
 10
7.056497861978935
 20
4.876839730952741
 30
0.0
 10
7.054832440764842
 20
4.879442051223315
 30
0.0
 10
7.053957537329486
 20
4.880809140176759
 30
0.0
  0
LINE
  5
2C0
330
1F
100
AcDbEntity
  8
0
  6
Continuous
 62
     7
370
    25
100
AcDbLine
 10
7.0188962763
 20
4.8690929575
 30
0.0
 11
7.0188962763
 21
4.8375311821
 31
0.0
  0
LINE
  5
2C1
330
1F
100
AcDbEntity
  8
0
  6
Continuous
 62
     7
370
    25
100
AcDbLine
 10
7.0578726542
 20
4.815030598
 30
0.0
 11
7.0578726542
 21
4.8690929575
 31
0.0
  0
SPLINE
  5
2C2
330
1F
100
AcDbEntity
  8
0
  6
Continuous
 62
     7
370
    25
100
AcDbSpline
210
0.0
220
0.0
230
1.0
 70
     8
 71
     3
 72
    10
 73
     6
 74
     0
 42
0.000000001
 43
0.00000001
 40
0.0
 40
0.0
 40
0.0
 40
0.0
 40
0.2622150232554866
 40
0.612416003117291
 40
1.0
 40
1.0
 40
1.0
 40
1.0
 10
7.403818515708513
 20
4.760624348057442
 30
0.0
 10
7.40379822642185
 20
4.761721446656868
 30
0.0
 10
7.403750839801169
 20
4.764283774058801
 30
0.0
 10
7.402534989693474
 20
4.768360328017909
 30
0.0
 10
7.400869419969618
 20
4.770962634276501
 30
0.0
 10
7.399994438517019
 20
4.772329715868847
 30
0.0
  0
SPLINE
  5
2C3
330
1F
100
AcDbEntity
  8
0
  6
Continuous
 62
     7
370
    25
100
AcDbSpline
210
0.0
220
0.0
230
1.0
 70
     8
 71
     3
 72
    15
 73
    11
 74
     0
 42
0.000000001
 43
0.00000001
 40
0.0
 40
0.0
 40
0.0
 40
0.0
 40
0.0028520531951406
 40
0.1386869708527572
 40
0.2878463760205688
 40
0.4511336929790982
 40
0.6241208781189705
 40
0.8067093654789531
 40
0.9714448177581998
 40
1.0
 40
1.0
 40
1.0
 40
1.0
 10
7.392323091677382
 20
4.778418708486954
 30
0.0
 10
7.392290746482959
 20
4.778436094193733
 30
0.0
 10
7.390717894670878
 20
4.779281510055382
 30
0.0
 10
7.387015538104744
 20
4.780129474641034
 30
0.0
 10
7.381198822368652
 20
4.780171342576272
 30
0.0
 10
7.375148956655661
 20
4.778164592080159
 30
0.0
 10
7.369708285636407
 20
4.77403745165706
 30
0.0
 10
7.366149653167379
 20
4.768253005684024
 30
0.0
 10
7.364812209924134
 20
4.763429257188454
 30
0.0
 10
7.364998187855459
 20
4.760944651394021
 30
0.0
 10
7.365025662718558
 20
4.760577595993562
 30
0.0
  0
LINE
  5
2C4
330
1F
100
AcDbEntity
  8
0
  6
Continuous
 62
     7
370
    25
100
AcDbLine
 10
7.3999944385
 20
4.7723297159
 30
0.0
 11
7.3960238344
 21
4.776015539
 31
0.0
  0
LINE
  5
2C5
330
1F
100
AcDbEntity
  8
0
  6
Continuous
 62
     7
370
    25
100
AcDbLine
 10
7.3649331775
 20
4.7606135332
 30
0.0
 11
7.3649331775
 21
4.7174311317
 31
0.0
  0
LINE
  5
2C6
330
1F
100
AcDbEntity
  8
0
  6
Continuous
 62
     7
370
    25
100
AcDbLine
 10
7.4039095554
 20
4.7331862103
 30
0.0
 11
7.4039095554
 21
4.7606135332
 31
0.0
  0
LINE
  5
2C7
330
1F
100
AcDbEntity
  8
0
  6
Continuous
 62
     7
370
    25
100
AcDbLine
 10
6.9122831939
 20
2.3329310645
 30
0.0
 11
6.9122831939
 21
2.075305491
 31
0.0
  0
LINE
  5
2C8
330
1F
100
AcDbEntity
  8
0
  6
Continuous
 62
     7
370
    25
100
AcDbLine
 10
7.4722831939
 20
2.075305491
 30
0.0
 11
7.4722831939
 21
2.3382236035
 31
0.0
  0
LINE
  5
2C9
330
1F
100
AcDbEntity
  8
0
  6
Continuous
 62
     7
370
    25
100
AcDbLine
 10
7.0154777744
 20
1.9226455315
 30
0.0
 11
7.0211355479
 21
1.9193783067
 31
0.0
  0
LINE
  5
2CA
330
1F
100
AcDbEntity
  8
0
  6
Continuous
 62
     7
370
    25
100
AcDbLine
 10
7.36343084
 20
1.9193783067
 30
0.0
 11
7.3690886134
 21
1.9226455315
 31
0.0
  0
LINE
  5
2CB
330
1F
100
AcDbEntity
  8
0
  6
Continuous
 62
     7
370
    25
100
AcDbLine
 10
7.4162831939
 20
1.9462920427
 30
0.0
 11
7.4162831939
 21
1.9605932239
 31
0.0
  0
LINE
  5
2CC
330
1F
100
AcDbEntity
  8
0
  6
Continuous
 62
     7
370
    25
100
AcDbLine
 10
6.9682831939
 20
1.9605932239
 30
0.0
 11
6.9682831939
 21
1.9462920427
 31
0.0
  0
LINE
  5
2CD
330
1F
100
AcDbEntity
  8
0
  6
Continuous
 62
     7
370
    25
100
AcDbLine
 10
7.0047831939
 20
2.823736162
 30
0.0
 11
7.0047831939
 21
2.5465581487
 31
0.0
  0
LINE
  5
2CE
330
1F
100
AcDbEntity
  8
0
  6
Continuous
 62
     7
370
    25
100
AcDbLine
 10
7.3797831939
 20
2.5465581487
 30
0.0
 11
7.3797831939
 21
2.8242032737
 31
0.0
  0
LINE
  5
2CF
330
1F
100
AcDbEntity
  8
0
  6
Continuous
 62
     7
370
    25
100
AcDbLine
 10
6.773164672
 20
3.208627335
 30
0.0
 11
6.7722831939
 21
3.1996821889
 31
0.0
  0
LINE
  5
2D0
330
1F
100
AcDbEntity
  8
0
  6
Continuous
 62
     7
370
    25
100
AcDbLine
 10
7.6122831939
 20
3.1996821889
 30
0.0
 11
7.6117340099
 21
3.2062204957
 31
0.0
  0
LINE
  5
2D1
330
1F
100
AcDbEntity
  8
0
  6
Continuous
 62
     7
370
    25
100
AcDbLine
 10
7.6122831939
 20
3.0445394347
 30
0.0
 11
7.6122831939
 21
3.1996821889
 31
0.0
  0
LINE
  5
2D2
330
1F
100
AcDbEntity
  8
0
  6
Continuous
 62
     7
370
    25
100
AcDbLine
 10
6.7722831939
 20
3.1996821889
 30
0.0
 11
6.7722831939
 21
3.0445394347
 31
0.0
  0
SPLINE
  5
2D3
330
1F
100
AcDbEntity
  8
0
  6
Continuous
 62
     7
370
    25
100
AcDbSpline
210
0.0
220
0.0
230
1.0
 70
     8
 71
     3
 72
    39
 73
    35
 74
     0
 42
0.000000001
 43
0.00000001
 40
0.0
 40
0.0
 40
0.0
 40
0.0
 40
0.0019790302677431
 40
0.0269421613220966
 40
0.0490827139966059
 40
0.0774448203643091
 40
0.1023692025324046
 40
0.1326096047784456
 40
0.1652604732282136
 40
0.2016999521571073
 40
0.2426530398624751
 40
0.2881142024511507
 40
0.3364524315868658
 40
0.373102443117991
 40
0.4100734916886079
 40
0.4473690888867497
 40
0.4849929624847962
 40
0.5229490059163225
 40
0.5612412275797832
 40
0.5994240487482781
 40
0.6357650103722782
 40
0.6810734434581299
 40
0.7228073937887831
 40
0.7609657798786279
 40
0.787199671643872
 40
0.8111948221402484
 40
0.8329283858751321
 40
0.8557774339923747
 40
0.8744108003194185
 40
0.8957986334046945
 40
0.9209085354265556
 40
0.9504510676512411
 40
0.9844311273390007
 40
1.0
 40
1.0
 40
1.0
 40
1.0
 10
6.774379125576111
 20
3.019893683505489
 30
0.0
 10
6.774496971892486
 20
3.0194028041755
 30
0.0
 10
6.776101310400456
 20
3.01272006146367
 30
0.0
 10
6.77845120088091
 20
3.000404960341929
 30
0.0
 10
6.785388187328931
 20
2.982286077145075
 30
0.0
 10
6.794252779607803
 20
2.964561946142324
 30
0.0
 10
6.806861583430459
 20
2.945375050107175
 30
0.0
 10
6.822931726631149
 20
2.925864755830754
 30
0.0
 10
6.844413779130968
 20
2.905072358970248
 30
0.0
 10
6.872036835685432
 20
2.883666839018143
 30
0.0
 10
6.907296827674259
 20
2.862055653911042
 30
0.0
 10
6.950814990019301
 20
2.841463659197442
 30
0.0
 10
6.997284627372995
 20
2.825140736674285
 30
0.0
 10
7.04358957567497
 20
2.813211966694563
 30
0.0
 10
7.087483313938471
 20
2.805101594237137
 30
0.0
 10
7.133035791281607
 20
2.799805347565248
 30
0.0
 10
7.179724336725376
 20
2.797461780854461
 30
0.0
 10
7.226985508552822
 20
2.798179102330024
 30
0.0
 10
7.27403775332919
 20
2.802014928418612
 30
0.0
 10
7.319395295248397
 20
2.80883016131111
 30
0.0
 10
7.365892521315274
 20
2.819116430044692
 30
0.0
 10
7.411284361819567
 20
2.833022714254856
 30
0.0
 10
7.453826937682541
 20
2.850475878331225
 30
0.0
 10
7.486649766154398
 20
2.867671384827976
 30
0.0
 10
7.511517176115863
 20
2.883458087990611
 30
0.0
 10
7.530099795124074
 20
2.897187746590073
 30
0.0
 10
7.546288995411507
 20
2.910988324129743
 30
0.0
 10
7.559782630504542
 20
2.924317316114363
 30
0.0
 10
7.571787076157501
 20
2.938053302353601
 30
0.0
 10
7.582746410593774
 20
2.95270539854292
 30
0.0
 10
7.593589090970783
 20
2.970379990076231
 30
0.0
 10
7.603127609764186
 20
2.991666683777766
 30
0.0
 10
7.609409946185908
 20
3.011114553955784
 30
0.0
 10
7.610312253380988
 20
3.023518239820814
 30
0.0
 10
7.610595769193647
 20
3.027415627647467
 30
0.0
  0
SPLINE
  5
2D4
330
1F
100
AcDbEntity
  8
0
  6
Continuous
 62
     7
370
    25
100
AcDbSpline
210
0.0
220
0.0
230
1.0
 70
     8
 71
     3
 72
    14
 73
    10
 74
     0
 42
0.000000001
 43
0.00000001
 40
0.0
 40
0.0
 40
0.0
 40
0.0
 40
0.1322069523610311
 40
0.2938264428573387
 40
0.4528989520347532
 40
0.6114281723546042
 40
0.7715519339789133
 40
0.9355424662319537
 40
1.0
 40
1.0
 40
1.0
 40
1.0
 10
7.518015807903732
 20
4.769578772614204
 30
0.0
 10
7.517942234120598
 20
4.773359786101874
 30
0.0
 10
7.517778718340228
 20
4.781762988230339
 30
0.0
 10
7.514736029973936
 20
4.794417939537826
 30
0.0
 10
7.509657803083957
 20
4.807106588736678
 30
0.0
 10
7.502666611141911
 20
4.818797736750025
 30
0.0
 10
7.493890830544756
 20
4.829291992493245
 30
0.0
 10
7.485938601006497
 20
4.836977193997657
 30
0.0
 10
7.480497802780229
 20
4.840533128318003
 30
0.0
 10
7.478962659841605
 20
4.841536449381397
 30
0.0
  0
LINE
  5
2D5
330
1F
100
AcDbEntity
  8
0
  6
Continuous
 62
     7
370
    25
100
AcDbLine
 10
7.5182127888
 20
4.6940605071
 30
0.0
 11
7.5182127888
 21
4.7695184419
 31
0.0
  0
LINE
  5
2D6
330
1F
100
AcDbEntity
  8
0
  6
Continuous
 62
     7
370
    25
100
AcDbLine
 10
7.7660291267
 20
4.5105304997
 30
0.0
 11
7.7660291267
 21
4.5362483205
 31
0.0
  0
SPLINE
  5
2D7
330
1F
100
AcDbEntity
  8
0
  6
Continuous
 62
     7
370
    25
100
AcDbSpline
210
0.0
220
0.0
230
1.0
 70
     8
 71
     3
 72
    13
 73
     9
 74
     0
 42
0.000000001
 43
0.00000001
 40
0.0
 40
0.0
 40
0.0
 40
0.0
 40
0.1575870443952375
 40
0.3379836021065707
 40
0.5138424139782141
 40
0.6868529097087642
 40
0.8583041724040605
 40
1.0
 40
1.0
 40
1.0
 40
1.0
 10
6.91533399697014
 20
4.965429792607951
 30
0.0
 10
6.912280150699192
 20
4.96272980107477
 30
0.0
 10
6.905730437384269
 20
4.956939014988616
 30
0.0
 10
6.897352342975988
 20
4.946557858701865
 30
0.0
 10
6.890317334444201
 20
4.934730112510362
 30
0.0
 10
6.885382537354039
 20
4.922105971891537
 30
0.0
 10
6.882437407869514
 20
4.909701160910914
 30
0.0
 10
6.882301330549415
 20
4.901524293690086
 30
0.0
 10
6.882239756965991
 20
4.897824345633983
 30
0.0
  0
LINE
  5
2D8
330
1F
100
AcDbEntity
  8
0
  6
Continuous
 62
     7
370
    25
100
AcDbLine
 10
6.8820145256
 20
4.8976212874
 30
0.0
 11
6.8820145256
 21
4.7681741723
 31
0.0
  0
LINE
  5
2D9
330
1F
100
AcDbEntity
  8
0
  6
Continuous
 62
     7
370
    25
100
AcDbLine
 10
7.1750742113
 20
4.8377541995
 30
0.0
 11
7.2123762814
 21
4.8162201728
 31
0.0
  0
LINE
  5
2DA
330
1F
100
AcDbEntity
  8
0
  6
Continuous
 62
     7
370
    25
100
AcDbLine
 10
7.2513526593
 20
4.7937195888
 30
0.0
 11
7.2886547294
 21
4.7721855621
 31
0.0
  0
LINE
  5
2DB
330
1F
100
AcDbEntity
  8
0
  6
Continuous
 62
     7
370
    25
100
AcDbLine
 10
7.3276311074
 20
4.749684978
 30
0.0
 11
7.3649331775
 21
4.7281509513
 31
0.0
  0
LINE
  5
2DC
330
1F
100
AcDbEntity
  8
0
  6
Continuous
 62
     7
370
    25
100
AcDbLine
 10
6.9880224436
 20
5.0253579493
 30
0.0
 11
6.915333997
 21
4.9654297926
 31
0.0
  0
SPLINE
  5
2DD
330
1F
100
AcDbEntity
  8
0
  6
Continuous
 62
     7
370
    25
100
AcDbSpline
210
0.0
220
0.0
230
1.0
 70
     8
 71
     3
 72
     9
 73
     5
 74
     0
 42
0.000000001
 43
0.00000001
 40
0.0
 40
0.0
 40
0.0
 40
0.0
 40
0.1293094957807205
 40
1.0
 40
1.0
 40
1.0
 40
1.0
 10
6.993097060112047
 20
5.029220525107803
 30
0.0
 10
6.992863430900536
 20
5.029073352855377
 30
0.0
 10
6.991056686468506
 20
5.027935213296969
 30
0.0
 10
6.989434695623788
 20
5.02655750596528
 30
0.0
 10
6.988022443597362
 20
5.025357949273983
 30
0.0
  0
SPLINE
  5
2DE
330
1F
100
AcDbEntity
  8
0
  6
Continuous
 62
     7
370
    25
100
AcDbSpline
210
0.0
220
0.0
230
1.0
 70
     8
 71
     3
 72
    11
 73
     7
 74
     0
 42
0.000000001
 43
0.00000001
 40
0.0
 40
0.0
 40
0.0
 40
0.0
 40
0.0690836196884301
 40
0.5125060545498371
 40
0.9548714186572097
 40
0.9999999999999999
 40
0.9999999999999999
 40
0.9999999999999999
 40
0.9999999999999999
 10
6.995516654557511
 20
4.851027950415975
 30
0.0
 10
6.995948481211571
 20
4.851269962076143
 30
0.0
 10
6.99915204488875
 20
4.85306535788296
 30
0.0
 10
7.006602805670605
 20
4.856085261741502
 30
0.0
 10
7.014072092403102
 20
4.858916436361715
 30
0.0
 10
7.018487527943082
 20
4.860058339926674
 30
0.0
 10
7.018896276285067
 20
4.860164048907057
 30
0.0
  0
LINE
  5
2DF
330
1F
100
AcDbEntity
  8
0
  6
Continuous
 62
     7
370
    25
100
AcDbLine
 10
7.0578726542
 20
4.867058423
 30
0.0
 11
7.0598193853
 21
4.8672276314
 31
0.0
  0
SPLINE
  5
2E0
330
1F
100
AcDbEntity
  8
0
  6
Continuous
 62
     7
370
    25
100
AcDbSpline
210
0.0
220
0.0
230
1.0
 70
     8
 71
     3
 72
    11
 73
     7
 74
     0
 42
0.000000001
 43
0.00000001
 40
0.0
 40
0.0
 40
0.0
 40
0.0
 40
0.1943640151398937
 40
0.4626944313993034
 40
0.7464834989485126
 40
1.0
 40
1.0
 40
1.0
 40
1.0
 10
7.098795763227753
 20
4.86611874008804
 30
0.0
 10
7.101404550600169
 20
4.865794169625093
 30
0.0
 10
7.107614915152748
 20
4.865021511447115
 30
0.0
 10
7.117218567543548
 20
4.863128654319967
 30
0.0
 10
7.127191864875173
 20
4.860675777423958
 30
0.0
 10
7.133242816947841
 20
4.858627902149833
 30
0.0
 10
7.136097833324254
 20
4.857661654628078
 30
0.0
  0
LINE
  5
2E1
330
1F
100
AcDbEntity
  8
0
  6
Continuous
 62
     7
370
    25
100
AcDbLine
 10
6.618637481
 20
4.8295445418
 30
0.0
 11
6.618637481
 21
4.8038267209
 31
0.0
  0
SPLINE
  5
2E2
330
1F
100
AcDbEntity
  8
0
  6
Continuous
 62
     7
370
    25
100
AcDbSpline
210
0.0
220
0.0
230
1.0
 70
     8
 71
     3
 72
    10
 73
     6
 74
     0
 42
0.000000001
 43
0.00000001
 40
0.0
 40
0.0
 40
0.0
 40
0.0
 40
0.2622150232554878
 40
0.6124160031172968
 40
1.0
 40
1.0
 40
1.0
 40
1.0
 10
7.098704723511484
 20
4.93676279108061
 30
0.0
 10
7.098684434224821
 20
4.937859889680036
 30
0.0
 10
7.098637047604139
 20
4.940422217081968
 30
0.0
 10
7.097421197496444
 20
4.944498771041076
 30
0.0
 10
7.095755627772589
 20
4.947101077299667
 30
0.0
 10
7.094880646319988
 20
4.948468158892016
 30
0.0
  0
SPLINE
  5
2E3
330
1F
100
AcDbEntity
  8
0
  6
Continuous
 62
     7
370
    25
100
AcDbSpline
210
0.0
220
0.0
230
1.0
 70
     8
 71
     3
 72
    15
 73
    11
 74
     0
 42
0.000000001
 43
0.00000001
 40
0.0
 40
0.0
 40
0.0
 40
0.0
 40
0.0028520531951342
 40
0.13868697085275
 40
0.2878463760205623
 40
0.4511336929790939
 40
0.6241208781189687
 40
0.8067093654789227
 40
0.9714448177581819
 40
1.0
 40
1.0
 40
1.0
 40
1.0
 10
7.087209299480353
 20
4.954557151510122
 30
0.0
 10
7.08717695428593
 20
4.9545745372169
 30
0.0
 10
7.085604102473845
 20
4.955419953078552
 30
0.0
 10
7.081901745907716
 20
4.9562679176642
 30
0.0
 10
7.076085030171622
 20
4.956309785599442
 30
0.0
 10
7.070035164458631
 20
4.954303035103325
 30
0.0
 10
7.064594493439377
 20
4.950175894680228
 30
0.0
 10
7.061035860970351
 20
4.944391448707192
 30
0.0
 10
7.059698417727104
 20
4.939567700211622
 30
0.0
 10
7.059884395658429
 20
4.937083094417188
 30
0.0
 10
7.059911870521528
 20
4.936716039016729
 30
0.0
  0
LINE
  5
2E4
330
1F
100
AcDbEntity
  8
0
  6
Continuous
 62
     7
370
    25
100
AcDbLine
 10
7.0948806463
 20
4.9484681589
 30
0.0
 11
7.0909100422
 21
4.9521539821
 31
0.0
  0
LINE
  5
2E5
330
1F
100
AcDbEntity
  8
0
  6
Continuous
 62
     7
370
    25
100
AcDbLine
 10
7.0598193853
 20
4.9367519762
 30
0.0
 11
7.0598193853
 21
4.8139067741
 31
0.0
  0
LINE
  5
2E6
330
1F
100
AcDbEntity
  8
0
  6
Continuous
 62
     7
370
    25
100
AcDbLine
 10
7.0987957632
 20
4.8358267619
 30
0.0
 11
7.0987957632
 21
4.9367519762
 31
0.0
  0
SPLINE
  5
2E7
330
1F
100
AcDbEntity
  8
0
  6
Continuous
 62
     7
370
    25
100
AcDbSpline
210
0.0
220
0.0
230
1.0
 70
     8
 71
     3
 72
    10
 73
     6
 74
     0
 42
0.000000001
 43
0.00000001
 40
0.0
 40
0.0
 40
0.0
 40
0.0
 40
0.5
 40
0.5
 40
1.0
 40
1.0
 40
1.0
 40
1.0
 10
7.26242617145749
 20
4.747939172583926
 30
0.0
 10
7.260319362703512
 20
4.745105949441485
 30
0.0
 10
7.258528893103
 20
4.741705138252327
 30
0.0
 10
7.256040729608165
 20
4.734719923488918
 30
0.0
 10
7.25535626140123
 20
4.731111606695809
 30
0.0
 10
7.255356031202367
 20
4.728063721847998
 30
0.0
  0
LINE
  5
2E8
330
1F
100
AcDbEntity
  8
0
  6
Continuous
 62
     7
370
    25
100
AcDbLine
 10
7.2866122571
 20
4.7381029287
 30
0.0
 11
7.2867079859
 21
4.7370018357
 31
0.0
  0
LWPOLYLINE
  5
2E9
330
1F
100
AcDbEntity
  8
0
  6
Continuous
 62
     7
370
    25
100
AcDbPolyline
 90
       16
 70
   128
 43
0.0
 10
7.2609729327
 20
4.7487781418
 10
7.2595965996
 20
4.7504071906
 10
7.2594322829
 20
4.7522171894
 10
7.2605061073
 20
4.7539203662
 10
7.2626473452
 20
4.7552459322
 10
7.2655155605
 20
4.7559831354
 10
7.2686547348
 20
4.7560147675
 10
7.2715657699
 20
4.7553357995
 10
7.2737858395
 20
4.7540541806
 10
7.274961974
 20
4.7523736758
 10
7.2749071795
 20
4.7505614691
 10
7.2736301678
 20
4.7489056836
 10
7.2713339713
 20
4.7476695733
 10
7.268383663
 20
4.7470496677
 10
7.2652483133
 20
4.7471445257
 10
7.2624264123
 20
4.7479390659
  0
SPLINE
  5
2EA
330
1F
100
AcDbEntity
  8
0
  6
Continuous
 62
   144
370
    18
100
AcDbSpline
210
0.0
220
0.0
230
1.0
 70
     8
 71
     3
 72
    10
 73
     6
 74
     0
 42
0.000000001
 43
0.00000001
 40
0.0
 40
0.0
 40
0.0
 40
0.0
 40
0.5
 40
0.5
 40
1.0
 40
1.0
 40
1.0
 40
1.0
 10
7.251759023187189
 20
4.730140205664963
 30
0.0
 10
7.251759023187189
 20
4.733226891747918
 30
0.0
 10
7.25264093875727
 20
4.736652982052485
 30
0.0
 10
7.255898166474267
 20
4.743236454189886
 30
0.0
 10
7.258229827589434
 20
4.746315607694018
 30
0.0
 10
7.260973166311089
 20
4.748777966063591
 30
0.0
  0
LINE
  5
2EB
330
1F
100
AcDbEntity
  8
0
  6
Continuous
 62
     7
370
    25
100
AcDbLine
 10
7.2553559108
 20
4.7280637752
 30
0.0
 11
7.2553559108
 21
4.7072093246
 31
0.0
  0
ARC
  5
2EC
330
1F
100
AcDbEntity
  8
0
  6
Continuous
 62
     7
370
    25
100
AcDbCircle
 10
7.2672198094
 20
4.7414850184
 30
0.0
 40
0.006932235174141
100
AcDbArc
 50
59.727383289
 51
120.272616711
  0
LWPOLYLINE
  5
2ED
330
1F
100
AcDbEntity
  8
0
  6
Continuous
 62
   144
370
    18
100
AcDbPolyline
 90
        3
 70
   128
 43
0.0
 10
7.2562408222
 20
4.7348022135
 10
7.2561058361
 20
4.7350426624
 10
7.2556056365
 20
4.7369905948
  0
LINE
  5
2EE
330
1F
100
AcDbEntity
  8
0
  6
Continuous
 62
   144
370
    18
100
AcDbLine
 10
7.2517590232
 20
4.7081338344
 30
0.0
 11
7.2517590232
 21
4.7301402057
 31
0.0
  0
LINE
  5
2EF
330
1F
100
AcDbEntity
  8
0
  6
Continuous
 62
   144
370
    18
100
AcDbLine
 10
7.0152482725
 20
4.8589965296
 30
0.0
 11
7.0157711872
 21
4.8581561068
 31
0.0
  0
SPLINE
  5
2F0
330
1F
100
AcDbEntity
  8
0
  6
Continuous
 62
     7
370
    25
100
AcDbSpline
210
0.0
220
0.0
230
1.0
 70
    11
 71
     3
 72
    54
 73
    50
 74
     0
 42
0.000000001
 43
0.00000001
 40
0.0
 40
0.0
 40
0.0
 40
0.0
 40
0.0312499999999976
 40
0.0312499999999976
 40
0.0624999999999953
 40
0.0624999999999953
 40
0.0937499999999929
 40
0.0937499999999929
 40
0.1249999999999905
 40
0.1249999999999905
 40
0.1874999999999857
 40
0.1874999999999857
 40
0.249999999999981
 40
0.249999999999981
 40
0.2812499999999797
 40
0.2812499999999797
 40
0.3124999999999785
 40
0.3124999999999785
 40
0.3749999999999782
 40
0.3749999999999782
 40
0.406249999999978
 40
0.406249999999978
 40
0.4374999999999779
 40
0.4374999999999779
 40
0.4999999999999785
 40
0.4999999999999785
 40
0.5312499999999787
 40
0.5312499999999787
 40
0.5624999999999789
 40
0.5624999999999789
 40
0.5937499999999792
 40
0.5937499999999792
 40
0.6249999999999795
 40
0.6249999999999795
 40
0.6874999999999818
 40
0.6874999999999818
 40
0.749999999999984
 40
0.749999999999984
 40
0.7812499999999863
 40
0.7812499999999863
 40
0.8124999999999886
 40
0.8124999999999886
 40
0.8749999999999932
 40
0.8749999999999932
 40
0.9062499999999948
 40
0.9062499999999948
 40
0.9374999999999963
 40
0.9374999999999963
 40
1.0
 40
1.0
 40
1.0
 40
1.0
 10
6.895298345814876
 20
4.153837994642266
 30
0.0
 10
6.892656048158058
 20
4.155363360611219
 30
0.0
 10
6.890093725328471
 20
4.157182948700261
 30
0.0
 10
6.885118411993672
 20
4.161383712190984
 30
0.0
 10
6.882680320153162
 20
4.163795713888653
 30
0.0
 10
6.878093604512565
 20
4.169048091135638
 30
0.0
 10
6.875948187647476
 20
4.171874359611492
 30
0.0
 10
6.871933128658501
 20
4.177914704915184
 30
0.0
 10
6.870058739243624
 20
4.181148565985579
 30
0.0
 10
6.865065567698609
 20
4.191015617292466
 30
0.0
 10
6.862443153563708
 20
4.198077898064339
 30
0.0
 10
6.858954789975424
 20
4.211765590867632
 30
0.0
 10
6.858049626820938
 20
4.218533771350218
 30
0.0
 10
6.85804464697883
 20
4.227573835760069
 30
0.0
 10
6.858268563306392
 20
4.230463622028232
 30
0.0
 10
6.859152169076515
 20
4.235715972710924
 30
0.0
 10
6.859807144830353
 20
4.238100424804879
 30
0.0
 10
6.862433291202543
 20
4.244534255319574
 30
0.0
 10
6.86501169497357
 20
4.247721045567628
 30
0.0
 10
6.870062210994704
 20
4.250645931317845
 30
0.0
 10
6.871901132916437
 20
4.251289342642998
 30
0.0
 10
6.875898409415298
 20
4.251949591468599
 30
0.0
 10
6.878083353024096
 20
4.251961135281695
 30
0.0
 10
6.884960382501649
 20
4.251035003352425
 30
0.0
 10
6.890013841601709
 20
4.249157796798053
 30
0.0
 10
6.897940723480416
 20
4.244581688695233
 30
0.0
 10
6.900573504617861
 20
4.242802774970295
 30
0.0
 10
6.905817106028843
 20
4.238756891352591
 30
0.0
 10
6.908456222880241
 20
4.236460939488537
 30
0.0
 10
6.91354210066867
 20
4.231496729175068
 30
0.0
 10
6.91598334333667
 20
4.228841241036359
 30
0.0
 10
6.920648724999852
 20
4.223176327006586
 30
0.0
 10
6.922879749405833
 20
4.220148352525991
 30
0.0
 10
6.928928010783647
 20
4.210890409146068
 30
0.0
 10
6.932257010999297
 20
4.204236044362034
 30
0.0
 10
6.936744059742971
 20
4.19112490425593
 30
0.0
 10
6.937944988651225
 20
4.184527476824871
 30
0.0
 10
6.937951532981755
 20
4.175488327511352
 30
0.0
 10
6.937656496956081
 20
4.172557487968541
 30
0.0
 10
6.936501554580592
 20
4.167148502312692
 30
0.0
 10
6.935647833495876
 20
4.16464931821025
 30
0.0
 10
6.932269401990033
 20
4.157781203352489
 30
0.0
 10
6.928993755647931
 20
4.154191899166466
 30
0.0
 10
6.922875302126598
 20
4.150650492753085
 30
0.0
 10
6.920686611030875
 20
4.149805158606697
 30
0.0
 10
6.916040490429752
 20
4.148770327067456
 30
0.0
 10
6.913553673902928
 20
4.148584507782742
 30
0.0
 10
6.905927615694257
 20
4.14907821053994
 30
0.0
 10
6.900582941128514
 20
4.150787262704357
 30
0.0
 10
6.895298345814876
 20
4.153837994642266
 30
0.0
  0
SPLINE
  5
2F1
330
1F
100
AcDbEntity
  8
0
  6
Continuous
 62
     7
370
    25
100
AcDbSpline
210
0.0
220
0.0
230
1.0
 70
    11
 71
     3
 72
    54
 73
    50
 74
     0
 42
0.000000001
 43
0.00000001
 40
0.0
 40
0.0
 40
0.0
 40
0.0
 40
0.03125
 40
0.03125
 40
0.0625000000000001
 40
0.0625000000000001
 40
0.0937500000000001
 40
0.0937500000000001
 40
0.1250000000000002
 40
0.1250000000000002
 40
0.1875
 40
0.1875
 40
0.2499999999999999
 40
0.2499999999999999
 40
0.2812500000000002
 40
0.2812500000000002
 40
0.3125000000000004
 40
0.3125000000000004
 40
0.3750000000000013
 40
0.3750000000000013
 40
0.4062500000000017
 40
0.4062500000000017
 40
0.437500000000002
 40
0.437500000000002
 40
0.5000000000000027
 40
0.5000000000000027
 40
0.531250000000003
 40
0.531250000000003
 40
0.5625000000000034
 40
0.5625000000000034
 40
0.5937500000000038
 40
0.5937500000000038
 40
0.6250000000000042
 40
0.6250000000000042
 40
0.6875000000000037
 40
0.6875000000000037
 40
0.7500000000000032
 40
0.7500000000000032
 40
0.7812500000000031
 40
0.7812500000000031
 40
0.8125000000000031
 40
0.8125000000000031
 40
0.8750000000000022
 40
0.8750000000000022
 40
0.9062500000000011
 40
0.9062500000000011
 40
0.9375
 40
0.9375
 40
1.0
 40
1.0
 40
1.0
 40
1.0
 10
7.129783193913232
 20
4.021423993761996
 30
0.0
 10
7.129783193913232
 20
4.024800161083365
 30
0.0
 10
7.130189441846922
 20
4.028083342125608
 30
0.0
 10
7.131780105447486
 20
4.034475743850928
 30
0.0
 10
7.132984236335484
 20
4.037617526176574
 30
0.0
 10
7.136122530052521
 20
4.043543404772528
 30
0.0
 10
7.138042132504562
 20
4.04632369058119
 30
0.0
 10
7.142576349556354
 20
4.051540714305049
 30
0.0
 10
7.145211709982309
 20
4.053983166092634
 30
0.0
 10
7.15384605631966
 20
4.060505796727654
 30
0.0
 10
7.160808406553925
 20
4.063955184807017
 30
0.0
 10
7.175841530932207
 20
4.068553961353625
 30
0.0
 10
7.184072838951076
 20
4.069753722171406
 30
0.0
 10
7.196318095825189
 20
4.06976042875814
 30
0.0
 10
7.200465049646425
 20
4.069463985999631
 30
0.0
 10
7.208484626051557
 20
4.068296056067988
 30
0.0
 10
7.212383135884801
 20
4.067430708882156
 30
0.0
 10
7.223743541324784
 20
4.06396778555755
 30
0.0
 10
7.230622545963724
 20
4.060574235432207
 30
0.0
 10
7.239364302670796
 20
4.053978592599494
 30
0.0
 10
7.241946817926465
 20
4.051582516502904
 30
0.0
 10
7.246474586829628
 20
4.046388604197146
 30
0.0
 10
7.248435643197708
 20
4.043556108341059
 30
0.0
 10
7.253144508813229
 20
4.03467300167442
 30
0.0
 10
7.254783205722528
 20
4.028176248810114
 30
0.0
 10
7.254783188008492
 20
4.018047756917866
 30
0.0
 10
7.25437693519005
 20
4.014693331415034
 30
0.0
 10
7.252786263123459
 20
4.008029994431948
 30
0.0
 10
7.251582128494862
 20
4.004685299629879
 30
0.0
 10
7.248443829961141
 20
3.998256614407238
 30
0.0
 10
7.246524225852045
 20
3.995178735594762
 30
0.0
 10
7.241990006565925
 20
3.989308871763027
 30
0.0
 10
7.239354646108249
 20
3.986509152651772
 30
0.0
 10
7.230720301785444
 20
3.978931716892526
 30
0.0
 10
7.223757955344982
 20
3.974779066382802
 30
0.0
 10
7.208724842257573
 20
3.969188589609784
 30
0.0
 10
7.200493541532822
 20
3.967696142860153
 30
0.0
 10
7.18824829567262
 20
3.96768785919974
 30
0.0
 10
7.18410134559532
 20
3.968054723153411
 30
0.0
 10
7.176081775999166
 20
3.96949153751941
 30
0.0
 10
7.172183269377512
 20
3.970553925023206
 30
0.0
 10
7.160822872938326
 20
3.97476402442092
 30
0.0
 10
7.153943872889053
 20
3.978851758652552
 30
0.0
 10
7.145202116818848
 20
3.986514689709145
 30
0.0
 10
7.142619601302109
 20
3.989261145887223
 30
0.0
 10
7.138091830681865
 20
3.995106377689092
 30
0.0
 10
7.136130772810972
 20
3.998242628431933
 30
0.0
 10
7.131421898885368
 20
4.007880072520048
 30
0.0
 10
7.129783193913232
 20
4.014671659119255
 30
0.0
 10
7.129783193913232
 20
4.021423993761995
 30
0.0
  0
LWPOLYLINE
  5
2F2
330
1F
100
AcDbEntity
  8
0
  6
Continuous
 62
   144
370
    18
100
AcDbPolyline
 90
       23
 70
   128
 43
0.0
 10
7.2296980153
 20
4.252402509
 10
7.2176421628
 20
4.2518808934
 10
7.1838256315
 20
4.2514877007
 10
7.1500639508
 20
4.2526666408
 10
7.116576078
 20
4.2554100678
 10
7.083579195
 20
4.2597001895
 10
7.0512872991
 20
4.2655091827
 10
7.0199098156
 20
4.272799374
 10
6.9896502397
 20
4.2815234836
 10
6.9607048162
 20
4.2916249324
 10
6.9332612674
 20
4.3030382086
 10
6.9074975752
 20
4.3156892926
 10
6.883580827
 20
4.3294961375
 10
6.8616661321
 20
4.3443692004
 10
6.8418956157
 20
4.360212024
 10
6.8243974972
 20
4.3769218612
 10
6.8092852586
 20
4.3943903426
 10
6.7966569086
 20
4.4125041782
 10
6.7865943469
 20
4.4311458929
 10
6.779162833
 20
4.4501945881
 10
6.7744105632
 20
4.4695267255
 10
6.7723683577
 20
4.4890169289
 10
6.7722831939
 20
4.4938993758
  0
ARC
  5
2F3
330
1F
100
AcDbEntity
  8
0
  6
Continuous
 62
     7
370
    25
100
AcDbCircle
 10
7.4023895967
 20
3.2285941906
 30
0.0
 40
0.210916436735793
100
AcDbArc
 50
294.3248316361
 51
354.3550274063
  0
LWPOLYLINE
  5
2F4
330
1F
100
AcDbEntity
  8
0
  6
Continuous
 62
     7
370
    25
100
AcDbPolyline
 90
       31
 70
   128
 43
0.0
 10
6.7722831939
 20
3.2078475971
 10
6.7723683577
 20
3.2029651502
 10
6.7744105632
 20
3.1834749468
 10
6.779162833
 20
3.1641428093
 10
6.7865943469
 20
3.1450941142
 10
6.7966569086
 20
3.1264523995
 10
6.8092852586
 20
3.1083385639
 10
6.8243974972
 20
3.0908700825
 10
6.8418956157
 20
3.0741602452
 10
6.8616661321
 20
3.0583174217
 10
6.883580827
 20
3.0434443588
 10
6.9074975752
 20
3.0296375139
 10
6.9332612674
 20
3.0169864298
 10
6.9607048162
 20
3.0055731537
 10
6.9896502397
 20
2.9954717049
 10
7.0199098156
 20
2.9867475952
 10
7.0512872991
 20
2.979457404
 10
7.083579195
 20
2.9736484107
 10
7.116576078
 20
2.9693582891
 10
7.1500639508
 20
2.9666148621
 10
7.1838256315
 20
2.965435922
 10
7.2176421628
 20
2.9658291146
 10
7.2512942315
 20
2.96779189
 10
7.2845635909
 20
2.9713115187
 10
7.3172344765
 20
2.9763651747
 10
7.3490950052
 20
2.982920083
 10
7.379938549
 20
2.9909337325
 10
7.4095650759
 20
3.0003541517
 10
7.4377824463
 20
3.0111202455
 10
7.46440766
 20
3.0231621917
 10
7.489268042
 20
3.0364018936
  0
SPLINE
  5
2F5
330
1F
100
AcDbEntity
  8
0
  6
Continuous
 62
   144
370
    18
100
AcDbSpline
210
0.0
220
0.0
230
1.0
 70
     8
 71
     3
 72
    10
 73
     6
 74
     0
 42
0.000000001
 43
0.00000001
 40
0.0
 40
0.0
 40
0.0
 40
0.0
 40
0.4386595808401313
 40
0.8773981484222385
 40
1.0
 40
1.0
 40
1.0
 40
1.0
 10
7.229783193913234
 20
3.99480930156045
 30
0.0
 10
7.234927305944042
 20
3.999036693117582
 30
0.0
 10
7.245216456274377
 20
4.007492237432331
 30
0.0
 10
7.252469678315577
 20
4.020457657917586
 30
0.0
 10
7.253364330131695
 20
4.027851237262988
 30
0.0
 10
7.253559730223029
 20
4.029466062218742
 30
0.0
  0
SPLINE
  5
2F6
330
1F
100
AcDbEntity
  8
0
  6
Continuous
 62
   144
370
    18
100
AcDbSpline
210
0.0
220
0.0
230
1.0
 70
     8
 71
     3
 72
    10
 73
     6
 74
     0
 42
0.000000001
 43
0.00000001
 40
0.0
 40
0.0
 40
0.0
 40
0.0
 40
0.2269439019880636
 40
0.6623604876164733
 40
1.0
 40
1.0
 40
1.0
 40
1.0
 10
7.131445682710179
 20
4.029308175130877
 30
0.0
 10
7.131879391872749
 20
4.026321673234465
 30
0.0
 10
7.133145219285984
 20
4.017605242279298
 30
0.0
 10
7.141582927806722
 20
4.005185145250286
 30
0.0
 10
7.150770455076576
 20
3.997963446378541
 30
0.0
 10
7.154783193913229
 20
3.994809301560451
 30
0.0
  0
SPLINE
  5
2F7
330
1F
100
AcDbEntity
  8
0
  6
Continuous
 62
   144
370
    18
100
AcDbSpline
210
0.0
220
0.0
230
1.0
 70
     8
 71
     3
 72
    16
 73
    12
 74
     0
 42
0.000000001
 43
0.00000001
 40
0.0
 40
0.0
 40
0.0
 40
0.0
 40
0.2499999999999976
 40
0.2499999999999976
 40
0.3749999999999974
 40
0.3749999999999974
 40
0.4999999999999972
 40
0.4999999999999972
 40
0.7499999999999986
 40
0.7499999999999986
 40
1.0
 40
1.0
 40
1.0
 40
1.0
 10
7.15478319391323
 20
3.994809301560451
 30
0.0
 10
7.159777902916057
 20
3.993646241378704
 30
0.0
 10
7.165511447615597
 20
3.992634373545257
 30
0.0
 10
7.175101063954267
 20
3.991551082956807
 30
0.0
 10
7.178396398693956
 20
3.991269870301706
 30
0.0
 10
7.185194101828381
 20
3.990885184174358
 30
0.0
 10
7.18874194757122
 20
3.99078299019612
 30
0.0
 10
7.199225800771998
 20
3.990780376216804
 30
0.0
 10
7.206233366732875
 20
3.991188260164777
 30
0.0
 10
7.218971256111749
 20
3.992622666246729
 30
0.0
 10
7.224783352443057
 20
3.993645046240326
 30
0.0
 10
7.229783193913234
 20
3.99480930156045
 30
0.0
  0
SPLINE
  5
2F8
330
1F
100
AcDbEntity
  8
0
  6
Continuous
 62
   144
370
    18
100
AcDbSpline
210
0.0
220
0.0
230
1.0
 70
     8
 71
     3
 72
     9
 73
     5
 74
     0
 42
0.000000001
 43
0.00000001
 40
0.0
 40
0.0
 40
0.0
 40
0.0
 40
0.6980376153764148
 40
0.9999999999999999
 40
0.9999999999999999
 40
0.9999999999999999
 40
0.9999999999999999
 10
6.914743782297506
 20
4.165063606179829
 30
0.0
 10
6.919345459924393
 20
4.162755163203533
 30
0.0
 10
6.92593776602011
 20
4.159448116526614
 30
0.0
 10
6.931819399521943
 20
4.160420253163183
 30
0.0
 10
6.93359543159964
 20
4.160713801860141
 30
0.0
  0
SPLINE
  5
2F9
330
1F
100
AcDbEntity
  8
0
  6
Continuous
 62
   144
370
    18
100
AcDbSpline
210
0.0
220
0.0
230
1.0
 70
     8
 71
     3
 72
    14
 73
    10
 74
     0
 42
0.000000001
 43
0.00000001
 40
0.0
 40
0.0
 40
0.0
 40
0.0
 40
0.087604540311995
 40
0.2583468408705371
 40
0.4278001003187196
 40
0.59788283224952
 40
0.7695249244118373
 40
0.9412395072748839
 40
1.0
 40
1.0
 40
1.0
 40
1.0
 10
6.880838855780451
 20
4.251165921280334
 30
0.0
 10
6.879980525146182
 20
4.249413461942679
 30
0.0
 10
6.877449297803448
 20
4.244245438321705
 30
0.0
 10
6.877367292957931
 20
4.23094155353985
 30
0.0
 10
6.880403500644038
 20
4.213592375671253
 30
0.0
 10
6.887281833936465
 20
4.195640447742631
 30
0.0
 10
6.897372552192837
 20
4.179559589839704
 30
0.0
 10
6.907223986333911
 20
4.169758634688906
 30
0.0
 10
6.913216076287523
 20
4.166017438345633
 30
0.0
 10
6.914743782297506
 20
4.165063606179829
 30
0.0
  0
SPLINE
  5
2FA
330
1F
100
AcDbEntity
  8
0
  6
Continuous
 62
     7
370
    25
100
AcDbSpline
210
0.0
220
0.0
230
1.0
 70
     8
 71
     3
 72
     9
 73
     5
 74
     0
 42
0.000000001
 43
0.00000001
 40
0.0
 40
0.0
 40
0.0
 40
0.0
 40
0.7235590519646814
 40
1.0
 40
1.0
 40
1.0
 40
1.0
 10
7.312936556350873
 20
4.822810468210228
 30
0.0
 10
7.314154199038654
 20
4.822901447334589
 30
0.0
 10
7.315837050886718
 20
4.823027185688788
 30
0.0
 10
7.316887652621358
 20
4.82177294357699
 30
0.0
 10
7.317178081960891
 20
4.821426219698538
 30
0.0
  0
SPLINE
  5
2FB
330
1F
100
AcDbEntity
  8
0
  6
Continuous
 62
     7
370
    25
100
AcDbSpline
210
0.0
220
0.0
230
1.0
 70
     8
 71
     3
 72
    10
 73
     6
 74
     0
 42
0.000000001
 43
0.00000001
 40
0.0
 40
0.0
 40
0.0
 40
0.0
 40
0.0413383587281562
 40
0.5658982816677487
 40
1.0
 40
1.0
 40
1.0
 40
1.0
 10
7.3215618010683
 20
4.81836401254785
 30
0.0
 10
7.321513814298277
 20
4.818474248547379
 30
0.0
 10
7.320856903101657
 20
4.819983315782524
 30
0.0
 10
7.318372674426795
 20
4.821430567404216
 30
0.0
 10
7.315631033104821
 20
4.821803020364076
 30
0.0
 10
7.314389561497237
 20
4.821971674728569
 30
0.0
  0
LWPOLYLINE
  5
2FC
330
1F
100
AcDbEntity
  8
0
  6
Continuous
 62
     7
370
    25
100
AcDbPolyline
 90
       16
 70
   128
 43
0.0
 10
7.3143897951
 20
4.821971499
 10
7.3157661282
 20
4.8203424502
 10
7.3159304449
 20
4.8185324514
 10
7.3148566205
 20
4.8168292746
 10
7.3127153826
 20
4.8155037086
 10
7.3098471673
 20
4.8147665054
 10
7.306707993
 20
4.8147348733
 10
7.3037969579
 20
4.8154138413
 10
7.3015768883
 20
4.8166954602
 10
7.3004007538
 20
4.818375965
 10
7.3004555483
 20
4.8201881717
 10
7.30173256
 20
4.8218439572
 10
7.3040287565
 20
4.8230800675
 10
7.3069790648
 20
4.8236999731
 10
7.3101144145
 20
4.8236051151
 10
7.3129363155
 20
4.8228105749
  0
LINE
  5
2FD
330
1F
100
AcDbEntity
  8
0
  6
Continuous
 62
     7
370
    25
100
AcDbLine
 10
7.3129363155
 20
4.8228105749
 30
0.0
 11
7.3109995894
 21
4.815472219
 31
0.0
  0
LINE
  5
2FE
330
1F
100
AcDbEntity
  8
0
  6
Continuous
 62
     7
370
    25
100
AcDbLine
 10
7.3119580441
 20
4.8152279554
 30
0.0
 11
7.3143897951
 21
4.821971499
 31
0.0
  0
ARC
  5
2FF
330
1F
100
AcDbEntity
  8
0
  6
Continuous
 62
   144
370
    18
100
AcDbCircle
 10
7.3081698939
 20
4.8088625882
 30
0.0
 40
0.0071898814802267
100
AcDbArc
 50
66.823408188
 51
119.3275717171
  0
LINE
  5
300
330
1F
100
AcDbEntity
  8
0
  6
Continuous
 62
   144
370
    18
100
AcDbLine
 10
7.3109998303
 20
4.8154721123
 30
0.0
 11
7.3120396189
 21
4.8153314043
 31
0.0
  0
LWPOLYLINE
  5
301
330
1F
100
AcDbEntity
  8
0
  6
Continuous
 62
     7
370
    25
100
AcDbPolyline
 90
       16
 70
   128
 43
0.0
 10
7.238111347
 20
4.8660061097
 10
7.2394876801
 20
4.864377061
 10
7.2396519968
 20
4.8625670621
 10
7.2385781724
 20
4.8608638854
 10
7.2364369346
 20
4.8595383194
 10
7.2335687193
 20
4.8588011162
 10
7.230429545
 20
4.858769484
 10
7.2275185098
 20
4.859448452
 10
7.2252984403
 20
4.8607300709
 10
7.2241223057
 20
4.8624105757
 10
7.2241771002
 20
4.8642227825
 10
7.2254541119
 20
4.8658785679
 10
7.2277503084
 20
4.8671146782
 10
7.2307006167
 20
4.8677345839
 10
7.2338359664
 20
4.8676397258
 10
7.2366578674
 20
4.8668451857
  0
SPLINE
  5
302
330
1F
100
AcDbEntity
  8
0
  6
Continuous
 62
   144
370
    18
100
AcDbSpline
210
0.0
220
0.0
230
1.0
 70
     8
 71
     3
 72
    10
 73
     6
 74
     0
 42
0.000000001
 43
0.00000001
 40
0.0
 40
0.0
 40
0.0
 40
0.0
 40
0.0413383587302603
 40
0.5658982816685494
 40
1.0
 40
1.0
 40
1.0
 40
1.0
 10
7.245283353019061
 20
4.862398623303616
 30
0.0
 10
7.245235366249036
 20
4.862508859303151
 30
0.0
 10
7.244578455052414
 20
4.864017926538303
 30
0.0
 10
7.242094226377547
 20
4.86546517816
 30
0.0
 10
7.239352585055572
 20
4.865837631119859
 30
0.0
 10
7.238111113447987
 20
4.866006285484354
 30
0.0
  0
LINE
  5
303
330
1F
100
AcDbEntity
  8
0
  6
Continuous
 62
   144
370
    18
100
AcDbLine
 10
7.2366581083
 20
4.866845079
 30
0.0
 11
7.2397345362
 21
4.8664287656
 31
0.0
  0
ARC
  5
304
330
1F
100
AcDbEntity
  8
0
  6
Continuous
 62
   144
370
    18
100
AcDbCircle
 10
7.2318914458
 20
4.852897199
 30
0.0
 40
0.0071898814812412
100
AcDbArc
 50
66.8234081914
 51
119.3275716783
  0
LINE
  5
305
330
1F
100
AcDbEntity
  8
0
  6
Continuous
 62
   144
370
    18
100
AcDbLine
 10
7.2357123321
 20
4.8593533472
 30
0.0
 11
7.238111347
 21
4.8660061097
 31
0.0
  0
LINE
  5
306
330
1F
100
AcDbEntity
  8
0
  6
Continuous
 62
   144
370
    18
100
AcDbLine
 10
7.2366578674
 20
4.8668451857
 30
0.0
 11
7.2347211413
 21
4.8595068297
 31
0.0
  0
SPLINE
  5
307
330
1F
100
AcDbEntity
  8
0
  6
Continuous
 62
     7
370
    25
100
AcDbSpline
210
0.0
220
0.0
230
1.0
 70
     8
 71
     3
 72
     9
 73
     5
 74
     0
 42
0.000000001
 43
0.00000001
 40
0.0
 40
0.0
 40
0.0
 40
0.0
 40
0.7235590519632341
 40
1.0
 40
1.0
 40
1.0
 40
1.0
 10
7.160379660252358
 20
4.910879689721813
 30
0.0
 10
7.161597302940139
 20
4.910970668846172
 30
0.0
 10
7.163280154788206
 20
4.911096407200371
 30
0.0
 10
7.164330756522848
 20
4.909842165088569
 30
0.0
 10
7.164621185862383
 20
4.909495441210116
 30
0.0
  0
SPLINE
  5
308
330
1F
100
AcDbEntity
  8
0
  6
Continuous
 62
     7
370
    25
100
AcDbSpline
210
0.0
220
0.0
230
1.0
 70
     8
 71
     3
 72
    10
 73
     6
 74
     0
 42
0.000000001
 43
0.00000001
 40
0.0
 40
0.0
 40
0.0
 40
0.0
 40
0.0413383587276244
 40
0.5658982816604653
 40
1.0
 40
1.0
 40
1.0
 40
1.0
 10
7.169004904969785
 20
4.906433234059433
 30
0.0
 10
7.168956918199762
 20
4.906543470058962
 30
0.0
 10
7.168300007003142
 20
4.908052537294106
 30
0.0
 10
7.165815778328249
 20
4.909499788915821
 30
0.0
 10
7.16307413700623
 20
4.909872241875664
 30
0.0
 10
7.161832665398603
 20
4.910040896240154
 30
0.0
  0
LWPOLYLINE
  5
309
330
1F
100
AcDbEntity
  8
0
  6
Continuous
 62
     7
370
    25
100
AcDbPolyline
 90
       16
 70
   128
 43
0.0
 10
7.161832899
 20
4.9100407205
 10
7.1632092321
 20
4.9084116717
 10
7.1633735488
 20
4.9066016729
 10
7.1622997244
 20
4.9048984961
 10
7.1601584865
 20
4.9035729301
 10
7.1572902712
 20
4.902835727
 10
7.1541510969
 20
4.9028040948
 10
7.1512400618
 20
4.9034830628
 10
7.1490199922
 20
4.9047646817
 10
7.1478438577
 20
4.9064451865
 10
7.1478986522
 20
4.9082573932
 10
7.1491756639
 20
4.9099131787
 10
7.1514718604
 20
4.911149289
 10
7.1544221687
 20
4.9117691946
 10
7.1575575184
 20
4.9116743366
 10
7.1603794194
 20
4.9108797964
  0
LINE
  5
30A
330
1F
100
AcDbEntity
  8
0
  6
Continuous
 62
     7
370
    25
100
AcDbLine
 10
7.1603794194
 20
4.9108797964
 30
0.0
 11
7.1584426933
 21
4.9035414405
 31
0.0
  0
LINE
  5
30B
330
1F
100
AcDbEntity
  8
0
  6
Continuous
 62
     7
370
    25
100
AcDbLine
 10
7.159401148
 20
4.9032971769
 30
0.0
 11
7.161832899
 21
4.9100407205
 31
0.0
  0
ARC
  5
30C
330
1F
100
AcDbEntity
  8
0
  6
Continuous
 62
   144
370
    18
100
AcDbCircle
 10
7.1556129978
 20
4.8969318097
 30
0.0
 40
0.00718988148009
100
AcDbArc
 50
66.8234081877
 51
119.3275717204
  0
LINE
  5
30D
330
1F
100
AcDbEntity
  8
0
  6
Continuous
 62
   144
370
    18
100
AcDbLine
 10
7.1584429342
 20
4.9035413338
 30
0.0
 11
7.1594827228
 21
4.9034006258
 31
0.0
  0
SPLINE
  5
30E
330
1F
100
AcDbEntity
  8
0
  6
Continuous
 62
     7
370
    25
100
AcDbSpline
210
0.0
220
0.0
230
1.0
 70
     8
 71
     3
 72
    10
 73
     6
 74
     0
 42
0.000000001
 43
0.00000001
 40
0.0
 40
0.0
 40
0.0
 40
0.0
 40
0.5
 40
0.5
 40
1.0
 40
1.0
 40
1.0
 40
1.0
 10
7.186147723408248
 20
4.791973783339738
 30
0.0
 10
7.184040914654266
 20
4.789140560197296
 30
0.0
 10
7.182250445053751
 20
4.785739749008137
 30
0.0
 10
7.17976228155891
 20
4.77875453424472
 30
0.0
 10
7.179077813351975
 20
4.775146217451607
 30
0.0
 10
7.179077583153109
 20
4.77209833260379
 30
0.0
  0
LINE
  5
30F
330
1F
100
AcDbEntity
  8
0
  6
Continuous
 62
     7
370
    25
100
AcDbLine
 10
7.2103338091
 20
4.7821375394
 30
0.0
 11
7.2104295379
 21
4.7810364465
 31
0.0
  0
LINE
  5
310
330
1F
100
AcDbEntity
  8
0
  6
Continuous
 62
     7
370
    25
100
AcDbLine
 10
7.1714531729
 20
4.7810210396
 30
0.0
 11
7.1714756594
 21
4.7815640345
 31
0.0
  0
LWPOLYLINE
  5
311
330
1F
100
AcDbEntity
  8
0
  6
Continuous
 62
     7
370
    25
100
AcDbPolyline
 90
        3
 70
   128
 43
0.0
 10
7.1892854447
 20
4.7922333412
 10
7.1896666771
 20
4.7922499367
 10
7.192597278
 20
4.7922333412
  0
SPLINE
  5
312
330
1F
100
AcDbEntity
  8
0
  6
Continuous
 62
     7
370
    25
100
AcDbSpline
210
0.0
220
0.0
230
1.0
 70
     8
 71
     3
 72
    10
 73
     6
 74
     0
 42
0.000000001
 43
0.00000001
 40
0.0
 40
0.0
 40
0.0
 40
0.0
 40
0.5
 40
0.5
 40
1.0
 40
1.0
 40
1.0
 40
1.0
 10
7.175480575137932
 20
4.774174816420754
 30
0.0
 10
7.175480575137932
 20
4.777261502503718
 30
0.0
 10
7.176362490708018
 20
4.780687592808296
 30
0.0
 10
7.17961971842503
 20
4.78727106494571
 30
0.0
 10
7.181951379540208
 20
4.790350218449848
 30
0.0
 10
7.184694718261874
 20
4.792812576819421
 30
0.0
  0
LWPOLYLINE
  5
313
330
1F
100
AcDbEntity
  8
0
  6
Continuous
 62
     7
370
    25
100
AcDbPolyline
 90
       16
 70
   128
 43
0.0
 10
7.1846944847
 20
4.7928127526
 10
7.1833181516
 20
4.7944418013
 10
7.1831538349
 20
4.7962518002
 10
7.1842276593
 20
4.7979549769
 10
7.1863688971
 20
4.7992805429
 10
7.1892371124
 20
4.8000177461
 10
7.1923762868
 20
4.8000493783
 10
7.1952873219
 20
4.7993704103
 10
7.1975073915
 20
4.7980887914
 10
7.198683526
 20
4.7964082866
 10
7.1986287315
 20
4.7945960798
 10
7.1973517198
 20
4.7929402944
 10
7.1950555233
 20
4.7917041841
 10
7.192105215
 20
4.7910842785
 10
7.1889698653
 20
4.7911791365
 10
7.1861479643
 20
4.7919736766
  0
LINE
  5
314
330
1F
100
AcDbEntity
  8
0
  6
Continuous
 62
     7
370
    25
100
AcDbLine
 10
7.1790774627
 20
4.772098386
 30
0.0
 11
7.1790774627
 21
4.7450605514
 31
0.0
  0
LINE
  5
315
330
1F
100
AcDbEntity
  8
0
  6
Continuous
 62
     7
370
    25
100
AcDbLine
 10
7.1754805751
 20
4.7471369904
 30
0.0
 11
7.1754805751
 21
4.7741748164
 31
0.0
  0
ARC
  5
316
330
1F
100
AcDbEntity
  8
0
  6
Continuous
 62
   144
370
    18
100
AcDbCircle
 10
7.1909413614
 20
4.7855196291
 30
0.0
 40
0.0069322351758266
100
AcDbArc
 50
59.7273833333
 51
120.2726166667
  0
SPLINE
  5
317
330
1F
100
AcDbEntity
  8
0
  6
Continuous
 62
     7
370
    25
100
AcDbSpline
210
0.0
220
0.0
230
1.0
 70
     8
 71
     3
 72
    10
 73
     6
 74
     0
 42
0.000000001
 43
0.00000001
 40
0.0
 40
0.0
 40
0.0
 40
0.0
 40
0.5
 40
0.5
 40
1.0
 40
1.0
 40
1.0
 40
1.0
 10
7.10986927535899
 20
4.83600839409553
 30
0.0
 10
7.107762466605009
 20
4.833175170953087
 30
0.0
 10
7.105971997004493
 20
4.829774359763928
 30
0.0
 10
7.103483833509651
 20
4.82278914500051
 30
0.0
 10
7.10279936530272
 20
4.819180828207401
 30
0.0
 10
7.102799135103852
 20
4.816132943359582
 30
0.0
  0
LINE
  5
318
330
1F
100
AcDbEntity
  8
0
  6
Continuous
 62
     7
370
    25
100
AcDbLine
 10
7.134055361
 20
4.8261721502
 30
0.0
 11
7.1341510898
 21
4.8250710572
 31
0.0
  0
SPLINE
  5
319
330
1F
100
AcDbEntity
  8
0
  6
Continuous
 62
     7
370
    25
100
AcDbSpline
210
0.0
220
0.0
230
1.0
 70
     8
 71
     3
 72
    10
 73
     6
 74
     0
 42
0.000000001
 43
0.00000001
 40
0.0
 40
0.0
 40
0.0
 40
0.0
 40
0.5
 40
0.5
 40
1.0
 40
1.0
 40
1.0
 40
1.0
 10
7.099202127088676
 20
4.818209427176546
 30
0.0
 10
7.099202127088676
 20
4.82129611325951
 30
0.0
 10
7.10008404265876
 20
4.824722203564089
 30
0.0
 10
7.103341270375773
 20
4.831305675701501
 30
0.0
 10
7.10567293149095
 20
4.834384829205638
 30
0.0
 10
7.108416270212616
 20
4.836847187575212
 30
0.0
  0
LWPOLYLINE
  5
31A
330
1F
100
AcDbEntity
  8
0
  6
Continuous
 62
     7
370
    25
100
AcDbPolyline
 90
       16
 70
   128
 43
0.0
 10
7.1084160366
 20
4.8368473633
 10
7.1070397035
 20
4.8384764121
 10
7.1068753868
 20
4.840286411
 10
7.1079492112
 20
4.8419895877
 10
7.1100904491
 20
4.8433151537
 10
7.1129586644
 20
4.8440523569
 10
7.1160978387
 20
4.8440839891
 10
7.1190088738
 20
4.843405021
 10
7.1212289434
 20
4.8421234022
 10
7.1224050779
 20
4.8404428974
 10
7.1223502834
 20
4.8386306906
 10
7.1210732717
 20
4.8369749051
 10
7.1187770752
 20
4.8357387948
 10
7.1158267669
 20
4.8351188892
 10
7.1126914172
 20
4.8352137472
 10
7.1098695162
 20
4.8360082874
  0
LINE
  5
31B
330
1F
100
AcDbEntity
  8
0
  6
Continuous
 62
     7
370
    25
100
AcDbLine
 10
7.1027990147
 20
4.8161329967
 30
0.0
 11
7.1027990147
 21
4.7890951622
 31
0.0
  0
LINE
  5
31C
330
1F
100
AcDbEntity
  8
0
  6
Continuous
 62
     7
370
    25
100
AcDbLine
 10
7.0992021271
 20
4.7911716012
 30
0.0
 11
7.0992021271
 21
4.8182094272
 31
0.0
  0
ARC
  5
31D
330
1F
100
AcDbEntity
  8
0
  6
Continuous
 62
   144
370
    18
100
AcDbCircle
 10
7.1146629133
 20
4.8295542399
 30
0.0
 40
0.0069322351758015
100
AcDbArc
 50
59.7273833326
 51
120.2726166674
  0
ARC
  5
31E
330
1F
100
AcDbEntity
  8
0
  6
Continuous
 62
     7
370
    25
100
AcDbCircle
 10
7.3959051042
 20
4.6273417708
 30
0.0
 40
0.2208701393208211
100
AcDbArc
 50
13.7372619455
 51
61.6027146477
  0
LINE
  5
31F
330
1F
100
AcDbEntity
  8
0
  6
Continuous
 62
     7
370
    25
100
AcDbLine
 10
7.7660291267
 20
4.5341751298
 30
0.0
 11
7.7756462884
 21
4.5286232605
 31
0.0
  0
ARC
  5
320
330
1F
100
AcDbEntity
  8
0
  6
Continuous
 62
     7
370
    25
100
AcDbCircle
 10
7.7694492073
 20
4.5122950983
 30
0.0
 40
0.0174646126733714
100
AcDbArc
 50
290.7834207995
 51
69.2165792005
  0
LINE
  5
321
330
1F
100
AcDbEntity
  8
0
  6
Continuous
 62
     7
370
    25
100
AcDbLine
 10
7.7756462884
 20
4.4959669361
 30
0.0
 11
7.4715903725
 21
4.320439192
 31
0.0
  0
ARC
  5
322
330
1F
100
AcDbEntity
  8
0
  6
Continuous
 62
     7
370
    25
100
AcDbCircle
 10
7.4433061012
 20
4.3750276354
 30
0.0
 40
0.0614808763164728
100
AcDbArc
 50
242.6096722366
 51
297.3903277634
  0
LINE
  5
323
330
1F
100
AcDbEntity
  8
0
  6
Continuous
 62
     7
370
    25
100
AcDbLine
 10
7.41502183
 20
4.320439192
 30
0.0
 11
7.2615456028
 21
4.4090391321
 31
0.0
  0
ARC
  5
324
330
1F
100
AcDbEntity
  8
0
  6
Continuous
 62
     7
370
    25
100
AcDbCircle
 10
7.2339472242
 20
4.3566445305
 30
0.0
 40
0.0592187873456539
100
AcDbArc
 50
62.2223899757
 51
94.114760706
  0
LWPOLYLINE
  5
325
330
1F
100
AcDbEntity
  8
0
  6
Continuous
 62
     7
370
    25
100
AcDbPolyline
 90
       22
 70
   128
 43
0.0
 10
7.2296980153
 20
4.4157106714
 10
7.1947636916
 20
4.4147509277
 10
7.1598121679
 20
4.4154723963
 10
7.1250858008
 20
4.4178700747
 10
7.0908253855
 20
4.421927337
 10
7.0572684862
 20
4.42761605
 10
7.0246477892
 20
4.4348967677
 10
6.9931894886
 20
4.4437190051
 10
6.9631117188
 20
4.454021588
 10
6.9346230413
 20
4.4657330776
 10
6.9079209987
 20
4.4787722655
 10
6.883190745
 20
4.4930487371
 10
6.8606037617
 20
4.5084634982
 10
6.8403166685
 20
4.5249096616
 10
6.8224701377
 20
4.5422731885
 10
6.8071879186
 20
4.5604336789
 10
6.7945759791
 20
4.5792652065
 10
6.7847217714
 20
4.5986371921
 10
6.7776936254
 20
4.6184153088
 10
6.7735402746
 20
4.6384624139
 10
6.7722905188
 20
4.658639499
 10
6.7739530239
 20
4.6788066548
  0
ARC
  5
326
330
1F
100
AcDbEntity
  8
0
  6
Continuous
 62
     7
370
    25
100
AcDbCircle
 10
6.7549327675
 20
4.679675584
 30
0.0
 40
0.0190400942686819
100
AcDbArc
 50
357.3842947281
 51
66.9215139606
  0
LINE
  5
327
330
1F
100
AcDbEntity
  8
0
  6
Continuous
 62
     7
370
    25
100
AcDbLine
 10
6.7623963266
 20
4.6971918757
 30
0.0
 11
6.6089200994
 21
4.7857918158
 31
0.0
  0
ARC
  5
328
330
1F
100
AcDbEntity
  8
0
  6
Continuous
 62
     7
370
    25
100
AcDbCircle
 10
6.6151171805
 20
4.802119978
 30
0.0
 40
0.0174646126733704
100
AcDbArc
 50
110.7834207995
 51
249.2165792005
  0
LINE
  5
329
330
1F
100
AcDbEntity
  8
0
  6
Continuous
 62
     7
370
    25
100
AcDbLine
 10
6.6089200994
 20
4.8184481402
 30
0.0
 11
6.618637481
 21
4.8240578652
 31
0.0
  0
LINE
  5
32A
330
1F
100
AcDbEntity
  8
0
  6
Continuous
 62
     7
370
    25
100
AcDbLine
 10
7.41502183
 20
4.1571310297
 30
0.0
 11
7.41502183
 21
4.320439192
 31
0.0
  0
LINE
  5
32B
330
1F
100
AcDbEntity
  8
0
  6
Continuous
 62
     7
370
    25
100
AcDbLine
 10
7.4715903725
 20
4.320439192
 30
0.0
 11
7.4715903725
 21
4.1571310297
 31
0.0
  0
ARC
  5
32C
330
1F
100
AcDbEntity
  8
0
  6
Continuous
 62
     7
370
    25
100
AcDbCircle
 10
7.4433061012
 20
4.2117194731
 30
0.0
 40
0.0614808763164681
100
AcDbArc
 50
242.6096722366
 51
297.3903277634
  0
ARC
  5
32D
330
1F
100
AcDbEntity
  8
0
  6
Continuous
 62
     7
370
    25
100
AcDbCircle
 10
6.6172226532
 20
4.6408080707
 30
0.0
 40
0.0201175711397498
100
AcDbArc
 50
185.6947992512
 51
245.6253417064
  0
LINE
  5
32E
330
1F
100
AcDbEntity
  8
0
  6
Continuous
 62
     7
370
    25
100
AcDbLine
 10
6.7623963266
 20
4.5338837134
 30
0.0
 11
6.6089200994
 21
4.6224836534
 31
0.0
  0
ARC
  5
32F
330
1F
100
AcDbEntity
  8
0
  6
Continuous
 62
     7
370
    25
100
AcDbCircle
 10
6.7505658016
 20
4.5115761711
 30
0.0
 40
0.0252505002478675
100
AcDbArc
 50
30.6746913278
 51
62.0613182144
  0
LWPOLYLINE
  5
330
330
1F
100
AcDbEntity
  8
0
  6
Continuous
 62
     7
370
    25
100
AcDbPolyline
 90
       21
 70
   128
 43
0.0
 10
7.2296980153
 20
4.252402509
 10
7.1947636916
 20
4.2514427653
 10
7.1598121679
 20
4.2521642339
 10
7.1250858008
 20
4.2545619123
 10
7.0908253855
 20
4.2586191747
 10
7.0572684862
 20
4.2643078877
 10
7.0246477892
 20
4.2715886054
 10
6.9931894886
 20
4.2804108427
 10
6.9631117188
 20
4.2907134256
 10
6.9346230413
 20
4.3024249152
 10
6.9079209987
 20
4.3154641031
 10
6.883190745
 20
4.3297405747
 10
6.8606037617
 20
4.3451553358
 10
6.8403166685
 20
4.3616014993
 10
6.8224701377
 20
4.3789650262
 10
6.8071879186
 20
4.3971255165
 10
6.7945759791
 20
4.4159570441
 10
6.7847217714
 20
4.4353290297
 10
6.7776936254
 20
4.4551071465
 10
6.7735402746
 20
4.4751542515
 10
6.7722831939
 20
4.4938993758
  0
ARC
  5
331
330
1F
100
AcDbEntity
  8
0
  6
Continuous
 62
     7
370
    25
100
AcDbCircle
 10
7.2339472242
 20
4.1933363682
 30
0.0
 40
0.0592187873456643
100
AcDbArc
 50
62.2223899757
 51
94.114760706
  0
LINE
  5
332
330
1F
100
AcDbEntity
  8
0
  6
Continuous
 62
     7
370
    25
100
AcDbLine
 10
7.41502183
 20
4.1571310297
 30
0.0
 11
7.2615456028
 21
4.2457309697
 31
0.0
  0
LINE
  5
333
330
1F
100
AcDbEntity
  8
0
  6
Continuous
 62
     7
370
    25
100
AcDbLine
 10
7.4715903725
 20
4.1571310297
 30
0.0
 11
7.7756462884
 21
4.3326587737
 31
0.0
  0
ARC
  5
334
330
1F
100
AcDbEntity
  8
0
  6
Continuous
 62
     7
370
    25
100
AcDbCircle
 10
7.7673437346
 20
4.350983191
 30
0.0
 40
0.0201175711397507
100
AcDbArc
 50
294.3746582936
 51
354.3052007488
  0
LINE
  5
335
330
1F
100
AcDbEntity
  8
0
  6
Continuous
 62
     7
370
    25
100
AcDbLine
 10
7.7756462884
 20
4.3326587737
 30
0.0
 11
7.7756462884
 21
4.4959669361
 31
0.0
  0
LINE
  5
336
330
1F
100
AcDbEntity
  8
0
  6
Continuous
 62
     7
370
    25
100
AcDbLine
 10
7.2615456028
 20
4.4090391321
 30
0.0
 11
7.2615456028
 21
4.2457309697
 31
0.0
  0
LINE
  5
337
330
1F
100
AcDbEntity
  8
0
  6
Continuous
 62
     7
370
    25
100
AcDbLine
 10
7.2296980153
 20
4.252402509
 30
0.0
 11
7.2296980153
 21
4.4157106714
 31
0.0
  0
SPLINE
  5
338
330
1F
100
AcDbEntity
  8
0
  6
Continuous
 62
     7
370
    25
100
AcDbSpline
210
0.0
220
0.0
230
1.0
 70
     8
 71
     3
 72
    16
 73
    12
 74
     0
 42
0.000000001
 43
0.00000001
 40
0.0
 40
0.0
 40
0.0
 40
0.0
 40
0.0673480741123282
 40
0.1918802625317021
 40
0.3157064178675921
 40
0.4391978213285439
 40
0.5632360545590496
 40
0.6878633477713836
 40
0.8122010321257392
 40
0.9358138452835092
 40
1.0
 40
1.0
 40
1.0
 40
1.0
 10
6.937618362981656
 20
4.174336936498524
 30
0.0
 10
6.936006334623046
 20
4.173768573066749
 30
0.0
 10
6.931413531803731
 20
4.172149258395319
 30
0.0
 10
6.922122447187807
 20
4.17468265917388
 30
0.0
 10
6.911545832152678
 20
4.181437932608911
 30
0.0
 10
6.90207592167542
 20
4.192195498165208
 30
0.0
 10
6.894718986659555
 20
4.205406000940147
 30
0.0
 10
6.890018212624304
 20
4.21964968692916
 30
0.0
 10
6.888544140834944
 20
4.232910915848235
 30
0.0
 10
6.889514274808994
 20
4.2426860102876
 30
0.0
 10
6.892045236912926
 20
4.24616070941411
 30
0.0
 10
6.892910272152593
 20
4.247348296216381
 30
0.0
  0
SPLINE
  5
339
330
1F
100
AcDbEntity
  8
0
  6
Continuous
 62
     7
370
    25
100
AcDbSpline
210
0.0
220
0.0
230
1.0
 70
     8
 71
     3
 72
    26
 73
    22
 74
     0
 42
0.000000001
 43
0.00000001
 40
0.0
 40
0.0
 40
0.0
 40
0.0
 40
0.1249999999999992
 40
0.1249999999999992
 40
0.2499999999999983
 40
0.2499999999999983
 40
0.3749999999999975
 40
0.3749999999999975
 40
0.4999999999999967
 40
0.4999999999999967
 40
0.5624999999999967
 40
0.5624999999999967
 40
0.6249999999999967
 40
0.6249999999999967
 40
0.7499999999999979
 40
0.7499999999999979
 40
0.874999999999999
 40
0.874999999999999
 40
0.9374999999999996
 40
0.9374999999999996
 40
1.0
 40
1.0
 40
1.0
 40
1.0
 10
7.142283193913233
 20
4.027399258910425
 30
0.0
 10
7.142283193913233
 20
4.032800417063767
 30
0.0
 10
7.143588056387729
 20
4.03799835177224
 30
0.0
 10
7.148610855940262
 20
4.047536336406774
 30
0.0
 10
7.152326223354163
 20
4.05181787451697
 30
0.0
 10
7.161543650913855
 20
4.058853200147521
 30
0.0
 10
7.167117598662343
 20
4.061649892674061
 30
0.0
 10
7.179149386149563
 20
4.065379064831323
 30
0.0
 10
7.185734793104252
 20
4.066352040748622
 30
0.0
 10
7.195529763041772
 20
4.066354718195556
 30
0.0
 10
7.198846619076428
 20
4.066113021345854
 30
0.0
 10
7.205262171940128
 20
4.065162694680462
 30
0.0
 10
7.208380766695366
 20
4.064459115173186
 30
0.0
 10
7.217467804582405
 20
4.061646684547975
 30
0.0
 10
7.222970832594423
 20
4.058893625596466
 30
0.0
 10
7.232299836960833
 20
4.051771519233762
 30
0.0
 10
7.235966394671811
 20
4.04752134051198
 30
0.0
 10
7.239728864806777
 20
4.04036818232472
 30
0.0
 10
7.240675272180808
 20
4.0378919836857
 30
0.0
 10
7.241955905844424
 20
4.032748620268912
 30
0.0
 10
7.242283193913233
 20
4.030065245365376
 30
0.0
 10
7.242283193913233
 20
4.027399258910425
 30
0.0
  0
LWPOLYLINE
  5
33A
330
1F
100
AcDbEntity
  8
0
  6
Continuous
 62
   144
370
    18
100
AcDbPolyline
 90
        3
 70
   128
 43
0.0
 10
7.1346119498
 20
4.0178146306
 10
7.1346831482
 20
4.0178084403
 10
7.1422831939
 20
4.0171924988
  0
LINE
  5
33B
330
1F
100
AcDbEntity
  8
0
  6
Continuous
 62
   144
370
    18
100
AcDbLine
 10
7.1422831939
 20
4.0171924988
 30
0.0
 11
7.1422831939
 21
4.0273992589
 31
0.0
  0
LINE
  5
33C
330
1F
100
AcDbEntity
  8
0
  6
Continuous
 62
   144
370
    18
100
AcDbLine
 10
7.2422831939
 20
4.0273992589
 30
0.0
 11
7.2422831939
 21
4.0171924988
 31
0.0
  0
LINE
  5
33D
330
1F
100
AcDbEntity
  8
0
  6
Continuous
 62
   144
370
    18
100
AcDbLine
 10
7.2422831939
 20
4.0171924988
 30
0.0
 11
7.249495917
 21
4.0177749016
 31
0.0
  0
LINE
  5
33E
330
1F
100
AcDbEntity
  8
0
  6
Continuous
 62
     7
370
    25
100
AcDbLine
 10
6.7623963266
 20
4.5338837134
 30
0.0
 11
6.7623963266
 21
4.6971918757
 31
0.0
  0
LINE
  5
33F
330
1F
100
AcDbEntity
  8
0
  6
Continuous
 62
     7
370
    25
100
AcDbLine
 10
6.6089200994
 20
4.7857918158
 30
0.0
 11
6.6089200994
 21
4.6224836534
 31
0.0
  0
LINE
  5
340
330
1F
100
AcDbEntity
  8
0
  6
Continuous
 62
     7
370
    25
100
AcDbLine
 10
7.057776913
 20
4.8702067609
 30
0.0
 11
7.0578726418
 21
4.869105668
 31
0.0
  0
LINE
  5
341
330
1F
100
AcDbEntity
  8
0
  6
Continuous
 62
     7
370
    25
100
AcDbLine
 10
7.0188962768
 20
4.8690902611
 30
0.0
 11
7.0189187633
 21
4.869633256
 31
0.0
  0
SPLINE
  5
342
330
1F
100
AcDbEntity
  8
0
  6
Continuous
 62
     7
370
    25
100
AcDbSpline
210
0.0
220
0.0
230
1.0
 70
     8
 71
     3
 72
    10
 73
     6
 74
     0
 42
0.000000001
 43
0.00000001
 40
0.0
 40
0.0
 40
0.0
 40
0.0
 40
0.5
 40
0.5
 40
1.0
 40
1.0
 40
1.0
 40
1.0
 10
7.022923679039417
 20
4.862244037932339
 30
0.0
 10
7.022923679039417
 20
4.865330724015302
 30
0.0
 10
7.023805594609503
 20
4.868756814319881
 30
0.0
 10
7.027062822326516
 20
4.875340286457296
 30
0.0
 10
7.029394483441695
 20
4.878419439961433
 30
0.0
 10
7.032137822163361
 20
4.880881798331006
 30
0.0
  0
LWPOLYLINE
  5
343
330
1F
100
AcDbEntity
  8
0
  6
Continuous
 62
     7
370
    25
100
AcDbPolyline
 90
       16
 70
   128
 43
0.0
 10
7.0321375886
 20
4.8808819741
 10
7.0307612555
 20
4.8825110228
 10
7.0305969388
 20
4.8843210217
 10
7.0316707632
 20
4.8860241984
 10
7.033812001
 20
4.8873497644
 10
7.0366802163
 20
4.8880869676
 10
7.0398193907
 20
4.8881185998
 10
7.0427304258
 20
4.8874396318
 10
7.0449504954
 20
4.8861580129
 10
7.0461266299
 20
4.8844775081
 10
7.0460718354
 20
4.8826653013
 10
7.0447948237
 20
4.8810095159
 10
7.0424986272
 20
4.8797734056
 10
7.0395483189
 20
4.8791535
 10
7.0364129692
 20
4.879248358
 10
7.0335910682
 20
4.8800428982
  0
SPLINE
  5
344
330
1F
100
AcDbEntity
  8
0
  6
Continuous
 62
   144
370
    18
100
AcDbSpline
210
0.0
220
0.0
230
1.0
 70
     8
 71
     3
 72
    10
 73
     6
 74
     0
 42
0.000000001
 43
0.00000001
 40
0.0
 40
0.0
 40
0.0
 40
0.0
 40
0.5
 40
0.5
 40
1.0
 40
1.0
 40
1.0
 40
1.0
 10
7.033590827309719
 20
4.880043004851302
 30
0.0
 10
7.031484018555741
 20
4.877209781708861
 30
0.0
 10
7.029693548955229
 20
4.873808970519703
 30
0.0
 10
7.027205385460392
 20
4.866823755756295
 30
0.0
 10
7.026520917253461
 20
4.863215438963187
 30
0.0
 10
7.026520687054594
 20
4.860167554115374
 30
0.0
  0
ARC
  5
345
330
1F
100
AcDbEntity
  8
0
  6
Continuous
 62
     7
370
    25
100
AcDbCircle
 10
7.0383844653
 20
4.8735888506
 30
0.0
 40
0.0069322351742562
100
AcDbArc
 50
59.7273832918
 51
120.2726167082
  0
LINE
  5
346
330
1F
100
AcDbEntity
  8
0
  6
Continuous
 62
     7
370
    25
100
AcDbLine
 10
7.022923679
 20
4.835206212
 30
0.0
 11
7.022923679
 21
4.8622440379
 31
0.0
  0
LINE
  5
347
330
1F
100
AcDbEntity
  8
0
  6
Continuous
 62
   144
370
    18
100
AcDbLine
 10
7.0265205666
 20
4.8601676075
 30
0.0
 11
7.0265205666
 21
4.833129773
 31
0.0
  0
SPLINE
  5
348
330
1F
100
AcDbEntity
  8
0
  6
Continuous
 62
     7
370
    25
100
AcDbSpline
210
0.0
220
0.0
230
1.0
 70
     8
 71
     3
 72
     9
 73
     5
 74
     0
 42
0.000000001
 43
0.00000001
 40
0.0
 40
0.0
 40
0.0
 40
0.0
 40
0.7235590519644988
 40
1.0
 40
1.0
 40
1.0
 40
1.0
 10
7.389215004400128
 20
4.778775857454437
 30
0.0
 10
7.39043264708791
 20
4.778866836578796
 30
0.0
 10
7.392115498935976
 20
4.778992574932996
 30
0.0
 10
7.393166100670616
 20
4.777738332821198
 30
0.0
 10
7.393456530010148
 20
4.777391608942746
 30
0.0
  0
LWPOLYLINE
  5
349
330
1F
100
AcDbEntity
  8
0
  6
Continuous
 62
     7
370
    25
100
AcDbPolyline
 90
       16
 70
   128
 43
0.0
 10
7.3906682431
 20
4.7779368882
 10
7.3920445762
 20
4.7763078395
 10
7.3922088929
 20
4.7744978406
 10
7.3911350685
 20
4.7727946639
 10
7.3889938307
 20
4.7714690979
 10
7.3861256154
 20
4.7707318947
 10
7.3829864411
 20
4.7707002625
 10
7.3800754059
 20
4.7713792305
 10
7.3778553364
 20
4.7726608494
 10
7.3766792018
 20
4.7743413542
 10
7.3767339963
 20
4.776153561
 10
7.378011008
 20
4.7778093464
 10
7.3803072045
 20
4.7790454567
 10
7.3832575128
 20
4.7796653623
 10
7.3863928625
 20
4.7795705043
 10
7.3892147635
 20
4.7787759642
  0
SPLINE
  5
34A
330
1F
100
AcDbEntity
  8
0
  6
Continuous
 62
   144
370
    18
100
AcDbSpline
210
0.0
220
0.0
230
1.0
 70
     8
 71
     3
 72
    10
 73
     6
 74
     0
 42
0.000000001
 43
0.00000001
 40
0.0
 40
0.0
 40
0.0
 40
0.0
 40
0.0413383587298474
 40
0.565898281668223
 40
0.9999999999999999
 40
0.9999999999999999
 40
0.9999999999999999
 40
0.9999999999999999
 10
7.397840249117563
 20
4.774329401792044
 30
0.0
 10
7.397792262347538
 20
4.774439637791577
 30
0.0
 10
7.397135351150917
 20
4.775948705026727
 30
0.0
 10
7.394651122476051
 20
4.777395956648424
 30
0.0
 10
7.391909481154076
 20
4.777768409608284
 30
0.0
 10
7.39066800954649
 20
4.777937063972778
 30
0.0
  0
LINE
  5
34B
330
1F
100
AcDbEntity
  8
0
  6
Continuous
 62
     7
370
    25
100
AcDbLine
 10
7.3892147635
 20
4.7787759642
 30
0.0
 11
7.3872780374
 21
4.7714376082
 31
0.0
  0
ARC
  5
34C
330
1F
100
AcDbEntity
  8
0
  6
Continuous
 62
   144
370
    18
100
AcDbCircle
 10
7.3844483419
 20
4.7648279774
 30
0.0
 40
0.0071898814803392
100
AcDbArc
 50
66.8234081874
 51
119.3275717137
  0
LINE
  5
34D
330
1F
100
AcDbEntity
  8
0
  6
Continuous
 62
   144
370
    18
100
AcDbLine
 10
7.3882364922
 20
4.7711933447
 30
0.0
 11
7.3906682431
 21
4.7779368882
 31
0.0
  0
LINE
  5
34E
330
1F
100
AcDbEntity
  8
0
  6
Continuous
 62
   144
370
    18
100
AcDbLine
 10
7.3872782783
 20
4.7714375015
 30
0.0
 11
7.3883180669
 21
4.7712967936
 31
0.0
  0
LINE
  5
34F
330
1F
100
AcDbEntity
  8
0
  6
Continuous
 62
     7
370
    25
100
AcDbLine
 10
6.7401009584
 20
5.0525861921
 30
0.0
 11
6.7680442273
 21
4.9923833394
 31
0.0
  0
LINE
  5
350
330
1F
100
AcDbEntity
  8
0
  6
Continuous
 62
     7
370
    25
100
AcDbLine
 10
6.8164433887
 20
5.096657739
 30
0.0
 11
6.7401009584
 21
5.0525861921
 31
0.0
  0
LINE
  5
351
330
1F
100
AcDbEntity
  8
0
  6
Continuous
 62
     7
370
    25
100
AcDbLine
 10
6.9207290879
 20
5.0805264333
 30
0.0
 11
6.8164433887
 21
5.096657739
 31
0.0
  0
LINE
  5
352
330
1F
100
AcDbEntity
  8
0
  6
Continuous
 62
     7
370
    25
100
AcDbLine
 10
6.9486723568
 20
5.0203235806
 30
0.0
 11
6.9207290879
 21
5.0805264333
 31
0.0
  0
LINE
  5
353
330
1F
100
AcDbEntity
  8
0
  6
Continuous
 62
     7
370
    25
100
AcDbLine
 10
6.8723299265
 20
4.9762520336
 30
0.0
 11
6.9486723568
 21
5.0203235806
 31
0.0
  0
LINE
  5
354
330
1F
100
AcDbEntity
  8
0
  6
Continuous
 62
     7
370
    25
100
AcDbLine
 10
6.7680442273
 20
4.9923833394
 30
0.0
 11
6.8723299265
 21
4.9762520336
 31
0.0
  0
LWPOLYLINE
  5
355
330
1F
100
AcDbEntity
  8
0
  6
Continuous
 62
     7
370
    25
100
AcDbPolyline
 90
       29
 70
   128
 43
0.0
 10
6.7902948113
 20
5.0280877553
 10
6.7948761955
 20
5.0213489738
 10
6.8019402411
 20
5.0153676659
 10
6.8111327272
 20
5.0104437593
 10
6.8219927042
 20
5.0068241592
 10
6.8339756076
 20
5.0046903675
 10
6.8464805644
 20
5.0041493814
 10
6.8588805241
 20
5.0052283282
 10
6.8705537008
 20
5.007873105
 10
6.8809147526
 20
5.0119510917
 10
6.8894441332
 20
5.0172578009
 10
6.8957141439
 20
5.0235271322
 10
6.8994103801
 20
5.0304447151
 10
6.900347497
 20
5.037663673
 10
6.8984785038
 20
5.0448220174
 10
6.8938971196
 20
5.0515607988
 10
6.8868330741
 20
5.0575421067
 10
6.877640588
 20
5.0624660134
 10
6.8667806109
 20
5.0660856135
 10
6.8547977076
 20
5.0682194052
 10
6.8422927507
 20
5.0687603913
 10
6.829892791
 20
5.0676814445
 10
6.8182196144
 20
5.0650366677
 10
6.8078585625
 20
5.060958681
 10
6.7993291819
 20
5.0556519717
 10
6.7930591712
 20
5.0493826404
 10
6.7893629351
 20
5.0424650576
 10
6.7884258181
 20
5.0352460996
 10
6.7902948113
 20
5.0280877553
  0
LINE
  5
356
330
1F
100
AcDbEntity
  8
0
  6
Continuous
 62
     7
370
    25
100
AcDbLine
 10
6.7680442273
 20
4.9923833394
 30
0.0
 11
6.7680442273
 21
4.8396902076
 31
0.0
  0
LINE
  5
357
330
1F
100
AcDbEntity
  8
0
  6
Continuous
 62
     7
370
    25
100
AcDbLine
 10
6.8723299265
 20
4.9762520336
 30
0.0
 11
6.8723299265
 21
4.8235589018
 31
0.0
  0
LINE
  5
358
330
1F
100
AcDbEntity
  8
0
  6
Continuous
 62
   144
370
    18
100
AcDbLine
 10
6.7680442273
 20
4.8396902076
 30
0.0
 11
6.8723299265
 21
4.8235589018
 31
0.0
  0
LINE
  5
359
330
1F
100
AcDbEntity
  8
0
  6
Continuous
 62
     7
370
    25
100
AcDbLine
 10
6.9486723568
 20
5.0203235806
 30
0.0
 11
6.9486723568
 21
4.9929156799
 31
0.0
  0
LINE
  5
35A
330
1F
100
AcDbEntity
  8
0
  6
Continuous
 62
   144
370
    18
100
AcDbLine
 10
6.8723299265
 20
4.8235589018
 30
0.0
 11
6.8820145256
 21
4.8291497019
 31
0.0
  0
ARC
  5
35B
330
1F
100
AcDbEntity
  8
0
  6
Continuous
 62
     7
370
    25
100
AcDbCircle
 10
6.8443866576
 20
4.9205263292
 30
0.0
 40
0.0911875052369049
100
AcDbArc
 50
73.317906061
 51
106.682093939
  0
LINE
  5
35C
330
1F
100
AcDbEntity
  8
0
  6
Continuous
 62
     7
370
    25
100
AcDbLine
 10
6.7401009584
 20
5.0525861921
 30
0.0
 11
6.7401009584
 21
4.8998930603
 31
0.0
  0
LINE
  5
35D
330
1F
100
AcDbEntity
  8
0
  6
Continuous
 62
   144
370
    18
100
AcDbLine
 10
6.7401009584
 20
4.8998930603
 30
0.0
 11
6.7680442273
 21
4.8396902076
 31
0.0
  0
LINE
  5
35E
330
1F
100
AcDbEntity
  8
0
  6
Continuous
 62
     7
370
    25
100
AcDbLine
 10
7.4358940311
 20
4.6509134011
 30
0.0
 11
7.4638372999
 21
4.5907105484
 31
0.0
  0
LINE
  5
35F
330
1F
100
AcDbEntity
  8
0
  6
Continuous
 62
     7
370
    25
100
AcDbLine
 10
7.5122364614
 20
4.694984948
 30
0.0
 11
7.4358940311
 21
4.6509134011
 31
0.0
  0
LINE
  5
360
330
1F
100
AcDbEntity
  8
0
  6
Continuous
 62
     7
370
    25
100
AcDbLine
 10
7.6165221606
 20
4.6788536423
 30
0.0
 11
7.5122364614
 21
4.694984948
 31
0.0
  0
LINE
  5
361
330
1F
100
AcDbEntity
  8
0
  6
Continuous
 62
     7
370
    25
100
AcDbLine
 10
7.6444654295
 20
4.6186507896
 30
0.0
 11
7.6165221606
 21
4.6788536423
 31
0.0
  0
LINE
  5
362
330
1F
100
AcDbEntity
  8
0
  6
Continuous
 62
     7
370
    25
100
AcDbLine
 10
7.5681229991
 20
4.5745792426
 30
0.0
 11
7.6444654295
 21
4.6186507896
 31
0.0
  0
LINE
  5
363
330
1F
100
AcDbEntity
  8
0
  6
Continuous
 62
     7
370
    25
100
AcDbLine
 10
7.4638372999
 20
4.5907105484
 30
0.0
 11
7.5681229991
 21
4.5745792426
 31
0.0
  0
LWPOLYLINE
  5
364
330
1F
100
AcDbEntity
  8
0
  6
Continuous
 62
     7
370
    25
100
AcDbPolyline
 90
       29
 70
   128
 43
0.0
 10
7.486087884
 20
4.6264149643
 10
7.4906692682
 20
4.6196761828
 10
7.4977333138
 20
4.6136948749
 10
7.5069257999
 20
4.6087709683
 10
7.5177857769
 20
4.6051513682
 10
7.5297686803
 20
4.6030175764
 10
7.5422736371
 20
4.6024765903
 10
7.5546735968
 20
4.6035555371
 10
7.5663467734
 20
4.606200314
 10
7.5767078253
 20
4.6102783007
 10
7.5852372059
 20
4.6155850099
 10
7.5915072166
 20
4.6218543412
 10
7.5952034528
 20
4.6287719241
 10
7.5961405697
 20
4.635990882
 10
7.5942715765
 20
4.6431492264
 10
7.5896901923
 20
4.6498880078
 10
7.5826261468
 20
4.6558693157
 10
7.5734336606
 20
4.6607932224
 10
7.5625736836
 20
4.6644128225
 10
7.5505907803
 20
4.6665466142
 10
7.5380858234
 20
4.6670876003
 10
7.5256858637
 20
4.6660086535
 10
7.5140126871
 20
4.6633638767
 10
7.5036516352
 20
4.65928589
 10
7.4951222546
 20
4.6539791807
 10
7.4888522439
 20
4.6477098494
 10
7.4851560078
 20
4.6407922666
 10
7.4842188908
 20
4.6335733086
 10
7.486087884
 20
4.6264149643
  0
LINE
  5
365
330
1F
100
AcDbEntity
  8
0
  6
Continuous
 62
     7
370
    25
100
AcDbLine
 10
7.4638372999
 20
4.5907105484
 30
0.0
 11
7.4638372999
 21
4.4380174166
 31
0.0
  0
LINE
  5
366
330
1F
100
AcDbEntity
  8
0
  6
Continuous
 62
     7
370
    25
100
AcDbLine
 10
7.5681229991
 20
4.5745792426
 30
0.0
 11
7.5681229991
 21
4.4218861108
 31
0.0
  0
LINE
  5
367
330
1F
100
AcDbEntity
  8
0
  6
Continuous
 62
   144
370
    18
100
AcDbLine
 10
7.4638372999
 20
4.4380174166
 30
0.0
 11
7.5681229991
 21
4.4218861108
 31
0.0
  0
LINE
  5
368
330
1F
100
AcDbEntity
  8
0
  6
Continuous
 62
     7
370
    25
100
AcDbLine
 10
7.6444654295
 20
4.6186507896
 30
0.0
 11
7.6444654295
 21
4.4659576577
 31
0.0
  0
LINE
  5
369
330
1F
100
AcDbEntity
  8
0
  6
Continuous
 62
   144
370
    18
100
AcDbLine
 10
7.5681229991
 20
4.4218861108
 30
0.0
 11
7.6444654295
 21
4.4659576577
 31
0.0
  0
ARC
  5
36A
330
1F
100
AcDbEntity
  8
0
  6
Continuous
 62
     7
370
    25
100
AcDbCircle
 10
7.5401797303
 20
4.5188535382
 30
0.0
 40
0.0911875052456171
100
AcDbArc
 50
73.3179060626
 51
106.6820939373
  0
LINE
  5
36B
330
1F
100
AcDbEntity
  8
0
  6
Continuous
 62
     7
370
    25
100
AcDbLine
 10
7.4358940311
 20
4.6509134011
 30
0.0
 11
7.4358940311
 21
4.4982202693
 31
0.0
  0
LINE
  5
36C
330
1F
100
AcDbEntity
  8
0
  6
Continuous
 62
   144
370
    18
100
AcDbLine
 10
7.4358940311
 20
4.4982202693
 30
0.0
 11
7.4638372999
 21
4.4380174166
 31
0.0
  0
LINE
  5
36D
330
1F
100
AcDbEntity
  8
0
  6
Continuous
 62
     7
370
    25
100
AcDbLine
 10
7.3797831939
 20
2.8019355563
 30
0.0
 11
7.5211127428
 21
2.7203477444
 31
0.0
  0
LINE
  5
36E
330
1F
100
AcDbEntity
  8
0
  6
Continuous
 62
     7
370
    25
100
AcDbLine
 10
7.5323199362
 20
2.6962022152
 30
0.0
 11
7.5211127428
 21
2.7203477444
 31
0.0
  0
LINE
  5
36F
330
1F
100
AcDbEntity
  8
0
  6
Continuous
 62
     7
370
    25
100
AcDbLine
 10
7.5323199362
 20
2.6962022152
 30
0.0
 11
7.4518676101
 21
2.5228703278
 31
0.0
  0
LINE
  5
370
330
1F
100
AcDbEntity
  8
0
  6
Continuous
 62
     7
370
    25
100
AcDbLine
 10
7.4212489883
 20
2.5051945737
 30
0.0
 11
7.4518676101
 21
2.5228703278
 31
0.0
  0
LINE
  5
371
330
1F
100
AcDbEntity
  8
0
  6
Continuous
 62
     7
370
    25
100
AcDbLine
 10
7.1209968198
 20
2.4587504344
 30
0.0
 11
7.4212489883
 21
2.5051945737
 31
0.0
  0
LINE
  5
372
330
1F
100
AcDbEntity
  8
0
  6
Continuous
 62
     7
370
    25
100
AcDbLine
 10
7.0791710046
 20
2.4652202095
 30
0.0
 11
7.1209968198
 21
2.4587504344
 31
0.0
  0
LINE
  5
373
330
1F
100
AcDbEntity
  8
0
  6
Continuous
 62
     7
370
    25
100
AcDbLine
 10
6.863453645
 20
2.5897511904
 30
0.0
 11
7.0791710046
 21
2.4652202095
 31
0.0
  0
LINE
  5
374
330
1F
100
AcDbEntity
  8
0
  6
Continuous
 62
     7
370
    25
100
AcDbLine
 10
6.8522464516
 20
2.6138967196
 30
0.0
 11
6.863453645
 21
2.5897511904
 31
0.0
  0
LINE
  5
375
330
1F
100
AcDbEntity
  8
0
  6
Continuous
 62
     7
370
    25
100
AcDbLine
 10
6.8522464516
 20
2.6138967196
 30
0.0
 11
6.9326987777
 21
2.787228607
 31
0.0
  0
LINE
  5
376
330
1F
100
AcDbEntity
  8
0
  6
Continuous
 62
     7
370
    25
100
AcDbLine
 10
6.9633173995
 20
2.8049043611
 30
0.0
 11
6.9326987777
 21
2.787228607
 31
0.0
  0
LINE
  5
377
330
1F
100
AcDbEntity
  8
0
  6
Continuous
 62
     7
370
    25
100
AcDbLine
 10
7.0047831939
 20
2.8113184468
 30
0.0
 11
6.9633173995
 21
2.8049043611
 31
0.0
  0
LWPOLYLINE
  5
378
330
1F
100
AcDbEntity
  8
0
  6
Continuous
 62
     7
370
    25
100
AcDbPolyline
 90
       52
 70
   128
 43
0.0
 10
7.0047831939
 20
2.7827641811
 10
6.9872222274
 20
2.7734286436
 10
6.968388289
 20
2.7614507679
 10
6.951644797
 20
2.748479452
 10
6.9371480808
 20
2.7346358054
 10
6.9250334925
 20
2.7200490827
 10
6.9154141426
 20
2.704855476
 10
6.9083798445
 20
2.6891968441
 10
6.9039962754
 20
2.6732193873
 10
6.9023043637
 20
2.6570722829
 10
6.9033199061
 20
2.640906292
 10
6.9070334209
 20
2.6248723521
 10
6.913410236
 20
2.6091201678
 10
6.9223908127
 20
2.593796813
 10
6.9338913019
 20
2.5790453577
 10
6.9478043266
 20
2.5650035323
 10
6.9639999845
 20
2.5518024416
 10
6.9823270613
 20
2.5395653405
 10
7.002614442
 20
2.5284064836
 10
7.0246727086
 20
2.5184300581
 10
7.0482959092
 20
2.5097292112
 10
7.0732634803
 20
2.5023851804
 10
7.0993423064
 20
2.496466535
 10
7.1262888965
 20
2.4920285356
 10
7.1538516576
 20
2.4891126187
 10
7.1817732436
 20
2.4877460095
 10
7.2097929582
 20
2.4879414676
 10
7.2376491888
 20
2.4896971681
 10
7.2650818493
 20
2.4929967185
 10
7.2918348084
 20
2.4978093117
 10
7.3176582809
 20
2.5040900138
 10
7.34231116
 20
2.5117801837
 10
7.3655632684
 20
2.5208080203
 10
7.3871975075
 20
2.5310892332
 10
7.4070118841
 20
2.5425278293
 10
7.4248213967
 20
2.5550170096
 10
7.4404597629
 20
2.5684401661
 10
7.4537809713
 20
2.5826719703
 10
7.4646606453
 20
2.5975795436
 10
7.4729972046
 20
2.6130236982
 10
7.4787128127
 20
2.628860236
 10
7.4817541046
 20
2.6449412957
 10
7.4820926847
 20
2.6611167326
 10
7.4797253916
 20
2.6772355211
 10
7.4746743282
 20
2.6931471644
 10
7.4669866548
 20
2.7087030997
 10
7.4567341493
 20
2.7237580856
 10
7.4440125364
 20
2.7381715576
 10
7.4289405944
 20
2.751808941
 10
7.4116590461
 20
2.7645429073
 10
7.3923292446
 20
2.7762545628
 10
7.3797831939
 20
2.7827641811
  0
LINE
  5
379
330
1F
100
AcDbEntity
  8
0
  6
Continuous
 62
     7
370
    25
100
AcDbLine
 10
7.1209968198
 20
2.4587504344
 30
0.0
 11
7.1209968198
 21
2.2301190071
 31
0.0
  0
LINE
  5
37A
330
1F
100
AcDbEntity
  8
0
  6
Continuous
 62
     7
370
    25
100
AcDbLine
 10
7.4212489883
 20
2.2765631464
 30
0.0
 11
7.4212489883
 21
2.5051945737
 31
0.0
  0
LINE
  5
37B
330
1F
100
AcDbEntity
  8
0
  6
Continuous
 62
     7
370
    25
100
AcDbLine
 10
7.1209968198
 20
2.2301190071
 30
0.0
 11
7.4212489883
 21
2.2765631464
 31
0.0
  0
ARC
  5
37C
330
1F
100
AcDbEntity
  8
0
  6
Continuous
 62
     7
370
    25
100
AcDbCircle
 10
7.0733503077
 20
2.5771064085
 30
0.0
 40
0.0753698533253022
100
AcDbArc
 50
155.4697088396
 51
232.5263580198
  0
ARC
  5
37D
330
1F
100
AcDbEntity
  8
0
  6
Continuous
 62
     7
370
    25
100
AcDbCircle
 10
7.3117532114
 20
2.5769725062
 30
0.0
 40
0.0749375885736153
100
AcDbArc
 50
307.2099988624
 51
24.7939342782
  0
LINE
  5
37E
330
1F
100
AcDbEntity
  8
0
  6
Continuous
 62
     7
370
    25
100
AcDbLine
 10
7.0791710046
 20
2.2365887821
 30
0.0
 11
7.0791710046
 21
2.4652202095
 31
0.0
  0
LINE
  5
37F
330
1F
100
AcDbEntity
  8
0
  6
Continuous
 62
     7
370
    25
100
AcDbLine
 10
7.1209968198
 20
2.2301190071
 30
0.0
 11
7.0791710046
 21
2.2365887821
 31
0.0
  0
LINE
  5
380
330
1F
100
AcDbEntity
  8
0
  6
Continuous
 62
     7
370
    25
100
AcDbLine
 10
6.863453645
 20
2.5897511904
 30
0.0
 11
6.863453645
 21
2.3611197631
 31
0.0
  0
LINE
  5
381
330
1F
100
AcDbEntity
  8
0
  6
Continuous
 62
     7
370
    25
100
AcDbLine
 10
6.863453645
 20
2.3611197631
 30
0.0
 11
7.0791710046
 21
2.2365887821
 31
0.0
  0
LINE
  5
382
330
1F
100
AcDbEntity
  8
0
  6
Continuous
 62
     7
370
    25
100
AcDbLine
 10
6.863453645
 20
2.3611197631
 30
0.0
 11
6.8522464516
 21
2.3852652923
 31
0.0
  0
LINE
  5
383
330
1F
100
AcDbEntity
  8
0
  6
Continuous
 62
     7
370
    25
100
AcDbLine
 10
7.4518676101
 20
2.2942389005
 30
0.0
 11
7.4212489883
 21
2.2765631464
 31
0.0
  0
LINE
  5
384
330
1F
100
AcDbEntity
  8
0
  6
Continuous
 62
     7
370
    25
100
AcDbLine
 10
7.5323199362
 20
2.4675707879
 30
0.0
 11
7.4518676101
 21
2.2942389005
 31
0.0
  0
LINE
  5
385
330
1F
100
AcDbEntity
  8
0
  6
Continuous
 62
     7
370
    25
100
AcDbLine
 10
7.4518676101
 20
2.5228703278
 30
0.0
 11
7.4518676101
 21
2.2942389005
 31
0.0
  0
LINE
  5
386
330
1F
100
AcDbEntity
  8
0
  6
Continuous
 62
     7
370
    25
100
AcDbLine
 10
7.5323199362
 20
2.4675707879
 30
0.0
 11
7.5323199362
 21
2.6962022152
 31
0.0
  0
LWPOLYLINE
  5
387
330
1F
100
AcDbEntity
  8
0
  6
Continuous
 62
     7
370
    25
100
AcDbPolyline
 90
       33
 70
   128
 43
0.0
 10
6.9122831939
 20
2.075305491
 10
6.9136314704
 20
2.0594619456
 10
6.9176633154
 20
2.0437709822
 10
6.9243398999
 20
2.0283837134
 10
6.9335969248
 20
2.0134483269
 10
6.9453452399
 20
1.9991086587
 10
6.9594717025
 20
1.9855028077
 10
6.975840267
 20
1.9727618057
 10
6.9942932952
 20
1.9610083553
 10
7.0146530743
 20
1.9503556489
 10
7.0367235287
 20
1.9409062777
 10
7.0602921076
 20
1.9327512445
 10
7.0851318329
 20
1.9259690865
 10
7.1110034843
 20
1.9206251198
 10
7.1376579037
 20
1.9167708096
 10
7.1648383946
 20
1.9144432751
 10
7.1922831939
 20
1.9136649316
 10
7.2197279932
 20
1.9144432751
 10
7.2469084841
 20
1.9167708096
 10
7.2735629035
 20
1.9206251198
 10
7.299434555
 20
1.9259690865
 10
7.3242742802
 20
1.9327512445
 10
7.3478428592
 20
1.9409062777
 10
7.3699133135
 20
1.9503556489
 10
7.3902730926
 20
1.9610083553
 10
7.4087261209
 20
1.9727618057
 10
7.4250946854
 20
1.9855028077
 10
7.4392211479
 20
1.9991086587
 10
7.450969463
 20
2.0134483269
 10
7.4602264879
 20
2.0283837134
 10
7.4669030724
 20
2.0437709822
 10
7.4709349174
 20
2.0594619456
 10
7.4722831939
 20
2.075305491
  0
LINE
  5
388
330
1F
100
AcDbEntity
  8
0
  6
Continuous
 62
     7
370
    25
100
AcDbLine
 10
6.8522464516
 20
2.3852652923
 30
0.0
 11
6.8522464516
 21
2.6138967196
 31
0.0
  0
LINE
  5
389
330
1F
100
AcDbEntity
  8
0
  6
Continuous
 62
   144
370
    18
100
AcDbLine
 10
7.0178855885
 20
4.8598993298
 30
0.0
 11
7.0023444112
 21
4.8470863704
 31
0.0
  0
LWPOLYLINE
  5
38A
330
1F
100
AcDbEntity
  8
0
  6
Continuous
 62
     7
370
    25
100
AcDbPolyline
 90
       28
 70
   128
 43
0.0
 10
6.9467040453
 20
1.9976589379
 10
6.9508017373
 20
1.987326697
 10
6.9588880873
 20
1.9729596072
 10
6.9695315629
 20
1.9591591764
 10
6.9826155519
 20
1.946076605
 10
6.9979967035
 20
1.9338552285
 10
7.0155064986
 20
1.9226289467
 10
7.0349530962
 20
1.9125207571
 10
7.0561234352
 20
1.9036414073
 10
7.078785569
 20
1.8960881812
 10
7.1026912065
 20
1.8899438335
 10
7.1275784326
 20
1.8852756831
 10
7.1531745777
 20
1.882134875
 10
7.1791992049
 20
1.8805558208
 10
7.205367183
 20
1.8805558208
 10
7.2313918102
 20
1.882134875
 10
7.2569879552
 20
1.8852756831
 10
7.2818751813
 20
1.8899438335
 10
7.3057808188
 20
1.8960881812
 10
7.3284429527
 20
1.9036414073
 10
7.3496132917
 20
1.9125207571
 10
7.3690598892
 20
1.9226289467
 10
7.3865696843
 20
1.9338552285
 10
7.4019508359
 20
1.946076605
 10
7.415034825
 20
1.9591591764
 10
7.4256783005
 20
1.9729596072
 10
7.4337646505
 20
1.987326697
 10
7.4378623426
 20
1.9976589379
  0
ARC
  5
38B
330
1F
100
AcDbEntity
  8
0
  6
Continuous
 62
     7
370
    25
100
AcDbCircle
 10
7.1922831939
 20
2.2483606699
 30
0.0
 40
0.3708381210955682
100
AcDbArc
 50
242.5150384216
 51
297.4849615784
  0
LWPOLYLINE
  5
38C
330
1F
100
AcDbEntity
  8
0
  6
Continuous
 62
     7
370
    25
100
AcDbPolyline
 90
       30
 70
   128
 43
0.0
 10
6.9682831939
 20
1.9462920427
 10
6.9693243299
 20
1.9338388758
 10
6.9730506206
 20
1.9197551445
 10
6.9794380977
 20
1.9059935353
 10
6.988409226
 20
1.8927210954
 10
6.9998551081
 20
1.8800989342
 10
7.0136368065
 20
1.8682802676
 10
7.0295870301
 20
1.8574085584
 10
7.0475121646
 20
1.8476157742
 10
7.0671946234
 20
1.8390207862
 10
7.0883954879
 20
1.831727926
 10
7.1108574085
 20
1.825825719
 10
7.1343077278
 20
1.82138581
 10
7.1584617907
 20
1.8184620934
 10
7.1830263997
 20
1.8170900593
 10
7.2077033736
 20
1.8172863622
 10
7.2321931674
 20
1.8190486193
 10
7.2561985081
 20
1.8223554392
 10
7.2794280036
 20
1.8271666816
 10
7.3015996791
 20
1.8334239445
 10
7.3224444006
 20
1.8410512732
 10
7.3417091413
 20
1.8499560823
 10
7.3591600534
 20
1.8600302794
 10
7.3745853066
 20
1.8711515775
 10
7.387797659
 20
1.8831849791
 10
7.3986367307
 20
1.8959844149
 10
7.40697095
 20
1.9093945172
 10
7.4126991507
 20
1.9232525054
 10
7.4157518003
 20
1.9373901625
 10
7.4162831939
 20
1.9462920427
  0
ARC
  5
38D
330
1F
100
AcDbEntity
  8
0
  6
Continuous
 62
   144
370
    18
100
AcDbCircle
 10
7.1922844827
 20
3.0841844393
 30
0.0
 40
0.2992884216804234
100
AcDbArc
 50
248.2464905992
 51
291.7443309975
  0
LINE
  5
38E
330
1F
100
AcDbEntity
  8
0
  6
Continuous
 62
     7
370
    25
100
AcDbLine
 10
7.6122236465
 20
3.203764893
 30
0.0
 11
7.6122831939
 21
3.1996821889
 31
0.0
  0
LINE
  5
38F
330
1F
100
AcDbEntity
  8
0
  6
Continuous
 62
     7
370
    25
100
AcDbLine
 10
6.7722831939
 20
3.1996821889
 30
0.0
 11
6.7723427413
 21
3.203764893
 31
0.0
  0
LWPOLYLINE
  5
390
330
1F
100
AcDbEntity
  8
0
  6
Continuous
 62
     7
370
    25
100
AcDbPolyline
 90
        3
 70
   128
 43
0.0
 10
6.7744600498
 20
3.0198856653
 10
6.7730494611
 20
3.0299000135
 10
6.7722831939
 20
3.0445394347
  0
LWPOLYLINE
  5
391
330
1F
100
AcDbEntity
  8
0
  6
Continuous
 62
     7
370
    25
100
AcDbPolyline
 90
       31
 70
   128
 43
0.0
 10
7.6122831939
 20
3.0445394347
 10
7.6121980301
 20
3.0396569879
 10
7.6101558246
 20
3.0201667844
 10
7.6054035548
 20
3.000834647
 10
7.597972041
 20
2.9817859518
 10
7.5879094792
 20
2.9631442371
 10
7.5752811292
 20
2.9450304015
 10
7.5601688907
 20
2.9275619201
 10
7.5426707722
 20
2.9108520829
 10
7.5229002558
 20
2.8950092594
 10
7.5009855609
 20
2.8801361964
 10
7.4770688126
 20
2.8663293516
 10
7.4513051204
 20
2.8536782675
 10
7.4238615716
 20
2.8422649913
 10
7.3949161481
 20
2.8321635425
 10
7.3646565722
 20
2.8234394329
 10
7.3332790888
 20
2.8161492416
 10
7.3009871929
 20
2.8103402484
 10
7.2679903098
 20
2.8060501267
 10
7.234502437
 20
2.8033066997
 10
7.2007407563
 20
2.8021277596
 10
7.166924225
 20
2.8025209523
 10
7.1332721564
 20
2.8044837276
 10
7.1000027969
 20
2.8080033563
 10
7.0673319113
 20
2.8130570123
 10
7.0354713827
 20
2.8196119206
 10
7.0046278388
 20
2.8276255701
 10
6.975001312
 20
2.8370459893
 10
6.9467839415
 20
2.8478120831
 10
6.9201587279
 20
2.8598540293
 10
6.8952983458
 20
2.8730937312
  0
ARC
  5
392
330
1F
100
AcDbEntity
  8
0
  6
Continuous
 62
     7
370
    25
100
AcDbCircle
 10
7.1922487583
 20
3.0838220386
 30
0.0
 40
0.2989336018563858
100
AcDbArc
 50
248.1810065402
 51
292.0595639713
  0
LINE
  5
393
330
1F
100
AcDbEntity
  8
0
  6
Continuous
 62
     7
370
    25
100
AcDbLine
 10
6.6370874475
 20
4.8552581831
 30
0.0
 11
6.7401009584
 21
4.9147266171
 31
0.0
  0
ARC
  5
394
330
1F
100
AcDbEntity
  8
0
  6
Continuous
 62
     7
370
    25
100
AcDbCircle
 10
6.6468466303
 20
4.8295445418
 30
0.0
 40
0.0275033270446787
100
AcDbArc
 50
110.7834207995
 51
249.2165792005
  0
LINE
  5
395
330
1F
100
AcDbEntity
  8
0
  6
Continuous
 62
     7
370
    25
100
AcDbLine
 10
7.4018206475
 20
4.3623598211
 30
0.0
 11
6.6370874475
 21
4.8038309005
 31
0.0
  0
ARC
  5
396
330
1F
100
AcDbEntity
  8
0
  6
Continuous
 62
     7
370
    25
100
AcDbCircle
 10
7.4463628069
 20
4.4483258737
 30
0.0
 40
0.0968202776637312
100
AcDbArc
 50
242.6096722366
 51
297.3903277634
  0
LINE
  5
397
330
1F
100
AcDbEntity
  8
0
  6
Continuous
 62
     7
370
    25
100
AcDbLine
 10
7.7475791602
 20
4.5105346792
 30
0.0
 11
7.4909049664
 21
4.3623598211
 31
0.0
  0
ARC
  5
398
330
1F
100
AcDbEntity
  8
0
  6
Continuous
 62
     7
370
    25
100
AcDbCircle
 10
7.7378199774
 20
4.5362483205
 30
0.0
 40
0.0275033270446784
100
AcDbArc
 50
290.7834207995
 51
69.2165792005
  0
LINE
  5
399
330
1F
100
AcDbEntity
  8
0
  6
Continuous
 62
     7
370
    25
100
AcDbLine
 10
7.5182127888
 20
4.6943723496
 30
0.0
 11
7.518950696
 21
4.6939463648
 31
0.0
  0
LINE
  5
39A
330
1F
100
AcDbEntity
  8
0
  6
Continuous
 62
     7
370
    25
100
AcDbLine
 10
7.6426663557
 20
4.6225268347
 30
0.0
 11
7.7475791602
 21
4.5619619618
 31
0.0
  0
ARC
  5
39B
330
1F
100
AcDbEntity
  8
0
  6
Continuous
 62
     7
370
    25
100
AcDbCircle
 10
6.9395587975
 20
4.9162509086
 30
0.0
 40
0.0977627833696045
100
AcDbArc
 50
72.5810010786
 51
84.6510550604
  0
SPLINE
  5
39C
330
1F
100
AcDbEntity
  8
0
  6
Continuous
 62
     7
370
    25
100
AcDbSpline
210
0.0
220
0.0
230
1.0
 70
     8
 71
     3
 72
    22
 73
    18
 74
     0
 42
0.000000001
 43
0.00000001
 40
0.0
 40
0.0
 40
0.0
 40
0.0
 40
0.0348079625397813
 40
0.0694166469811167
 40
0.1039067764459655
 40
0.1383599073834736
 40
0.1728578586479332
 40
0.2074821313572035
 40
0.2423133399064312
 40
0.3711197340249002
 40
0.5000234000527523
 40
0.6288298203994468
 40
0.7577335126752561
 40
0.8185010413110549
 40
0.8788429415171591
 40
0.9391968137553864
 40
1.0
 40
1.0
 40
1.0
 40
1.0
 10
7.189160885168585
 20
4.511000040325536
 30
0.0
 10
7.190906094356548
 20
4.510019663808498
 30
0.0
 10
7.194386521283882
 20
4.508064523500758
 30
0.0
 10
7.199896595904757
 20
4.50532488807761
 30
0.0
 10
7.205594276610215
 20
4.502741283736105
 30
0.0
 10
7.211501550498519
 20
4.500326461321366
 30
0.0
 10
7.217612235253132
 20
4.498077074438311
 30
0.0
 10
7.223928566328245
 20
4.495994048474329
 30
0.0
 10
7.236287188192235
 20
4.492359844170136
 30
0.0
 10
7.255559894898608
 20
4.48817749764614
 30
0.0
 10
7.282321153792227
 20
4.485445097881312
 30
0.0
 10
7.309507262475314
 20
4.485451633784958
 30
0.0
 10
7.331532775537102
 20
4.48783359811175
 30
0.0
 10
7.348182575400568
 20
4.490951974628516
 30
0.0
 10
7.359884321758332
 20
4.493809577052243
 30
0.0
 10
7.371164767120769
 20
4.497200105870335
 30
0.0
 10
7.378224577738948
 20
4.4999114980637
 30
0.0
 10
7.381767573790882
 20
4.50127222179354
 30
0.0
  0
LINE
  5
39D
330
1F
100
AcDbEntity
  8
0
  6
Continuous
 62
     7
370
    25
100
AcDbLine
 10
6.8945677578
 20
4.6810650328
 30
0.0
 11
7.1891608852
 21
4.5110000403
 31
0.0
  0
SPLINE
  5
39E
330
1F
100
AcDbEntity
  8
0
  6
Continuous
 62
     7
370
    25
100
AcDbSpline
210
0.0
220
0.0
230
1.0
 70
     8
 71
     3
 72
    22
 73
    18
 74
     0
 42
0.000000001
 43
0.00000001
 40
0.0
 40
0.0
 40
0.0
 40
0.0
 40
0.034807962539603
 40
0.0694166469808173
 40
0.1039067764456027
 40
0.1383599073831074
 40
0.1728578586476252
 40
0.2074821313570158
 40
0.242313339906426
 40
0.3711197340248066
 40
0.5000234000527649
 40
0.6288298203994942
 40
0.7577335126752949
 40
0.818501041310631
 40
0.8788429415165792
 40
0.9391968137549518
 40
1.0
 40
1.0
 40
1.0
 40
1.0
 10
6.877716855994112
 20
4.792254507446317
 30
0.0
 10
6.876347462614575
 20
4.791092085035268
 30
0.0
 10
6.873616515731455
 20
4.78877389516539
 30
0.0
 10
6.869899726070592
 20
4.785165589089087
 30
0.0
 10
6.866481690704334
 20
4.7814777201996
 30
0.0
 10
6.863387979598208
 20
4.777700002609685
 30
0.0
 10
6.860611810515548
 20
4.77383536997855
 30
0.0
 10
6.858155150277517
 20
4.76988271210339
 30
0.0
 10
6.854101533716187
 20
4.762225547398778
 30
0.0
 10
6.850313447568666
 20
4.750542421157803
 30
0.0
 10
6.850299230798093
 20
4.734853703200828
 30
0.0
 10
6.855031198770024
 20
4.719399061927539
 30
0.0
 10
6.862919334095299
 20
4.707290797951459
 30
0.0
 10
6.871130248305336
 20
4.698366597179238
 30
0.0
 10
6.878037081803758
 20
4.692210168047241
 30
0.0
 10
6.885779887961535
 20
4.68638579756505
 30
0.0
 10
6.891631234543357
 20
4.682843000598272
 30
0.0
 10
6.894567757767444
 20
4.681065032838937
 30
0.0
  0
LINE
  5
39F
330
1F
100
AcDbEntity
  8
0
  6
Continuous
 62
     7
370
    25
100
AcDbLine
 10
7.4018206475
 20
4.3366420003
 30
0.0
 11
7.4018206475
 21
4.3623598211
 31
0.0
  0
LINE
  5
3A0
330
1F
100
AcDbEntity
  8
0
  6
Continuous
 62
     7
370
    25
100
AcDbLine
 10
7.4909049664
 20
4.3366420003
 30
0.0
 11
7.4909049664
 21
4.3623598211
 31
0.0
  0
ARC
  5
3A1
330
1F
100
AcDbEntity
  8
0
  6
Continuous
 62
   144
370
    18
100
AcDbCircle
 10
7.4463628069
 20
4.4226080529
 30
0.0
 40
0.0968202776637242
100
AcDbArc
 50
242.6096722366
 51
297.3903277634
  0
LINE
  5
3A2
330
1F
100
AcDbEntity
  8
0
  6
Continuous
 62
     7
370
    25
100
AcDbLine
 10
7.2950586591
 20
4.4111332947
 30
0.0
 11
7.3674396682
 21
4.3693486276
 31
0.0
  0
LINE
  5
3A3
330
1F
100
AcDbEntity
  8
0
  6
Continuous
 62
     7
370
    25
100
AcDbLine
 10
7.3674396682
 20
4.3693486276
 30
0.0
 11
7.3674396682
 21
4.3564897172
 31
0.0
  0
LINE
  5
3A4
330
1F
100
AcDbEntity
  8
0
  6
Continuous
 62
     7
370
    25
100
AcDbLine
 10
6.6370874475
 20
4.7781130796
 30
0.0
 11
6.6370874475
 21
4.8038309005
 31
0.0
  0
LINE
  5
3A5
330
1F
100
AcDbEntity
  8
0
  6
Continuous
 62
     7
370
    25
100
AcDbLine
 10
6.6714684268
 20
4.7582653627
 30
0.0
 11
6.6714684268
 21
4.7711242732
 31
0.0
  0
LINE
  5
3A6
330
1F
100
AcDbEntity
  8
0
  6
Continuous
 62
     7
370
    25
100
AcDbLine
 10
6.6714684268
 20
4.7711242732
 30
0.0
 11
6.7438494359
 21
4.729339606
 31
0.0
  0
LINE
  5
3A7
330
1F
100
AcDbEntity
  8
0
  6
Continuous
 62
   144
370
    18
100
AcDbLine
 10
7.2950586591
 20
4.3982743843
 30
0.0
 11
7.2950586591
 21
4.4111332947
 31
0.0
  0
LINE
  5
3A8
330
1F
100
AcDbEntity
  8
0
  6
Continuous
 62
   144
370
    18
100
AcDbLine
 10
6.7438494359
 20
4.7164806956
 30
0.0
 11
7.2950586591
 21
4.3982743843
 31
0.0
  0
LINE
  5
3A9
330
1F
100
AcDbEntity
  8
0
  6
Continuous
 62
   144
370
    18
100
AcDbLine
 10
6.7438494359
 20
4.729339606
 30
0.0
 11
6.7438494359
 21
4.7164806956
 31
0.0
  0
LINE
  5
3AA
330
1F
100
AcDbEntity
  8
0
  6
Continuous
 62
   144
370
    18
100
AcDbLine
 10
6.6370874475
 20
4.7781130796
 30
0.0
 11
6.6714684268
 21
4.7582653627
 31
0.0
  0
LINE
  5
3AB
330
1F
100
AcDbEntity
  8
0
  6
Continuous
 62
   144
370
    18
100
AcDbLine
 10
7.3674396682
 20
4.3564897172
 30
0.0
 11
7.4018206475
 21
4.3366420003
 31
0.0
  0
LINE
  5
3AC
330
1F
100
AcDbEntity
  8
0
  6
Continuous
 62
     7
370
    25
100
AcDbLine
 10
7.7475791602
 20
4.4848168584
 30
0.0
 11
7.7475791602
 21
4.5105346792
 31
0.0
  0
LINE
  5
3AD
330
1F
100
AcDbEntity
  8
0
  6
Continuous
 62
   144
370
    18
100
AcDbLine
 10
7.4909049664
 20
4.3366420003
 30
0.0
 11
7.7475791602
 21
4.4848168584
 31
0.0
  0
ARC
  5
3AE
330
1F
100
AcDbEntity
  8
0
  6
Continuous
 62
     7
370
    25
100
AcDbCircle
 10
7.2960422642
 20
4.8636058988
 30
0.0
 40
0.1613515619266624
100
AcDbArc
 50
242.9112174394
 51
291.3061199356
  0
ARC
  5
3AF
330
1F
100
AcDbEntity
  8
0
  6
Continuous
 62
     7
370
    25
100
AcDbCircle
 10
7.3023224245
 20
4.676276302
 30
0.0
 40
0.0909319162211785
100
AcDbArc
 50
151.2925721793
 51
178.2698134218
  0
ARC
  5
3B0
330
1F
100
AcDbEntity
  8
0
  6
Continuous
 62
     7
370
    25
100
AcDbCircle
 10
7.2960736575
 20
4.843603348
 30
0.0
 40
0.1850710758000682
100
AcDbArc
 50
242.7839566994
 51
291.4333806748
  0
ARC
  5
3B1
330
1F
100
AcDbEntity
  8
0
  6
Continuous
 62
     7
370
    25
100
AcDbCircle
 10
7.2483774758
 20
4.6684480797
 30
0.0
 40
0.1153607322987268
100
AcDbArc
 50
1.4321064479
 51
22.8701455519
  0
ARC
  5
3B2
330
1F
100
AcDbEntity
  8
0
  6
Continuous
 62
     7
370
    25
100
AcDbCircle
 10
7.2961046484
 20
4.7147698383
 30
0.0
 40
0.1856310939521135
100
AcDbArc
 50
242.862068023
 51
291.3552693516
  0
LINE
  5
3B3
330
1F
100
AcDbEntity
  8
0
  6
Continuous
 62
     7
370
    25
100
AcDbLine
 10
7.3637021742
 20
4.6713312178
 30
0.0
 11
7.3637021742
 21
4.5418841028
 31
0.0
  0
LINE
  5
3B4
330
1F
100
AcDbEntity
  8
0
  6
Continuous
 62
     7
370
    25
100
AcDbLine
 10
7.2114319649
 20
4.6790217969
 30
0.0
 11
7.2114319649
 21
4.5495746818
 31
0.0
  0
LINE
  5
3B5
330
1F
100
AcDbEntity
  8
0
  6
Continuous
 62
     7
370
    25
100
AcDbLine
 10
7.4584793346
 20
4.7552444723
 30
0.0
 11
7.3546694744
 21
4.7132823253
 31
0.0
  0
LINE
  5
3B6
330
1F
100
AcDbEntity
  8
0
  6
Continuous
 62
     7
370
    25
100
AcDbLine
 10
7.4675120344
 20
4.7132933649
 30
0.0
 11
7.3637021742
 21
4.6713312178
 31
0.0
  0
ARC
  5
3B7
330
1F
100
AcDbEntity
  8
0
  6
Continuous
 62
     7
370
    25
100
AcDbCircle
 10
7.352187336
 20
4.7104102268
 30
0.0
 40
0.1153607321916976
100
AcDbArc
 50
1.4321064338
 51
22.8701455582
  0
LINE
  5
3B8
330
1F
100
AcDbEntity
  8
0
  6
Continuous
 62
     7
370
    25
100
AcDbLine
 10
7.2225675048
 20
4.7199542846
 30
0.0
 11
6.9279743774
 21
4.8900192771
 31
0.0
  0
ARC
  5
3B9
330
1F
100
AcDbEntity
  8
0
  6
Continuous
 62
     7
370
    25
100
AcDbCircle
 10
7.0077292971
 20
4.8463412945
 30
0.0
 40
0.0909319161905307
100
AcDbArc
 50
151.2925721791
 51
178.2698134315
  0
LINE
  5
3BA
330
1F
100
AcDbEntity
  8
0
  6
Continuous
 62
     7
370
    25
100
AcDbLine
 10
7.2114319649
 20
4.6790217969
 30
0.0
 11
6.9168388375
 21
4.8490867894
 31
0.0
  0
ARC
  5
3BB
330
1F
100
AcDbEntity
  8
0
  6
Continuous
 62
     7
370
    25
100
AcDbCircle
 10
7.1630787019
 20
4.5517750236
 30
0.0
 40
0.0484033010152815
100
AcDbArc
 50
302.605478336
 51
357.3945215234
  0
ARC
  5
3BC
330
1F
100
AcDbEntity
  8
0
  6
Continuous
 62
     7
370
    25
100
AcDbCircle
 10
7.4216425096
 20
4.5433337658
 30
0.0
 40
0.0579584677545537
100
AcDbArc
 50
181.4332372119
 51
226.5286681979
  0
LINE
  5
3BD
330
1F
100
AcDbEntity
  8
0
  6
Continuous
 62
     7
370
    25
100
AcDbLine
 10
6.9168388375
 20
4.7196396743
 30
0.0
 11
7.2114319649
 21
4.5495746818
 31
0.0
  0
LINE
  5
3BE
330
1F
100
AcDbEntity
  8
0
  6
Continuous
 62
     7
370
    25
100
AcDbLine
 10
6.9168388375
 20
4.7196396743
 30
0.0
 11
6.9168388375
 21
4.8490867894
 31
0.0
  0
LINE
  5
3BF
330
1F
100
AcDbEntity
  8
0
  6
Continuous
 62
     7
370
    25
100
AcDbLine
 10
6.9861866222
 20
4.8042419874
 30
0.0
 11
6.9861866222
 21
4.7188295908
 31
0.0
  0
LINE
  5
3C0
330
1F
100
AcDbEntity
  8
0
  6
Continuous
 62
     7
370
    25
100
AcDbLine
 10
6.9861866222
 20
4.7188295908
 30
0.0
 11
6.9305089229
 21
4.7509716424
 31
0.0
  0
LINE
  5
3C1
330
1F
100
AcDbEntity
  8
0
  6
Continuous
 62
     7
370
    25
100
AcDbLine
 10
6.9305089229
 20
4.8363840391
 30
0.0
 11
6.9861866222
 21
4.8042419874
 31
0.0
  0
LINE
  5
3C2
330
1F
100
AcDbEntity
  8
0
  6
Continuous
 62
     7
370
    25
100
AcDbLine
 10
7.0919742508
 20
4.7431720893
 30
0.0
 11
7.0919742508
 21
4.6577596926
 31
0.0
  0
LINE
  5
3C3
330
1F
100
AcDbEntity
  8
0
  6
Continuous
 62
     7
370
    25
100
AcDbLine
 10
7.0919742508
 20
4.6577596926
 30
0.0
 11
7.0362965515
 21
4.6899017443
 31
0.0
  0
LINE
  5
3C4
330
1F
100
AcDbEntity
  8
0
  6
Continuous
 62
     7
370
    25
100
AcDbLine
 10
7.0362965515
 20
4.6899017443
 30
0.0
 11
7.0362965515
 21
4.7753141409
 31
0.0
  0
LINE
  5
3C5
330
1F
100
AcDbEntity
  8
0
  6
Continuous
 62
     7
370
    25
100
AcDbLine
 10
7.0362965515
 20
4.7753141409
 30
0.0
 11
7.0919742508
 21
4.7431720893
 31
0.0
  0
LINE
  5
3C6
330
1F
100
AcDbEntity
  8
0
  6
Continuous
 62
     7
370
    25
100
AcDbLine
 10
7.1977618795
 20
4.5966897945
 30
0.0
 11
7.1420841802
 21
4.6288318462
 31
0.0
  0
LINE
  5
3C7
330
1F
100
AcDbEntity
  8
0
  6
Continuous
 62
     7
370
    25
100
AcDbLine
 10
7.1420841802
 20
4.6288318462
 30
0.0
 11
7.1420841802
 21
4.7142442428
 31
0.0
  0
LINE
  5
3C8
330
1F
100
AcDbEntity
  8
0
  6
Continuous
 62
     7
370
    25
100
AcDbLine
 10
7.1420841802
 20
4.7142442428
 30
0.0
 11
7.1977618795
 21
4.6821021912
 31
0.0
  0
LINE
  5
3C9
330
1F
100
AcDbEntity
  8
0
  6
Continuous
 62
   144
370
    18
100
AcDbLine
 10
7.1977618795
 20
4.6821021912
 30
0.0
 11
7.1977618795
 21
4.5966897945
 31
0.0
  0
LINE
  5
3CA
330
1F
100
AcDbEntity
  8
0
  6
Continuous
 62
   144
370
    18
100
AcDbLine
 10
6.9305089229
 20
4.7509716424
 30
0.0
 11
6.9305089229
 21
4.8363840391
 31
0.0
  0
LINE
  5
3CB
330
1F
100
AcDbEntity
  8
0
  6
Continuous
 62
     7
370
    25
100
AcDbLine
 10
7.1508915663
 20
4.6813720235
 30
0.0
 11
7.1420841802
 21
4.7142442428
 31
0.0
  0
LWPOLYLINE
  5
3CC
330
1F
100
AcDbEntity
  8
0
  6
Continuous
 62
     7
370
    25
100
AcDbPolyline
 90
       11
 70
   128
 43
0.0
 10
7.4722529371
 20
4.8461286069
 10
7.4838103619
 20
4.8381772755
 10
7.4928004424
 20
4.829188169
 10
7.4989500197
 20
4.819434417
 10
7.5020722419
 20
4.8092123823
 10
7.5020722419
 20
4.7988326563
 10
7.4989500197
 20
4.7886106216
 10
7.4928004424
 20
4.7788568696
 10
7.4838103619
 20
4.7698677631
 10
7.4722529371
 20
4.7619164316
 10
7.4584793346
 20
4.7552444723
  0
LINE
  5
3CD
330
1F
100
AcDbEntity
  8
0
  6
Continuous
 62
     7
370
    25
100
AcDbLine
 10
7.1509402275
 20
4.6749611321
 30
0.0
 11
7.1420841802
 21
4.6288318462
 31
0.0
  0
ARC
  5
3CE
330
1F
100
AcDbEntity
  8
0
  6
Continuous
 62
     7
370
    25
100
AcDbCircle
 10
7.1367314059
 20
4.6780589119
 30
0.0
 40
0.0145425874712617
100
AcDbArc
 50
347.7009404181
 51
13.1688380306
  0
ARC
  5
3CF
330
1F
100
AcDbEntity
  8
0
  6
Continuous
 62
     7
370
    25
100
AcDbCircle
 10
6.8684855745
 20
4.7218400161
 30
0.0
 40
0.0484033010269242
100
AcDbArc
 50
302.6054783415
 51
357.3945215145
  0
ARC
  5
3D0
330
1F
100
AcDbEntity
  8
0
  6
Continuous
 62
   144
370
    18
100
AcDbCircle
 10
7.7345042724
 20
4.5136742085
 30
0.0
 40
0.0316812143933096
100
AcDbArc
 50
294.3746582936
 51
354.3052007488
  0
LINE
  5
3D1
330
1F
100
AcDbEntity
  8
0
  6
Continuous
 62
     7
370
    25
100
AcDbLine
 10
7.0451039376
 20
4.7424419216
 30
0.0
 11
7.0362965515
 21
4.7753141409
 31
0.0
  0
LINE
  5
3D2
330
1F
100
AcDbEntity
  8
0
  6
Continuous
 62
     7
370
    25
100
AcDbLine
 10
7.0451525988
 20
4.7360310303
 30
0.0
 11
7.0362965515
 21
4.6899017443
 31
0.0
  0
ARC
  5
3D3
330
1F
100
AcDbEntity
  8
0
  6
Continuous
 62
     7
370
    25
100
AcDbCircle
 10
7.0309437772
 20
4.7391288101
 30
0.0
 40
0.0145425874712719
100
AcDbArc
 50
347.7009404181
 51
13.1688380306
  0
LINE
  5
3D4
330
1F
100
AcDbEntity
  8
0
  6
Continuous
 62
     7
370
    25
100
AcDbLine
 10
7.1465383962
 20
5.0341596091
 30
0.0
 11
7.4722529371
 21
4.8461286069
 31
0.0
  0
LINE
  5
3D5
330
1F
100
AcDbEntity
  8
0
  6
Continuous
 62
     7
370
    25
100
AcDbLine
 10
7.2314468876
 20
4.9475206326
 30
0.0
 11
7.1757691883
 21
4.9796626843
 31
0.0
  0
LINE
  5
3D6
330
1F
100
AcDbEntity
  8
0
  6
Continuous
 62
     7
370
    25
100
AcDbLine
 10
7.2314468876
 20
4.867954624
 30
0.0
 11
7.2314468876
 21
4.9475206326
 31
0.0
  0
LINE
  5
3D7
330
1F
100
AcDbEntity
  8
0
  6
Continuous
 62
     7
370
    25
100
AcDbLine
 10
7.1757691883
 20
4.8909785042
 30
0.0
 11
7.2212413782
 21
4.8647279678
 31
0.0
  0
LINE
  5
3D8
330
1F
100
AcDbEntity
  8
0
  6
Continuous
 62
     7
370
    25
100
AcDbLine
 10
7.3372345163
 20
4.8864507345
 30
0.0
 11
7.281556817
 21
4.9185927861
 31
0.0
  0
LINE
  5
3D9
330
1F
100
AcDbEntity
  8
0
  6
Continuous
 62
     7
370
    25
100
AcDbLine
 10
7.3372345163
 20
4.7977665545
 30
0.0
 11
7.3372345163
 21
4.8864507345
 31
0.0
  0
LINE
  5
3DA
330
1F
100
AcDbEntity
  8
0
  6
Continuous
 62
     7
370
    25
100
AcDbLine
 10
7.281556817
 20
4.8299086061
 30
0.0
 11
7.2975198263
 21
4.820693357
 31
0.0
  0
LINE
  5
3DB
330
1F
100
AcDbEntity
  8
0
  6
Continuous
 62
     7
370
    25
100
AcDbLine
 10
7.3276311074
 20
4.8033104844
 30
0.0
 11
7.3372345163
 21
4.7977665545
 31
0.0
  0
LINE
  5
3DC
330
1F
100
AcDbEntity
  8
0
  6
Continuous
 62
     7
370
    25
100
AcDbLine
 10
7.443022145
 20
4.8253808363
 30
0.0
 11
7.3873444457
 21
4.857522888
 31
0.0
  0
LINE
  5
3DD
330
1F
100
AcDbEntity
  8
0
  6
Continuous
 62
     7
370
    25
100
AcDbLine
 10
7.4039095554
 20
4.7592758737
 30
0.0
 11
7.4304907335
 21
4.7439308862
 31
0.0
  0
LINE
  5
3DE
330
1F
100
AcDbEntity
  8
0
  6
Continuous
 62
   144
370
    18
100
AcDbLine
 10
7.443022145
 20
4.7489963485
 30
0.0
 11
7.443022145
 21
4.8253808363
 31
0.0
  0
LINE
  5
3DF
330
1F
100
AcDbEntity
  8
0
  6
Continuous
 62
   144
370
    18
100
AcDbLine
 10
6.9393163089
 20
4.8035118198
 30
0.0
 11
6.9305089229
 21
4.8363840391
 31
0.0
  0
LINE
  5
3E0
330
1F
100
AcDbEntity
  8
0
  6
Continuous
 62
     7
370
    25
100
AcDbLine
 10
7.4388702893
 20
4.7535291679
 30
0.0
 11
7.443022145
 21
4.7511323527
 31
0.0
  0
LINE
  5
3E1
330
1F
100
AcDbEntity
  8
0
  6
Continuous
 62
     7
370
    25
100
AcDbLine
 10
7.3789164939
 20
4.8163361432
 30
0.0
 11
7.3873444457
 21
4.857522888
 31
0.0
  0
LINE
  5
3E2
330
1F
100
AcDbEntity
  8
0
  6
Continuous
 62
     7
370
    25
100
AcDbLine
 10
7.3789164939
 20
4.8163361432
 30
0.0
 11
7.4345941932
 21
4.7841940916
 31
0.0
  0
LINE
  5
3E3
330
1F
100
AcDbEntity
  8
0
  6
Continuous
 62
   144
370
    18
100
AcDbLine
 10
7.4345941932
 20
4.7841940916
 30
0.0
 11
7.443022145
 21
4.8253808363
 31
0.0
  0
LWPOLYLINE
  5
3E4
330
1F
100
AcDbEntity
  8
0
  6
Continuous
 62
     7
370
    25
100
AcDbPolyline
 90
        9
 70
   128
 43
0.0
 10
6.9279743774
 20
4.8900192771
 10
6.9164169526
 20
4.8979706086
 10
6.907426872
 20
4.906959715
 10
6.9012772947
 20
4.916713467
 10
6.8981550725
 20
4.9269355017
 10
6.8981550725
 20
4.9373152278
 10
6.9012772947
 20
4.9475372625
 10
6.907426872
 20
4.9572910145
 10
6.9164169526
 20
4.9662801209
  0
LINE
  5
3E5
330
1F
100
AcDbEntity
  8
0
  6
Continuous
 62
     7
370
    25
100
AcDbLine
 10
6.9164169526
 20
4.9662801209
 30
0.0
 11
6.915333997
 21
4.9654297926
 31
0.0
  0
LINE
  5
3E6
330
1F
100
AcDbEntity
  8
0
  6
Continuous
 62
   144
370
    18
100
AcDbLine
 10
6.9393649701
 20
4.7971009284
 30
0.0
 11
6.9305089229
 21
4.7509716424
 31
0.0
  0
ARC
  5
3E7
330
1F
100
AcDbEntity
  8
0
  6
Continuous
 62
   144
370
    18
100
AcDbCircle
 10
6.9251561485
 20
4.8001987082
 30
0.0
 40
0.0145425874712886
100
AcDbArc
 50
347.7009404181
 51
13.1688380306
  0
ARC
  5
3E8
330
1F
100
AcDbEntity
  8
0
  6
Continuous
 62
     7
370
    25
100
AcDbCircle
 10
7.4080031156
 20
4.8096498417
 30
0.0
 40
0.029845237253168
100
AcDbArc
 50
167.0540110259
 51
192.0837664808
  0
LINE
  5
3E9
330
1F
100
AcDbEntity
  8
0
  6
Continuous
 62
     7
370
    25
100
AcDbLine
 10
7.4344968708
 20
4.7712599427
 30
0.0
 11
7.3788191715
 21
4.8034019944
 31
0.0
  0
ARC
  5
3EA
330
1F
100
AcDbEntity
  8
0
  6
Continuous
 62
   144
370
    18
100
AcDbCircle
 10
7.4636808149
 20
4.7775077901
 30
0.0
 40
0.0298452372532134
100
AcDbArc
 50
167.054011026
 51
192.0837664807
  0
LINE
  5
3EB
330
1F
100
AcDbEntity
  8
0
  6
Continuous
 62
     7
370
    25
100
AcDbLine
 10
7.3788191715
 20
4.8034019944
 30
0.0
 11
7.3846187398
 21
4.779889303
 31
0.0
  0
LINE
  5
3EC
330
1F
100
AcDbEntity
  8
0
  6
Continuous
 62
   144
370
    18
100
AcDbLine
 10
7.4402633986
 20
4.7478812047
 30
0.0
 11
7.4344968708
 21
4.7712599427
 31
0.0
  0
LINE
  5
3ED
330
1F
100
AcDbEntity
  8
0
  6
Continuous
 62
     7
370
    25
100
AcDbLine
 10
7.3372345163
 20
4.7977665545
 30
0.0
 11
7.3287092421
 21
4.8323298409
 31
0.0
  0
LINE
  5
3EE
330
1F
100
AcDbEntity
  8
0
  6
Continuous
 62
     7
370
    25
100
AcDbLine
 10
7.3288065645
 20
4.8452639897
 30
0.0
 11
7.3372345163
 21
4.8864507345
 31
0.0
  0
ARC
  5
3EF
330
1F
100
AcDbEntity
  8
0
  6
Continuous
 62
     7
370
    25
100
AcDbCircle
 10
7.3578931862
 20
4.8385776882
 30
0.0
 40
0.0298452372531857
100
AcDbArc
 50
167.054011026
 51
192.0837664807
  0
LINE
  5
3F0
330
1F
100
AcDbEntity
  8
0
  6
Continuous
 62
     7
370
    25
100
AcDbLine
 10
7.2731288652
 20
4.8774060413
 30
0.0
 11
7.281556817
 21
4.9185927861
 31
0.0
  0
LINE
  5
3F1
330
1F
100
AcDbEntity
  8
0
  6
Continuous
 62
     7
370
    25
100
AcDbLine
 10
7.2731288652
 20
4.8774060413
 30
0.0
 11
7.3288065645
 21
4.8452639897
 31
0.0
  0
ARC
  5
3F2
330
1F
100
AcDbEntity
  8
0
  6
Continuous
 62
     7
370
    25
100
AcDbCircle
 10
7.3022154869
 20
4.8707197399
 30
0.0
 40
0.0298452372531966
100
AcDbArc
 50
167.054011026
 51
192.0837664807
  0
LINE
  5
3F3
330
1F
100
AcDbEntity
  8
0
  6
Continuous
 62
     7
370
    25
100
AcDbLine
 10
7.3287092421
 20
4.8323298409
 30
0.0
 11
7.2730315428
 21
4.8644718925
 31
0.0
  0
LINE
  5
3F4
330
1F
100
AcDbEntity
  8
0
  6
Continuous
 62
     7
370
    25
100
AcDbLine
 10
7.2730315428
 20
4.8644718925
 30
0.0
 11
7.281556817
 21
4.8299086061
 31
0.0
  0
LINE
  5
3F5
330
1F
100
AcDbEntity
  8
0
  6
Continuous
 62
     7
370
    25
100
AcDbLine
 10
6.9164169526
 20
4.9662801209
 30
0.0
 11
6.9891053992
 21
5.0262082776
 31
0.0
  0
LINE
  5
3F6
330
1F
100
AcDbEntity
  8
0
  6
Continuous
 62
     7
370
    25
100
AcDbLine
 10
6.9891053992
 20
5.0262082776
 30
0.0
 11
6.9891053992
 21
4.8622570852
 31
0.0
  0
ARC
  5
3F7
330
1F
100
AcDbEntity
  8
0
  6
Continuous
 62
     7
370
    25
100
AcDbCircle
 10
7.0743620345
 20
4.9006920031
 30
0.0
 40
0.1517334143061713
100
AcDbArc
 50
61.5964470768
 51
124.1862155477
  0
LINE
  5
3F8
330
1F
100
AcDbEntity
  8
0
  6
Continuous
 62
     7
370
    25
100
AcDbLine
 10
7.2292013405
 20
4.8679403813
 30
0.0
 11
7.2229216135
 21
4.893399739
 31
0.0
  0
LINE
  5
3F9
330
1F
100
AcDbEntity
  8
0
  6
Continuous
 62
     7
370
    25
100
AcDbLine
 10
7.2230189359
 20
4.9063338878
 30
0.0
 11
7.2314468876
 21
4.9475206326
 31
0.0
  0
ARC
  5
3FA
330
1F
100
AcDbEntity
  8
0
  6
Continuous
 62
     7
370
    25
100
AcDbCircle
 10
7.2521055575
 20
4.8996475863
 30
0.0
 40
0.0298452372531908
100
AcDbArc
 50
167.054011026
 51
192.0837664807
  0
LINE
  5
3FB
330
1F
100
AcDbEntity
  8
0
  6
Continuous
 62
     7
370
    25
100
AcDbLine
 10
7.1673412366
 20
4.9384759395
 30
0.0
 11
7.2230189359
 21
4.9063338878
 31
0.0
  0
LINE
  5
3FC
330
1F
100
AcDbEntity
  8
0
  6
Continuous
 62
   144
370
    18
100
AcDbLine
 10
7.1673412366
 20
4.9384759395
 30
0.0
 11
7.1757691883
 21
4.9796626843
 31
0.0
  0
LINE
  5
3FD
330
1F
100
AcDbEntity
  8
0
  6
Continuous
 62
     7
370
    25
100
AcDbLine
 10
7.2229216135
 20
4.893399739
 30
0.0
 11
7.1672439142
 21
4.9255417906
 31
0.0
  0
ARC
  5
3FE
330
1F
100
AcDbEntity
  8
0
  6
Continuous
 62
   144
370
    18
100
AcDbCircle
 10
7.1964278582
 20
4.931789638
 30
0.0
 40
0.0298452372531706
100
AcDbArc
 50
167.0540110259
 51
192.0837664808
  0
LINE
  5
3FF
330
1F
100
AcDbEntity
  8
0
  6
Continuous
 62
   144
370
    18
100
AcDbLine
 10
7.1672439142
 20
4.9255417906
 30
0.0
 11
7.1734273062
 21
4.9004729957
 31
0.0
  0
LINE
  5
400
330
1F
100
AcDbEntity
  8
0
  6
Continuous
 62
   144
370
    18
100
AcDbLine
 10
6.6714684268
 20
4.7582653627
 30
0.0
 11
6.6826057767
 21
4.764694818
 31
0.0
  0
ARC
  5
401
330
1F
100
AcDbEntity
  8
0
  6
Continuous
 62
   144
370
    18
100
AcDbCircle
 10
6.6501623353
 20
4.8069704297
 30
0.0
 40
0.0316812143933109
100
AcDbArc
 50
185.6947992512
 51
245.6253417064
  0
LINE
  5
402
330
1F
100
AcDbEntity
  8
0
  6
Continuous
 62
     7
370
    25
100
AcDbLine
 10
7.0841012122
 20
4.9549143005
 30
0.0
 11
7.0871776401
 21
4.9544979871
 31
0.0
  0
SPLINE
  5
403
330
1F
100
AcDbEntity
  8
0
  6
Continuous
 62
     7
370
    25
100
AcDbSpline
210
0.0
220
0.0
230
1.0
 70
     8
 71
     3
 72
    10
 73
     6
 74
     0
 42
0.000000001
 43
0.00000001
 40
0.0
 40
0.0
 40
0.0
 40
0.0
 40
0.0413383587298461
 40
0.5658982816682236
 40
0.9999999999999999
 40
0.9999999999999999
 40
0.9999999999999999
 40
0.9999999999999999
 10
7.092726456920534
 20
4.950467844815212
 30
0.0
 10
7.092678470150509
 20
4.950578080814744
 30
0.0
 10
7.092021558953888
 20
4.952087148049897
 30
0.0
 10
7.089537330279021
 20
4.95353439967159
 30
0.0
 10
7.086795688957046
 20
4.953906852631452
 30
0.0
 10
7.085554217349459
 20
4.954075506995946
 30
0.0
  0
LWPOLYLINE
  5
404
330
1F
100
AcDbEntity
  8
0
  6
Continuous
 62
     7
370
    25
100
AcDbPolyline
 90
       16
 70
   128
 43
0.0
 10
7.0855544509
 20
4.9540753313
 10
7.086930784
 20
4.9524462825
 10
7.0870951007
 20
4.9506362836
 10
7.0860212763
 20
4.9489331069
 10
7.0838800385
 20
4.9476075409
 10
7.0810118232
 20
4.9468703377
 10
7.0778726489
 20
4.9468387055
 10
7.0749616137
 20
4.9475176735
 10
7.0727415442
 20
4.9487992924
 10
7.0715654096
 20
4.9504797972
 10
7.0716202041
 20
4.952292004
 10
7.0728972158
 20
4.9539477894
 10
7.0751934123
 20
4.9551838997
 10
7.0781437206
 20
4.9558038054
 10
7.0812790703
 20
4.9557089473
 10
7.0841009713
 20
4.9549144072
  0
LINE
  5
405
330
1F
100
AcDbEntity
  8
0
  6
Continuous
 62
     7
370
    25
100
AcDbLine
 10
7.0841009713
 20
4.9549144072
 30
0.0
 11
7.0821642452
 21
4.9475760512
 31
0.0
  0
LINE
  5
406
330
1F
100
AcDbEntity
  8
0
  6
Continuous
 62
     7
370
    25
100
AcDbLine
 10
7.0831227
 20
4.9473317877
 30
0.0
 11
7.0855544509
 21
4.9540753313
 31
0.0
  0
ARC
  5
407
330
1F
100
AcDbEntity
  8
0
  6
Continuous
 62
   144
370
    18
100
AcDbCircle
 10
7.0793345497
 20
4.9409664205
 30
0.0
 40
0.0071898814801754
100
AcDbArc
 50
66.8234081879
 51
119.3275717179
  0
LINE
  5
408
330
1F
100
AcDbEntity
  8
0
  6
Continuous
 62
   144
370
    18
100
AcDbLine
 10
7.0821644861
 20
4.9475759445
 30
0.0
 11
7.0832005664
 21
4.9474357384
 31
0.0
  0
LWPOLYLINE
  5
409
330
1F
100
AcDbEntity
  8
0
  6
Continuous
 62
     8
370
    25
100
AcDbPolyline
 90
        7
 70
   128
 43
0.0
 10
7.2867079859
 20
4.7370018357
 10
7.286043925
 20
4.7340772719
 10
7.2826807368
 20
4.7301403119
 10
7.2769637396
 20
4.7272460318
 10
7.2697633027
 20
4.7258350639
 10
7.2621756383
 20
4.7261222173
 10
7.2553559108
 20
4.7280637752
  0
LWPOLYLINE
  5
40A
330
1F
100
AcDbEntity
  8
0
  6
Continuous
 62
     8
370
    25
100
AcDbPolyline
 90
        3
 70
   128
 43
0.0
 10
7.2517590232
 20
4.7301402057
 10
7.2485708728
 20
4.7337231524
 10
7.247731621
 20
4.7369864288
  0
LINE
  5
40B
330
1F
100
AcDbEntity
  8
0
  6
Continuous
 62
     8
370
    25
100
AcDbLine
 10
7.2592052286
 20
4.7472440042
 30
0.0
 11
7.2611340822
 21
4.7476767998
 31
0.0
  0
ARC
  5
40C
330
1F
100
AcDbEntity
  8
0
  6
Continuous
 62
     8
370
    25
100
AcDbCircle
 10
7.2988794614
 20
4.8056646785
 30
0.0
 40
0.0102763921271972
100
AcDbArc
 50
185.7481687204
 51
255.3433153871
  0
LINE
  5
40D
330
1F
100
AcDbEntity
  8
0
  6
Continuous
 62
     8
370
    25
100
AcDbLine
 10
7.3064870017
 20
4.8158577492
 30
0.0
 11
7.309798835
 21
4.8158577492
 31
0.0
  0
LWPOLYLINE
  5
40E
330
1F
100
AcDbEntity
  8
0
  6
Continuous
 62
     8
370
    25
100
AcDbPolyline
 90
        8
 70
   128
 43
0.0
 10
7.3276311068
 20
4.8046508404
 10
7.3275894005
 20
4.8039125055
 10
7.3258941037
 20
4.8000051955
 10
7.3219232846
 20
4.7966930645
 10
7.3161859621
 20
4.7944006942
 10
7.3094176027
 20
4.7934219433
 10
7.3024858417
 20
4.7938822777
 10
7.2962792606
 20
4.7957226872
  0
ARC
  5
40F
330
1F
100
AcDbEntity
  8
0
  6
Continuous
 62
     8
370
    25
100
AcDbCircle
 10
7.2226010134
 20
4.8496992893
 30
0.0
 40
0.0102763921272027
100
AcDbArc
 50
185.7481687204
 51
255.343315387
  0
LINE
  5
410
330
1F
100
AcDbEntity
  8
0
  6
Continuous
 62
     8
370
    25
100
AcDbLine
 10
7.2302085537
 20
4.8598923599
 30
0.0
 11
7.233520387
 21
4.8598923599
 31
0.0
  0
LINE
  5
411
330
1F
100
AcDbEntity
  8
0
  6
Continuous
 62
     8
370
    25
100
AcDbLine
 10
7.2347997555
 20
4.8598047027
 30
0.0
 11
7.2358179951
 21
4.8596991099
 31
0.0
  0
LWPOLYLINE
  5
412
330
1F
100
AcDbEntity
  8
0
  6
Continuous
 62
     8
370
    25
100
AcDbPolyline
 90
        8
 70
   128
 43
0.0
 10
7.2513526588
 20
4.8486854512
 10
7.2513109524
 20
4.8479471162
 10
7.2496156557
 20
4.8440398062
 10
7.2456448366
 20
4.8407276753
 10
7.239907514
 20
4.838435305
 10
7.2331391546
 20
4.8374565541
 10
7.2262073936
 20
4.8379168885
 10
7.2200008126
 20
4.839757298
  0
ARC
  5
413
330
1F
100
AcDbEntity
  8
0
  6
Continuous
 62
     8
370
    25
100
AcDbCircle
 10
7.1463225653
 20
4.8937339
 30
0.0
 40
0.0102763921271962
100
AcDbArc
 50
185.7481687204
 51
255.3433153871
  0
LINE
  5
414
330
1F
100
AcDbEntity
  8
0
  6
Continuous
 62
     8
370
    25
100
AcDbLine
 10
7.1539301057
 20
4.9039269707
 30
0.0
 11
7.1572419389
 21
4.9039269707
 31
0.0
  0
LWPOLYLINE
  5
415
330
1F
100
AcDbEntity
  8
0
  6
Continuous
 62
     8
370
    25
100
AcDbPolyline
 90
        8
 70
   128
 43
0.0
 10
7.1750742107
 20
4.8927200619
 10
7.1750325044
 20
4.891981727
 10
7.1733372076
 20
4.888074417
 10
7.1693663885
 20
4.884762286
 10
7.163629066
 20
4.8824699157
 10
7.1568607066
 20
4.8814911648
 10
7.1499289456
 20
4.8819514992
 10
7.1437223645
 20
4.8837919087
  0
LWPOLYLINE
  5
416
330
1F
100
AcDbEntity
  8
0
  6
Continuous
 62
     8
370
    25
100
AcDbPolyline
 90
        7
 70
   128
 43
0.0
 10
7.2104295379
 20
4.7810364465
 10
7.2097654769
 20
4.7781118827
 10
7.2064022888
 20
4.7741749226
 10
7.2006852915
 20
4.7712806425
 10
7.1934848547
 20
4.7698696746
 10
7.1858971903
 20
4.7701568281
 10
7.1790774627
 20
4.772098386
  0
LWPOLYLINE
  5
417
330
1F
100
AcDbEntity
  8
0
  6
Continuous
 62
     8
370
    25
100
AcDbPolyline
 90
        3
 70
   128
 43
0.0
 10
7.1754805751
 20
4.7741748164
 10
7.1722924247
 20
4.7777577631
 10
7.1714531729
 20
4.7810210396
  0
LWPOLYLINE
  5
418
330
1F
100
AcDbEntity
  8
0
  6
Continuous
 62
     8
370
    25
100
AcDbPolyline
 90
        7
 70
   128
 43
0.0
 10
7.1341510898
 20
4.8250710572
 10
7.1334870289
 20
4.8221464934
 10
7.1301238407
 20
4.8182095334
 10
7.1244068435
 20
4.8153152533
 10
7.1172064066
 20
4.8139042854
 10
7.1096187422
 20
4.8141914388
 10
7.1027990147
 20
4.8161329967
  0
LWPOLYLINE
  5
419
330
1F
100
AcDbEntity
  8
0
  6
Continuous
 62
     8
370
    25
100
AcDbPolyline
 90
        3
 70
   128
 43
0.0
 10
7.0992021271
 20
4.8182094272
 10
7.0960139767
 20
4.8217923739
 10
7.0951747249
 20
4.8250556503
  0
LWPOLYLINE
  5
41A
330
1F
100
AcDbEntity
  8
0
  6
Continuous
 62
     8
370
    25
100
AcDbPolyline
 90
        3
 70
   128
 43
0.0
 10
7.1130069967
 20
4.836267952
 10
7.113388229
 20
4.8362845474
 10
7.1163188299
 20
4.836267952
  0
LWPOLYLINE
  5
41B
330
1F
100
AcDbEntity
  8
0
  6
Continuous
 62
     8
370
    25
100
AcDbPolyline
 90
        7
 70
   128
 43
0.0
 10
7.0578726418
 20
4.869105668
 10
7.0572085808
 20
4.8661811042
 10
7.0538453927
 20
4.8622441441
 10
7.0481283954
 20
4.8593498641
 10
7.0409279586
 20
4.8579388961
 10
7.0333402942
 20
4.8582260496
 10
7.0265205666
 20
4.8601676075
  0
LWPOLYLINE
  5
41C
330
1F
100
AcDbEntity
  8
0
  6
Continuous
 62
     8
370
    25
100
AcDbPolyline
 90
        3
 70
   128
 43
0.0
 10
7.022923679
 20
4.8622440379
 10
7.0197355286
 20
4.8658269847
 10
7.0188962768
 20
4.8690902611
  0
ARC
  5
41D
330
1F
100
AcDbEntity
  8
0
  6
Continuous
 62
     8
370
    25
100
AcDbCircle
 10
7.3751579095
 20
4.7616300678
 30
0.0
 40
0.0102763921272023
100
AcDbArc
 50
185.7481687204
 51
255.343315387
  0
LINE
  5
41E
330
1F
100
AcDbEntity
  8
0
  6
Continuous
 62
     8
370
    25
100
AcDbLine
 10
7.3827654498
 20
4.7718231384
 30
0.0
 11
7.3860772831
 21
4.7718231384
 31
0.0
  0
LWPOLYLINE
  5
41F
330
1F
100
AcDbEntity
  8
0
  6
Continuous
 62
     8
370
    25
100
AcDbPolyline
 90
        8
 70
   128
 43
0.0
 10
7.4039095549
 20
4.7606162297
 10
7.4038678485
 20
4.7598778947
 10
7.4021725518
 20
4.7559705847
 10
7.3982017327
 20
4.7526584538
 10
7.3924644101
 20
4.7503660835
 10
7.3856960507
 20
4.7493873326
 10
7.3787642897
 20
4.7498476669
 10
7.3725577087
 20
4.7516880765
  0
LWPOLYLINE
  5
420
330
1F
100
AcDbEntity
  8
0
  6
Continuous
 62
     8
370
    25
100
AcDbPolyline
 90
       41
 70
   128
 43
0.0
 10
7.6122831939
 20
3.1996821889
 10
7.6121980301
 20
3.1947997421
 10
7.6101558246
 20
3.1753095387
 10
7.6054035548
 20
3.1559774012
 10
7.597972041
 20
3.1369287061
 10
7.5879094792
 20
3.1182869914
 10
7.5752811292
 20
3.1001731558
 10
7.5601688907
 20
3.0827046744
 10
7.5426707722
 20
3.0659948371
 10
7.5229002558
 20
3.0501520136
 10
7.5009855609
 20
3.0352789507
 10
7.4770688126
 20
3.0214721058
 10
7.4513051204
 20
3.0088210217
 10
7.4238615716
 20
2.9974077456
 10
7.3949161481
 20
2.9873062968
 10
7.3646565722
 20
2.9785821871
 10
7.3332790888
 20
2.9712919958
 10
7.3009871929
 20
2.9654830026
 10
7.2679903098
 20
2.961192881
 10
7.234502437
 20
2.958449454
 10
7.2007407563
 20
2.9572705139
 10
7.166924225
 20
2.9576637065
 10
7.1332721564
 20
2.9596264819
 10
7.1000027969
 20
2.9631461106
 10
7.0673319113
 20
2.9681997666
 10
7.0354713827
 20
2.9747546749
 10
7.0046278388
 20
2.9827683244
 10
6.975001312
 20
2.9921887436
 10
6.9467839415
 20
3.0029548374
 10
6.9201587279
 20
3.0149967836
 10
6.8952983458
 20
3.0282364855
 10
6.8723640245
 20
3.0425880785
 10
6.8515045017
 20
3.0579584872
 10
6.8328550595
 20
3.0742480284
 10
6.8165366467
 20
3.0913510583
 10
6.8026550945
 20
3.1091566572
 10
6.79130043
 20
3.1275493489
 10
6.7825462926
 20
3.1464098497
 10
6.7764494562
 20
3.1656158421
 10
6.7730494611
 20
3.1850427678
 10
6.7722831939
 20
3.1996821889
  0
ARC
  5
421
330
1F
100
AcDbEntity
  8
0
  6
Continuous
 62
     8
370
    25
100
AcDbCircle
 10
6.9910869943
 20
3.0750790793
 30
0.0
 40
0.2235476370369847
100
AcDbArc
 50
194.2940140527
 51
244.628025486
  0
LINE
  5
422
330
1F
100
AcDbEntity
  8
0
  6
Continuous
 62
     8
370
    25
100
AcDbLine
 10
7.3817675738
 20
4.5012722218
 30
0.0
 11
7.4358940311
 21
4.5231512837
 31
0.0
  0
LINE
  5
423
330
1F
100
AcDbEntity
  8
0
  6
Continuous
 62
     8
370
    25
100
AcDbLine
 10
6.8820145256
 20
4.7957977311
 30
0.0
 11
6.877716856
 21
4.7922545074
 31
0.0
  0
LINE
  5
424
330
1F
100
AcDbEntity
  8
0
  6
Continuous
 62
     8
370
    25
100
AcDbLine
 10
7.3637021742
 20
4.5418841028
 30
0.0
 11
7.4358940311
 21
4.5710655823
 31
0.0
  0
LINE
  5
425
330
1F
100
AcDbEntity
  8
0
  6
Continuous
 62
     8
370
    25
100
AcDbLine
 10
7.4675120344
 20
4.7132933649
 30
0.0
 11
7.4675120344
 21
4.6691660859
 31
0.0
  0
LINE
  5
426
330
1F
100
AcDbEntity
  8
0
  6
Continuous
 62
     8
370
    25
100
AcDbLine
 10
7.1977618795
 20
4.6543143676
 30
0.0
 11
7.1508915663
 21
4.6813720235
 31
0.0
  0
ARC
  5
427
330
1F
100
AcDbEntity
  8
0
  6
Continuous
 62
     8
370
    25
100
AcDbCircle
 10
7.4498922728
 20
4.7801491578
 30
0.0
 40
0.0691386509214777
100
AcDbArc
 50
284.7645055055
 51
351.1769022296
  0
LINE
  5
428
330
1F
100
AcDbEntity
  8
0
  6
Continuous
 62
     8
370
    25
100
AcDbLine
 10
7.4722529371
 20
4.8461286069
 30
0.0
 11
7.4722529371
 21
4.7619164316
 31
0.0
  0
LINE
  5
429
330
1F
100
AcDbEntity
  8
0
  6
Continuous
 62
     8
370
    25
100
AcDbLine
 10
7.1509402275
 20
4.6749611321
 30
0.0
 11
7.1977618795
 21
4.6479315677
 31
0.0
  0
LINE
  5
42A
330
1F
100
AcDbEntity
  8
0
  6
Continuous
 62
     8
370
    25
100
AcDbLine
 10
7.0919742508
 20
4.7153842657
 30
0.0
 11
7.0451039376
 21
4.7424419216
 31
0.0
  0
LINE
  5
42B
330
1F
100
AcDbEntity
  8
0
  6
Continuous
 62
     8
370
    25
100
AcDbLine
 10
7.0451525988
 20
4.7360310303
 30
0.0
 11
7.0919742508
 21
4.7090014659
 31
0.0
  0
LINE
  5
42C
330
1F
100
AcDbEntity
  8
0
  6
Continuous
 62
     8
370
    25
100
AcDbLine
 10
7.1465383962
 20
5.0341596091
 30
0.0
 11
7.1465383962
 21
4.9099652657
 31
0.0
  0
LINE
  5
42D
330
1F
100
AcDbEntity
  8
0
  6
Continuous
 62
     8
370
    25
100
AcDbLine
 10
7.3649331775
 20
4.744131793
 30
0.0
 11
7.3276311074
 21
4.7656658197
 31
0.0
  0
LINE
  5
42E
330
1F
100
AcDbEntity
  8
0
  6
Continuous
 62
     8
370
    25
100
AcDbLine
 10
7.2886547294
 20
4.7881664038
 30
0.0
 11
7.2513526593
 21
4.8097004305
 31
0.0
  0
LINE
  5
42F
330
1F
100
AcDbEntity
  8
0
  6
Continuous
 62
     8
370
    25
100
AcDbLine
 10
7.2123762814
 20
4.8322010145
 30
0.0
 11
7.1750742113
 21
4.8537350412
 31
0.0
  0
LINE
  5
430
330
1F
100
AcDbEntity
  8
0
  6
Continuous
 62
     8
370
    25
100
AcDbLine
 10
6.9861866222
 20
4.7764541639
 30
0.0
 11
6.9393163089
 21
4.8035118198
 31
0.0
  0
ARC
  5
431
330
1F
100
AcDbEntity
  8
0
  6
Continuous
 62
     8
370
    25
100
AcDbCircle
 10
6.9402292705
 20
4.9026198756
 30
0.0
 40
0.0584200622503271
100
AcDbArc
 50
184.8066166959
 51
246.3978405931
  0
LINE
  5
432
330
1F
100
AcDbEntity
  8
0
  6
Continuous
 62
     8
370
    25
100
AcDbLine
 10
7.4362578563
 20
4.7923242835
 30
0.0
 11
7.443022145
 21
4.7884193428
 31
0.0
  0
LINE
  5
433
330
1F
100
AcDbEntity
  8
0
  6
Continuous
 62
     8
370
    25
100
AcDbLine
 10
6.9393649701
 20
4.7971009284
 30
0.0
 11
6.9861866222
 21
4.770071364
 31
0.0
  0
LINE
  5
434
330
1F
100
AcDbEntity
  8
0
  6
Continuous
 62
     8
370
    25
100
AcDbLine
 10
6.9164169526
 20
4.9662801209
 30
0.0
 11
6.9164169526
 21
4.8979706086
 31
0.0
  0
ARC
  5
435
330
1F
100
AcDbEntity
  8
0
  6
Continuous
 62
     8
370
    25
100
AcDbCircle
 10
6.9402550689
 20
4.7732019722
 30
0.0
 40
0.0584571607808433
100
AcDbArc
 50
184.9340074474
 51
246.3861335121
  0
LINE
  5
436
330
1F
100
AcDbEntity
  8
0
  6
Continuous
 62
     8
370
    25
100
AcDbLine
 10
7.443022145
 20
4.7819241769
 30
0.0
 11
7.435069182
 21
4.7865153247
 31
0.0
  0
LINE
  5
437
330
1F
100
AcDbEntity
  8
0
  6
Continuous
 62
     8
370
    25
100
AcDbLine
 10
6.877716856
 20
4.7922545074
 30
0.0
 11
6.8820145256
 21
4.7908766114
 31
0.0
  0
LINE
  5
438
330
1F
100
AcDbEntity
  8
0
  6
Continuous
 62
     8
370
    25
100
AcDbLine
 10
6.9891053992
 20
5.0262082776
 30
0.0
 11
6.9880224436
 21
5.0253579493
 31
0.0
  0
LINE
  5
439
330
1F
100
AcDbEntity
  8
0
  6
Continuous
 62
     8
370
    25
100
AcDbLine
 10
6.9891053992
 20
4.8622570852
 30
0.0
 11
6.9837349341
 21
4.8578293929
 31
0.0
  0
ARC
  5
43A
330
1F
100
AcDbEntity
  8
0
  6
Continuous
 62
     8
370
    25
100
AcDbCircle
 10
7.0788659939
 20
4.7418910373
 30
0.0
 40
0.1453276632034592
100
AcDbArc
 50
66.8080713865
 51
82.1178016343
  0
LINE
  5
43B
330
1F
100
AcDbEntity
  8
0
  6
Continuous
 62
     8
370
    25
100
AcDbLine
 10
7.0598193853
 20
4.8871154764
 30
0.0
 11
7.0487255625
 21
4.8858918949
 31
0.0
  0
ARC
  5
43C
330
1F
100
AcDbEntity
  8
0
  6
Continuous
 62
     8
370
    25
100
AcDbCircle
 10
7.0539743942
 20
4.7794623069
 30
0.0
 40
0.1051806152644581
100
AcDbArc
 50
107.6130861167
 51
128.0783932836
  0
LINE
  5
43D
330
1F
100
AcDbEntity
  8
0
  6
Continuous
 62
     8
370
    25
100
AcDbLine
 10
6.9883860163
 20
4.8551443802
 30
0.0
 11
6.9891053992
 21
4.8622570852
 31
0.0
  0
ARC
  5
43E
330
1F
100
AcDbEntity
  8
0
  6
Continuous
 62
     8
370
    25
100
AcDbCircle
 10
7.0700441173
 20
4.9377685108
 30
0.0
 40
0.0102763921272027
100
AcDbArc
 50
185.7481687204
 51
255.343315387
  0
LINE
  5
43F
330
1F
100
AcDbEntity
  8
0
  6
Continuous
 62
     8
370
    25
100
AcDbLine
 10
7.0776516576
 20
4.9479615814
 30
0.0
 11
7.0809634909
 21
4.9479615814
 31
0.0
  0
LWPOLYLINE
  5
440
330
1F
100
AcDbEntity
  8
0
  6
Continuous
 62
     8
370
    25
100
AcDbPolyline
 90
        8
 70
   128
 43
0.0
 10
7.0987957627
 20
4.9367546727
 10
7.0987540563
 20
4.9360163377
 10
7.0970587596
 20
4.9321090277
 10
7.0930879405
 20
4.9287968968
 10
7.0873506179
 20
4.9265045265
 10
7.0805822585
 20
4.9255257756
 10
7.0736504975
 20
4.92598611
 10
7.0674439165
 20
4.9278265195
  0
ENDSEC
  0
SECTION
  2
OBJECTS
  0
DICTIONARY
  5
C
330
0
100
AcDbDictionary
281
     1
  3
ACAD_GROUP
350
D
  3
ACAD_LAYOUT
350
1A
  3
ACAD_MLINESTYLE
350
17
  3
ACAD_PLOTSETTINGS
350
19
  3
ACAD_PLOTSTYLENAME
350
E
  3
ACAD_SCALELIST
350
47
  0
DICTIONARY
  5
D
102
{ACAD_REACTORS
330
C
102
}
330
C
100
AcDbDictionary
281
     1
  0
DICTIONARY
  5
1A
102
{ACAD_REACTORS
330
C
102
}
330
C
100
AcDbDictionary
281
     1
  3
Layout1
350
1E
  3
Layout2
350
26
  3
Model
350
22
  0
DICTIONARY
  5
17
102
{ACAD_REACTORS
330
C
102
}
330
C
100
AcDbDictionary
281
     1
  3
Standard
350
18
  0
DICTIONARY
  5
19
102
{ACAD_REACTORS
330
C
102
}
330
C
100
AcDbDictionary
281
     1
  0
ACDBDICTIONARYWDFLT
  5
E
102
{ACAD_REACTORS
330
C
102
}
330
C
100
AcDbDictionary
281
     1
  3
Normal
350
F
100
AcDbDictionaryWithDefault
340
F
  0
DICTIONARY
  5
47
102
{ACAD_REACTORS
330
C
102
}
330
C
100
AcDbDictionary
281
     1
  3
A0
350
48
  3
A1
350
49
  3
A2
350
4A
  3
A3
350
4B
  3
A4
350
4C
  3
A5
350
4D
  3
A6
350
4E
  3
A7
350
4F
  3
A8
350
50
  3
A9
350
51
  3
B0
350
52
  3
B1
350
53
  3
B2
350
54
  3
B3
350
55
  3
B4
350
56
  3
B5
350
57
  3
B6
350
58
  3
B7
350
59
  3
B8
350
5A
  3
B9
350
5B
  3
C0
350
5C
  3
C1
350
5D
  3
C2
350
5E
  3
C3
350
5F
  3
C4
350
60
  3
C5
350
61
  3
C6
350
62
  3
C7
350
63
  3
C8
350
64
  3
C9
350
65
  3
D0
350
66
  3
D1
350
67
  3
D2
350
68
  0
LAYOUT
  5
1E
102
{ACAD_REACTORS
330
1A
102
}
330
1A
100
AcDbPlotSettings
  1

  2
none_device
  4

  6

 40
0.0
 41
0.0
 42
0.0
 43
0.0
 44
0.0
 45
0.0
 46
0.0
 47
0.0
 48
0.0
 49
0.0
140
0.0
141
0.0
142
1.0
143
1.0
 70
   688
 72
     0
 73
     0
 74
     5
  7

 75
    16
147
1.0
148
0.0
149
0.0
100
AcDbLayout
  1
Layout1
 70
     1
 71
     1
 10
0.0
 20
0.0
 11
12.0
 21
9.0
 12
0.0
 22
0.0
 32
0.0
 14
1.0000000000E+20
 24
1.0000000000E+20
 34
1.0000000000E+20
 15
-1.0000000000E+20
 25
-1.0000000000E+20
 35
-1.0000000000E+20
146
0.0
 13
0.0
 23
0.0
 33
0.0
 16
1.0
 26
0.0
 36
0.0
 17
0.0
 27
1.0
 37
0.0
 76
     0
330
1B
  0
LAYOUT
  5
26
102
{ACAD_REACTORS
330
1A
102
}
330
1A
100
AcDbPlotSettings
  1

  2
none_device
  4

  6

 40
0.0
 41
0.0
 42
0.0
 43
0.0
 44
0.0
 45
0.0
 46
0.0
 47
0.0
 48
0.0
 49
0.0
140
0.0
141
0.0
142
1.0
143
1.0
 70
   688
 72
     0
 73
     0
 74
     5
  7

 75
    16
147
1.0
148
0.0
149
0.0
100
AcDbLayout
  1
Layout2
 70
     1
 71
     2
 10
0.0
 20
0.0
 11
0.0
 21
0.0
 12
0.0
 22
0.0
 32
0.0
 14
0.0
 24
0.0
 34
0.0
 15
0.0
 25
0.0
 35
0.0
146
0.0
 13
0.0
 23
0.0
 33
0.0
 16
1.0
 26
0.0
 36
0.0
 17
0.0
 27
1.0
 37
0.0
 76
     0
330
23
  0
LAYOUT
  5
22
102
{ACAD_REACTORS
330
1A
102
}
330
1A
100
AcDbPlotSettings
  1

  2
none_device
  4
Letter_(8.50_x_11.00_Inches)
  6

 40
6.35
 41
6.35
 42
6.35000508
 43
6.35000508
 44
215.9
 45
279.4
 46
0.0
 47
0.0
 48
0.0
 49
0.0
140
0.0
141
0.0
142
1.0
143
1.0
 70
  1712
 72
     0
 73
     0
 74
     0
  7

 75
     0
147
1.0
148
0.0
149
0.0
100
AcDbLayout
  1
Model
 70
     1
 71
     0
 10
0.0
 20
0.0
 11
11.0
 21
8.5
 12
0.0
 22
0.0
 32
0.0
 14
0.0
 24
0.0
 34
0.0
 15
11.0
 25
8.5
 35
0.0
146
0.0
 13
0.0
 23
0.0
 33
0.0
 16
1.0
 26
0.0
 36
0.0
 17
0.0
 27
1.0
 37
0.0
 76
     0
330
1F
331
29
  0
MLINESTYLE
  5
18
102
{ACAD_REACTORS
330
17
102
}
330
17
100
AcDbMlineStyle
  2
Standard
 70
     0
  3

 62
   256
 51
90.0
 52
90.0
 71
     2
 49
0.5
 62
   256
  6
BYLAYER
 49
-0.5
 62
   256
  6
BYLAYER
  0
ACDBPLACEHOLDER
  5
F
102
{ACAD_REACTORS
330
E
102
}
330
E
  0
SCALE
  5
48
102
{ACAD_REACTORS
330
47
102
}
330
47
100
AcDbScale
 70
     0
300
1:1
140
1.0
141
1.0
290
     1
  0
SCALE
  5
49
102
{ACAD_REACTORS
330
47
102
}
330
47
100
AcDbScale
 70
     0
300
1:2
140
1.0
141
2.0
290
     0
  0
SCALE
  5
4A
102
{ACAD_REACTORS
330
47
102
}
330
47
100
AcDbScale
 70
     0
300
1:4
140
1.0
141
4.0
290
     0
  0
SCALE
  5
4B
102
{ACAD_REACTORS
330
47
102
}
330
47
100
AcDbScale
 70
     0
300
1:5
140
1.0
141
5.0
290
     0
  0
SCALE
  5
4C
102
{ACAD_REACTORS
330
47
102
}
330
47
100
AcDbScale
 70
     0
300
1:8
140
1.0
141
8.0
290
     0
  0
SCALE
  5
4D
102
{ACAD_REACTORS
330
47
102
}
330
47
100
AcDbScale
 70
     0
300
1:10
140
1.0
141
10.0
290
     0
  0
SCALE
  5
4E
102
{ACAD_REACTORS
330
47
102
}
330
47
100
AcDbScale
 70
     0
300
1:16
140
1.0
141
16.0
290
     0
  0
SCALE
  5
4F
102
{ACAD_REACTORS
330
47
102
}
330
47
100
AcDbScale
 70
     0
300
1:20
140
1.0
141
20.0
290
     0
  0
SCALE
  5
50
102
{ACAD_REACTORS
330
47
102
}
330
47
100
AcDbScale
 70
     0
300
1:30
140
1.0
141
30.0
290
     0
  0
SCALE
  5
51
102
{ACAD_REACTORS
330
47
102
}
330
47
100
AcDbScale
 70
     0
300
1:40
140
1.0
141
40.0
290
     0
  0
SCALE
  5
52
102
{ACAD_REACTORS
330
47
102
}
330
47
100
AcDbScale
 70
     0
300
1:50
140
1.0
141
50.0
290
     0
  0
SCALE
  5
53
102
{ACAD_REACTORS
330
47
102
}
330
47
100
AcDbScale
 70
     0
300
1:100
140
1.0
141
100.0
290
     0
  0
SCALE
  5
54
102
{ACAD_REACTORS
330
47
102
}
330
47
100
AcDbScale
 70
     0
300
2:1
140
2.0
141
1.0
290
     0
  0
SCALE
  5
55
102
{ACAD_REACTORS
330
47
102
}
330
47
100
AcDbScale
 70
     0
300
4:1
140
4.0
141
1.0
290
     0
  0
SCALE
  5
56
102
{ACAD_REACTORS
330
47
102
}
330
47
100
AcDbScale
 70
     0
300
8:1
140
8.0
141
1.0
290
     0
  0
SCALE
  5
57
102
{ACAD_REACTORS
330
47
102
}
330
47
100
AcDbScale
 70
     0
300
10:1
140
10.0
141
1.0
290
     0
  0
SCALE
  5
58
102
{ACAD_REACTORS
330
47
102
}
330
47
100
AcDbScale
 70
     0
300
100:1
140
100.0
141
1.0
290
     0
  0
SCALE
  5
59
102
{ACAD_REACTORS
330
47
102
}
330
47
100
AcDbScale
 70
     0
300
1/128" = 1'-0"
140
0.0078125
141
12.0
290
     0
  0
SCALE
  5
5A
102
{ACAD_REACTORS
330
47
102
}
330
47
100
AcDbScale
 70
     0
300
1/64" = 1'-0"
140
0.015625
141
12.0
290
     0
  0
SCALE
  5
5B
102
{ACAD_REACTORS
330
47
102
}
330
47
100
AcDbScale
 70
     0
300
1/32" = 1'-0"
140
0.03125
141
12.0
290
     0
  0
SCALE
  5
5C
102
{ACAD_REACTORS
330
47
102
}
330
47
100
AcDbScale
 70
     0
300
1/16" = 1'-0"
140
0.0625
141
12.0
290
     0
  0
SCALE
  5
5D
102
{ACAD_REACTORS
330
47
102
}
330
47
100
AcDbScale
 70
     0
300
3/32" = 1'-0"
140
0.09375
141
12.0
290
     0
  0
SCALE
  5
5E
102
{ACAD_REACTORS
330
47
102
}
330
47
100
AcDbScale
 70
     0
300
1/8" = 1'-0"
140
0.125
141
12.0
290
     0
  0
SCALE
  5
5F
102
{ACAD_REACTORS
330
47
102
}
330
47
100
AcDbScale
 70
     0
300
3/16" = 1'-0"
140
0.1875
141
12.0
290
     0
  0
SCALE
  5
60
102
{ACAD_REACTORS
330
47
102
}
330
47
100
AcDbScale
 70
     0
300
1/4" = 1'-0"
140
0.25
141
12.0
290
     0
  0
SCALE
  5
61
102
{ACAD_REACTORS
330
47
102
}
330
47
100
AcDbScale
 70
     0
300
3/8" = 1'-0"
140
0.375
141
12.0
290
     0
  0
SCALE
  5
62
102
{ACAD_REACTORS
330
47
102
}
330
47
100
AcDbScale
 70
     0
300
1/2" = 1'-0"
140
0.5
141
12.0
290
     0
  0
SCALE
  5
63
102
{ACAD_REACTORS
330
47
102
}
330
47
100
AcDbScale
 70
     0
300
3/4" = 1'-0"
140
0.75
141
12.0
290
     0
  0
SCALE
  5
64
102
{ACAD_REACTORS
330
47
102
}
330
47
100
AcDbScale
 70
     0
300
1" = 1'-0"
140
1.0
141
12.0
290
     0
  0
SCALE
  5
65
102
{ACAD_REACTORS
330
47
102
}
330
47
100
AcDbScale
 70
     0
300
1-1/2" = 1'-0"
140
1.5
141
12.0
290
     0
  0
SCALE
  5
66
102
{ACAD_REACTORS
330
47
102
}
330
47
100
AcDbScale
 70
     0
300
3" = 1'-0"
140
3.0
141
12.0
290
     0
  0
SCALE
  5
67
102
{ACAD_REACTORS
330
47
102
}
330
47
100
AcDbScale
 70
     0
300
6" = 1'-0"
140
6.0
141
12.0
290
     0
  0
SCALE
  5
68
102
{ACAD_REACTORS
330
47
102
}
330
47
100
AcDbScale
 70
     0
300
1'-0" = 1'-0"
140
12.0
141
12.0
290
     0
  0
ENDSEC
  0
EOF
