  0
SECTION
  2
HEADER
  9
$ACADVER
  1
AC1015
  9
$ACADMAINTVER
 70
     6
  9
$DWGCODEPAGE
  3
ANSI_1252
  9
$INSBASE
 10
0.0
 20
0.0
 30
0.0
  9
$EXTMIN
 10
0.0
 20
0.0
 30
0.0
  9
$EXTMAX
 10
8.5
 20
11.0
 30
0.0
  9
$LIMMIN
 10
0.0
 20
0.0
  9
$LIMMAX
 10
8.5
 20
11.0
  9
$ORTHOMODE
 70
     0
  9
$REGENMODE
 70
     1
  9
$FILLMODE
 70
     1
  9
$QTEXTMODE
 70
     0
  9
$MIRRTEXT
 70
     1
  9
$LTSCALE
 40
1.0
  9
$ATTMODE
 70
     1
  9
$TEXTSIZE
 40
0.09
  9
$TRACEWID
 40
0.05
  9
$TEXTSTYLE
  7
Standard
  9
$CLAYER
  8
0
  9
$CELTYPE
  6
ByLayer
  9
$CECOLOR
 62
   256
  9
$CELTSCALE
 40
1.0
  9
$DISPSILH
 70
     0
  9
$DIMSCALE
 40
1.0
  9
$DIMASZ
 40
0.13
  9
$DIMEXO
 40
0.05
  9
$DIMDLI
 40
0.38
  9
$DIMRND
 40
0.0
  9
$DIMDLE
 40
0.0
  9
$DIMEXE
 40
0.125
  9
$DIMTP
 40
0.0
  9
$DIMTM
 40
0.0
  9
$DIMTXT
 40
0.09
  9
$DIMCEN
 40
0.09
  9
$DIMTSZ
 40
0.0
  9
$DIMTOL
 70
     0
  9
$DIMLIM
 70
     0
  9
$DIMTIH
 70
     1
  9
$DIMTOH
 70
     1
  9
$DIMSE1
 70
     0
  9
$DIMSE2
 70
     0
  9
$DIMTAD
 70
     1
  9
$DIMZIN
 70
     1
  9
$DIMBLK
  1

  9
$DIMASO
 70
     1
  9
$DIMSHO
 70
     1
  9
$DIMPOST
  1

  9
$DIMAPOST
  1

  9
$DIMALT
 70
     0
  9
$DIMALTD
 70
     2
  9
$DIMALTF
 40
25.4
  9
$DIMLFAC
 40
1.0
  9
$DIMTOFL
 70
     0
  9
$DIMTVP
 40
0.0
  9
$DIMTIX
 70
     0
  9
$DIMSOXD
 70
     0
  9
$DIMSAH
 70
     0
  9
$DIMBLK1
  1

  9
$DIMBLK2
  1

  9
$DIMSTYLE
  2
Standard
  9
$DIMCLRD
 70
     0
  9
$DIMCLRE
 70
     0
  9
$DIMCLRT
 70
     0
  9
$DIMTFAC
 40
1.0
  9
$DIMGAP
 40
0.06
  9
$DIMJUST
 70
     0
  9
$DIMSD1
 70
     0
  9
$DIMSD2
 70
     0
  9
$DIMTOLJ
 70
     1
  9
$DIMTZIN
 70
     1
  9
$DIMALTZ
 70
     0
  9
$DIMALTTZ
 70
     0
  9
$DIMUPT
 70
     0
  9
$DIMDEC
 70
     3
  9
$DIMTDEC
 70
     3
  9
$DIMALTU
 70
     2
  9
$DIMALTTD
 70
     2
  9
$DIMTXSTY
  7
Standard
  9
$DIMAUNIT
 70
     0
  9
$DIMADEC
 70
     3
  9
$DIMALTRND
 40
0.0
  9
$DIMAZIN
 70
     0
  9
$DIMDSEP
 70
    46
  9
$DIMATFIT
 70
     3
  9
$DIMFRAC
 70
     0
  9
$DIMLDRBLK
  1

  9
$DIMLUNIT
 70
     2
  9
$DIMLWD
 70
    -2
  9
$DIMLWE
 70
    -2
  9
$DIMTMOVE
 70
     0
  9
$LUNITS
 70
     2
  9
$LUPREC
 70
     3
  9
$SKETCHINC
 40
0.1
  9
$FILLETRAD
 40
0.5
  9
$AUNITS
 70
     0
  9
$AUPREC
 70
     2
  9
$MENU
  1
.
  9
$ELEVATION
 40
0.0
  9
$PELEVATION
 40
0.0
  9
$THICKNESS
 40
0.0
  9
$LIMCHECK
 70
     0
  9
$CHAMFERA
 40
0.0
  9
$CHAMFERB
 40
0.0
  9
$CHAMFERC
 40
0.0
  9
$CHAMFERD
 40
0.0
  9
$SKPOLY
 70
     0
  9
$TDCREATE
 40
2458159.643245
  9
$TDUCREATE
 40
2458159.851578333
  9
$TDUPDATE
 40
2458159.643245996
  9
$TDUUPDATE
 40
2458159.851579329
  9
$TDINDWG
 40
0.0000000116
  9
$TDUSRTIMER
 40
0.0000000116
  9
$USRTIMER
 70
     1
  9
$ANGBASE
 50
0.0
  9
$ANGDIR
 70
     0
  9
$PDMODE
 70
     0
  9
$PDSIZE
 40
-1.0
  9
$PLINEWID
 40
0.0
  9
$SPLFRAME
 70
     0
  9
$SPLINETYPE
 70
     6
  9
$SPLINESEGS
 70
     8
  9
$HANDSEED
  5
315
  9
$SURFTAB1
 70
     6
  9
$SURFTAB2
 70
     6
  9
$SURFTYPE
 70
     6
  9
$SURFU
 70
     6
  9
$SURFV
 70
     6
  9
$UCSBASE
  2

  9
$UCSNAME
  2

  9
$UCSORG
 10
0.0
 20
0.0
 30
0.0
  9
$UCSXDIR
 10
1.0
 20
0.0
 30
0.0
  9
$UCSYDIR
 10
0.0
 20
1.0
 30
0.0
  9
$UCSORTHOREF
  2

  9
$UCSORTHOVIEW
 70
     0
  9
$UCSORGTOP
 10
0.0
 20
0.0
 30
0.0
  9
$UCSORGBOTTOM
 10
0.0
 20
0.0
 30
0.0
  9
$UCSORGLEFT
 10
0.0
 20
0.0
 30
0.0
  9
$UCSORGRIGHT
 10
0.0
 20
0.0
 30
0.0
  9
$UCSORGFRONT
 10
0.0
 20
0.0
 30
0.0
  9
$UCSORGBACK
 10
0.0
 20
0.0
 30
0.0
  9
$PUCSBASE
  2

  9
$PUCSNAME
  2

  9
$PUCSORG
 10
0.0
 20
0.0
 30
0.0
  9
$PUCSXDIR
 10
1.0
 20
0.0
 30
0.0
  9
$PUCSYDIR
 10
0.0
 20
1.0
 30
0.0
  9
$PUCSORTHOREF
  2

  9
$PUCSORTHOVIEW
 70
     0
  9
$PUCSORGTOP
 10
0.0
 20
0.0
 30
0.0
  9
$PUCSORGBOTTOM
 10
0.0
 20
0.0
 30
0.0
  9
$PUCSORGLEFT
 10
0.0
 20
0.0
 30
0.0
  9
$PUCSORGRIGHT
 10
0.0
 20
0.0
 30
0.0
  9
$PUCSORGFRONT
 10
0.0
 20
0.0
 30
0.0
  9
$PUCSORGBACK
 10
0.0
 20
0.0
 30
0.0
  9
$USERI1
 70
     0
  9
$USERI2
 70
     0
  9
$USERI3
 70
     0
  9
$USERI4
 70
     0
  9
$USERI5
 70
     0
  9
$USERR1
 40
0.0
  9
$USERR2
 40
0.0
  9
$USERR3
 40
0.0
  9
$USERR4
 40
0.0
  9
$USERR5
 40
0.0
  9
$WORLDVIEW
 70
     1
  9
$SHADEDGE
 70
     3
  9
$SHADEDIF
 70
    70
  9
$TILEMODE
 70
     1
  9
$MAXACTVP
 70
    64
  9
$PINSBASE
 10
0.0
 20
0.0
 30
0.0
  9
$PLIMCHECK
 70
     0
  9
$PEXTMIN
 10
1.0000000000E+20
 20
1.0000000000E+20
 30
1.0000000000E+20
  9
$PEXTMAX
 10
-1.0000000000E+20
 20
-1.0000000000E+20
 30
-1.0000000000E+20
  9
$PLIMMIN
 10
0.0
 20
0.0
  9
$PLIMMAX
 10
12.0
 20
9.0
  9
$UNITMODE
 70
     0
  9
$VISRETAIN
 70
     1
  9
$PLINEGEN
 70
     0
  9
$PSLTSCALE
 70
     1
  9
$TREEDEPTH
 70
  3020
  9
$CMLSTYLE
  2
Standard
  9
$CMLJUST
 70
     0
  9
$CMLSCALE
 40
1.0
  9
$PROXYGRAPHICS
 70
     1
  9
$MEASUREMENT
 70
     0
  9
$CELWEIGHT
370
    -1
  9
$ENDCAPS
280
     0
  9
$JOINSTYLE
280
     0
  9
$LWDISPLAY
290
     1
  9
$INSUNITS
 70
     1
  9
$HYPERLINKBASE
  1

  9
$STYLESHEET
  1

  9
$XEDIT
290
     1
  9
$CEPSNTYPE
380
     0
  9
$PSTYLEMODE
290
     1
  9
$FINGERPRINTGUID
  2
{832D1A3B-6B9F-4B95-BE3E-ED7364FC1110}
  9
$VERSIONGUID
  2
{FAEB1C32-E019-11D5-929B-00C0DF256EC4}
  9
$EXTNAMES
290
     1
  9
$PSVPSCALE
 40
0.0
  9
$OLESTARTUP
290
     0
  0
ENDSEC
  0
SECTION
  2
CLASSES
  0
CLASS
  1
ACDBDICTIONARYWDFLT
  2
AcDbDictionaryWithDefault
  3
ObjectDBX Classes
 90
        0
280
     0
281
     0
  0
CLASS
  1
VISUALSTYLE
  2
AcDbVisualStyle
  3
ObjectDBX Classes
 90
     4095
280
     0
281
     0
  0
CLASS
  1
MATERIAL
  2
AcDbMaterial
  3
ObjectDBX Classes
 90
     1153
280
     0
281
     0
  0
CLASS
  1
SCALE
  2
AcDbScale
  3
ObjectDBX Classes
 90
     1153
280
     0
281
     0
  0
CLASS
  1
TABLESTYLE
  2
AcDbTableStyle
  3
ObjectDBX Classes
 90
     4095
280
     0
281
     0
  0
CLASS
  1
MLEADERSTYLE
  2
AcDbMLeaderStyle
  3
ACDB_MLEADERSTYLE_CLASS
 90
     4095
280
     0
281
     0
  0
CLASS
  1
SUN
  2
AcDbSun
  3
SCENEOE
 90
     1153
280
     0
281
     0
  0
CLASS
  1
ACDBPLACEHOLDER
  2
AcDbPlaceHolder
  3
ObjectDBX Classes
 90
        0
280
     0
281
     0
  0
CLASS
  1
LAYOUT
  2
AcDbLayout
  3
ObjectDBX Classes
 90
        0
280
     0
281
     0
  0
ENDSEC
  0
SECTION
  2
TABLES
  0
TABLE
  2
VPORT
  5
8
330
0
100
AcDbSymbolTable
 70
     1
  0
VPORT
  5
29
330
8
100
AcDbSymbolTableRecord
100
AcDbViewportTableRecord
  2
*Active
 70
     0
 10
0.0
 20
0.0
 11
1.0
 21
1.0
 12
4.25
 22
5.5
 13
0.0
 23
0.0
 14
0.5
 24
0.5
 15
0.5
 25
0.5
 16
0.0
 26
0.0
 36
1.0
 17
0.0
 27
0.0
 37
0.0
 40
11.0
 41
0.7727272727
 42
50.0
 43
0.0
 44
0.0
 50
0.0
 51
0.0
 71
     0
 72
  2000
 73
     1
 74
     3
 75
     0
 76
     0
 77
     0
 78
     0
281
     0
 65
     1
110
0.0
120
0.0
130
0.0
111
1.0
121
0.0
131
0.0
112
0.0
122
1.0
132
0.0
 79
     0
146
0.0
  0
ENDTAB
  0
TABLE
  2
LTYPE
  5
5
330
0
100
AcDbSymbolTable
 70
     6
  0
LTYPE
  5
14
330
5
100
AcDbSymbolTableRecord
100
AcDbLinetypeTableRecord
  2
ByBlock
 70
     0
  3

 72
    65
 73
     0
 40
0.0
  0
LTYPE
  5
15
330
5
100
AcDbSymbolTableRecord
100
AcDbLinetypeTableRecord
  2
ByLayer
 70
     0
  3

 72
    65
 73
     0
 40
0.0
  0
LTYPE
  5
16
330
5
100
AcDbSymbolTableRecord
100
AcDbLinetypeTableRecord
  2
Continuous
 70
     0
  3
Solid line
 72
    65
 73
     0
 40
0.0
  0
LTYPE
  5
6E
330
5
100
AcDbSymbolTableRecord
100
AcDbLinetypeTableRecord
  2
HIDDEN
 70
     0
  3
Hidden __ __ __ __ __ __ __ __ __ __ __ __ __ __
 72
    65
 73
     2
 40
0.075
 49
0.05
 74
     0
 49
-0.025
 74
     0
  0
LTYPE
  5
6F
330
5
100
AcDbSymbolTableRecord
100
AcDbLinetypeTableRecord
  2
PHANTOM
 70
     0
  3
Phantom ______  __  __  ______  __  __  ______
 72
    65
 73
     6
 40
0.5
 49
0.25
 74
     0
 49
-0.05
 74
     0
 49
0.05
 74
     0
 49
-0.05
 74
     0
 49
0.05
 74
     0
 49
-0.05
 74
     0
  0
LTYPE
  5
70
330
5
100
AcDbSymbolTableRecord
100
AcDbLinetypeTableRecord
  2
CENTER
 70
     0
  3
Center ____ _ ____ _ ____ _ ____ _ ____ _ ____
 72
    65
 73
     4
 40
0.4
 49
0.25
 74
     0
 49
-0.05
 74
     0
 49
0.05
 74
     0
 49
-0.05
 74
     0
  0
LTYPE
  5
71
330
5
100
AcDbSymbolTableRecord
100
AcDbLinetypeTableRecord
  2
CENTERX2
 70
     0
  3
Center (2x) ________  __  ________  __  _____
 72
    65
 73
     4
 40
0.8
 49
0.5
 74
     0
 49
-0.1
 74
     0
 49
0.1
 74
     0
 49
-0.1
 74
     0
  0
LTYPE
  5
72
330
5
100
AcDbSymbolTableRecord
100
AcDbLinetypeTableRecord
  2
DOT2
 70
     0
  3
Dot (.5x) ........................................
 72
    65
 73
     2
 40
0.025
 49
0.0
 74
     0
 49
-0.025
 74
     0
  0
ENDTAB
  0
TABLE
  2
LAYER
  5
2
330
0
100
AcDbSymbolTable
 70
     5
  0
LAYER
  5
10
330
2
100
AcDbSymbolTableRecord
100
AcDbLayerTableRecord
  2
0
 70
     0
 62
     7
  6
Continuous
370
    -3
390
F
  0
LAYER
  5
73
330
2
100
AcDbSymbolTableRecord
100
AcDbLayerTableRecord
  2
SLD-0
 70
     0
 62
   179
  6
Continuous
370
    -3
390
F
  0
LAYER
  5
74
330
2
100
AcDbSymbolTableRecord
100
AcDbLayerTableRecord
  2
3
 70
     0
 62
     7
  6
Continuous
370
    -3
390
F
  0
LAYER
  5
75
330
2
100
AcDbSymbolTableRecord
100
AcDbLayerTableRecord
  2
1
 70
     0
 62
   179
  6
Continuous
370
    -3
390
F
  0
LAYER
  5
76
330
2
100
AcDbSymbolTableRecord
100
AcDbLayerTableRecord
  2
FORMAT
 70
     0
 62
     7
  6
Continuous
370
    -3
390
F
  0
ENDTAB
  0
TABLE
  2
STYLE
  5
3
330
0
100
AcDbSymbolTable
 70
     1
  0
STYLE
  5
11
330
3
100
AcDbSymbolTableRecord
100
AcDbTextStyleTableRecord
  2
Standard
 70
     0
 40
0.0
 41
1.0
 50
0.0
 71
     0
 42
0.09
  3
txt
  4

  0
ENDTAB
  0
TABLE
  2
VIEW
  5
6
330
0
100
AcDbSymbolTable
 70
     0
  0
ENDTAB
  0
TABLE
  2
UCS
  5
7
330
0
100
AcDbSymbolTable
 70
     0
  0
ENDTAB
  0
TABLE
  2
APPID
  5
9
330
0
100
AcDbSymbolTable
 70
     1
  0
APPID
  5
12
330
9
100
AcDbSymbolTableRecord
100
AcDbRegAppTableRecord
  2
ACAD
 70
     0
  0
ENDTAB
  0
TABLE
  2
DIMSTYLE
  5
A
330
0
100
AcDbSymbolTable
 70
     1
100
AcDbDimStyleTable
  0
DIMSTYLE
105
27
330
A
100
AcDbSymbolTableRecord
100
AcDbDimStyleTableRecord
  2
Standard
 70
     0
178
     0
340
11
  0
ENDTAB
  0
TABLE
  2
BLOCK_RECORD
  5
1
330
0
100
AcDbSymbolTable
 70
     1
  0
BLOCK_RECORD
  5
1F
330
1
100
AcDbSymbolTableRecord
100
AcDbBlockTableRecord
  2
*Model_Space
340
22
  0
BLOCK_RECORD
  5
1B
330
1
100
AcDbSymbolTableRecord
100
AcDbBlockTableRecord
  2
*Paper_Space
340
1E
  0
BLOCK_RECORD
  5
23
330
1
100
AcDbSymbolTableRecord
100
AcDbBlockTableRecord
  2
*Paper_Space0
340
26
  0
ENDTAB
  0
ENDSEC
  0
SECTION
  2
BLOCKS
  0
BLOCK
  5
20
330
1F
100
AcDbEntity
  8
0
100
AcDbBlockBegin
  2
*Model_Space
 70
     0
 10
0.0
 20
0.0
 30
0.0
  3
*Model_Space
  1

  0
ENDBLK
  5
21
330
1F
100
AcDbEntity
  8
0
100
AcDbBlockEnd
  0
BLOCK
  5
1C
330
1B
100
AcDbEntity
 67
     1
  8
0
100
AcDbBlockBegin
  2
*Paper_Space
 70
     0
 10
0.0
 20
0.0
 30
0.0
  3
*Paper_Space
  1

  0
ENDBLK
  5
1D
330
1B
100
AcDbEntity
 67
     1
  8
0
100
AcDbBlockEnd
  0
BLOCK
  5
24
330
23
100
AcDbEntity
  8
0
100
AcDbBlockBegin
  2
*Paper_Space0
 70
     0
 10
0.0
 20
0.0
 30
0.0
  3
*Paper_Space0
  1

  0
ENDBLK
  5
25
330
23
100
AcDbEntity
  8
0
100
AcDbBlockEnd
  0
ENDSEC
  0
SECTION
  2
ENTITIES
  0
LINE
  5
77
330
1F
100
AcDbEntity
  8
0
  6
Continuous
 62
     7
370
    25
100
AcDbLine
 10
5.127354963
 20
3.8729583952
 30
0.0
 11
5.127354963
 21
5.4479583952
 31
0.0
  0
LINE
  5
78
330
1F
100
AcDbEntity
  8
0
  6
Continuous
 62
     7
370
    25
100
AcDbLine
 10
4.287354963
 20
5.4479583952
 30
0.0
 11
4.287354963
 21
3.8729583952
 31
0.0
  0
LINE
  5
79
330
1F
100
AcDbEntity
  8
0
  6
Continuous
 62
     7
370
    25
100
AcDbLine
 10
4.493854963
 20
5.7499583952
 30
0.0
 11
4.493854963
 21
5.7919583952
 31
0.0
  0
LINE
  5
7A
330
1F
100
AcDbEntity
  8
0
  6
Continuous
 62
     7
370
    25
100
AcDbLine
 10
4.326854963
 20
5.7919583952
 30
0.0
 11
4.326854963
 21
5.7499583952
 31
0.0
  0
ARC
  5
7B
330
1F
100
AcDbEntity
  8
0
  6
Continuous
 62
     7
370
    25
100
AcDbCircle
 10
4.346854963
 20
5.7919583952
 30
0.0
 40
0.0199999999999996
100
AcDbArc
 50
90.0
 51
180.0
  0
ARC
  5
7C
330
1F
100
AcDbEntity
  8
0
  6
Continuous
 62
     7
370
    25
100
AcDbCircle
 10
4.473854963
 20
5.7919583952
 30
0.0
 40
0.0199999999999996
100
AcDbArc
 50
0.0
 51
90.0
  0
LINE
  5
7D
330
1F
100
AcDbEntity
  8
0
  6
Continuous
 62
     7
370
    25
100
AcDbLine
 10
4.427354963
 20
2.9159583952
 30
0.0
 11
4.427354963
 21
2.4859583952
 31
0.0
  0
LINE
  5
7E
330
1F
100
AcDbEntity
  8
0
  6
Continuous
 62
     7
370
    25
100
AcDbLine
 10
4.987354963
 20
2.4859583952
 30
0.0
 11
4.987354963
 21
2.9159583952
 31
0.0
  0
LINE
  5
7F
330
1F
100
AcDbEntity
  8
0
  6
Continuous
 62
     7
370
    25
100
AcDbLine
 10
4.287354963
 20
5.6879583952
 30
0.0
 11
4.287354963
 21
5.4479583952
 31
0.0
  0
LINE
  5
80
330
1F
100
AcDbEntity
  8
0
  6
Continuous
 62
     7
370
    25
100
AcDbLine
 10
5.127354963
 20
5.4479583952
 30
0.0
 11
5.127354963
 21
5.6879583952
 31
0.0
  0
LINE
  5
81
330
1F
100
AcDbEntity
  8
0
  6
Continuous
 62
     7
370
    25
100
AcDbLine
 10
4.457354963
 20
2.4779583952
 30
0.0
 11
4.457354963
 21
2.4239583952
 31
0.0
  0
LINE
  5
82
330
1F
100
AcDbEntity
  8
0
  6
Continuous
 62
     7
370
    25
100
AcDbLine
 10
4.957354963
 20
2.4239583952
 30
0.0
 11
4.957354963
 21
2.4779583952
 31
0.0
  0
LINE
  5
83
330
1F
100
AcDbEntity
  8
0
  6
Continuous
 62
     7
370
    25
100
AcDbLine
 10
4.957354963
 20
2.4779583952
 30
0.0
 11
4.949354963
 21
2.4859583952
 31
0.0
  0
LINE
  5
84
330
1F
100
AcDbEntity
  8
0
  6
Continuous
 62
     7
370
    25
100
AcDbLine
 10
4.465354963
 20
2.4859583952
 30
0.0
 11
4.457354963
 21
2.4779583952
 31
0.0
  0
LINE
  5
85
330
1F
100
AcDbEntity
  8
0
  6
Continuous
 62
     7
370
    25
100
AcDbLine
 10
4.457354963
 20
2.4239583952
 30
0.0
 11
4.465354963
 21
2.4159583952
 31
0.0
  0
LINE
  5
86
330
1F
100
AcDbEntity
  8
0
  6
Continuous
 62
     7
370
    25
100
AcDbLine
 10
4.949354963
 20
2.4159583952
 30
0.0
 11
4.957354963
 21
2.4239583952
 31
0.0
  0
LINE
  5
87
330
1F
100
AcDbEntity
  8
0
  6
Continuous
 62
     7
370
    25
100
AcDbLine
 10
4.931354963
 20
2.3279583952
 30
0.0
 11
4.931354963
 21
2.4159583952
 31
0.0
  0
LINE
  5
88
330
1F
100
AcDbEntity
  8
0
  6
Continuous
 62
     7
370
    25
100
AcDbLine
 10
4.483354963
 20
2.4159583952
 30
0.0
 11
4.483354963
 21
2.3279583952
 31
0.0
  0
ARC
  5
89
330
1F
100
AcDbEntity
  8
0
  6
Continuous
 62
     7
370
    25
100
AcDbCircle
 10
4.552354963
 20
2.3279583952
 30
0.0
 40
0.0300000000000002
100
AcDbArc
 50
180.0
 51
270.0
  0
ARC
  5
8A
330
1F
100
AcDbEntity
  8
0
  6
Continuous
 62
     7
370
    25
100
AcDbCircle
 10
4.862354963
 20
2.3279583952
 30
0.0
 40
0.0300000000000002
100
AcDbArc
 50
270.0
 51
360.0
  0
LINE
  5
8B
330
1F
100
AcDbEntity
  8
0
  6
Continuous
 62
     7
370
    25
100
AcDbLine
 10
4.552354963
 20
2.2979583952
 30
0.0
 11
4.862354963
 21
2.2979583952
 31
0.0
  0
LINE
  5
8C
330
1F
100
AcDbEntity
  8
0
  6
Continuous
 62
     7
370
    25
100
AcDbLine
 10
4.519854963
 20
3.4879583952
 30
0.0
 11
4.519854963
 21
3.1959583952
 31
0.0
  0
LINE
  5
8D
330
1F
100
AcDbEntity
  8
0
  6
Continuous
 62
     7
370
    25
100
AcDbLine
 10
4.894854963
 20
3.1959583952
 30
0.0
 11
4.894854963
 21
3.4879583952
 31
0.0
  0
LINE
  5
8E
330
1F
100
AcDbEntity
  8
0
  6
Continuous
 62
     7
370
    25
100
AcDbLine
 10
4.942854963
 20
5.8119583952
 30
0.0
 11
4.942854963
 21
6.1779583952
 31
0.0
  0
LINE
  5
8F
330
1F
100
AcDbEntity
  8
0
  6
Continuous
 62
     7
370
    25
100
AcDbLine
 10
4.471854963
 20
6.1779583952
 30
0.0
 11
4.471854963
 21
5.8119583952
 31
0.0
  0
LINE
  5
90
330
1F
100
AcDbEntity
  8
0
  6
Continuous
 62
     7
370
    25
100
AcDbLine
 10
4.9569676102
 20
6.1129583952
 30
0.0
 11
4.942854963
 21
6.1129583952
 31
0.0
  0
LINE
  5
91
330
1F
100
AcDbEntity
  8
0
  6
Continuous
 62
     7
370
    25
100
AcDbLine
 10
4.942854963
 20
6.0339583952
 30
0.0
 11
4.9569676102
 21
6.0339583952
 31
0.0
  0
LINE
  5
92
330
1F
100
AcDbEntity
  8
0
  6
Continuous
 62
     7
370
    25
100
AcDbLine
 10
4.4711273587
 20
6.0339583952
 30
0.0
 11
4.471854963
 21
6.0339583952
 31
0.0
  0
LINE
  5
93
330
1F
100
AcDbEntity
  8
0
  6
Continuous
 62
     7
370
    25
100
AcDbLine
 10
4.471854963
 20
6.1129583952
 30
0.0
 11
4.4711273587
 21
6.1129583952
 31
0.0
  0
ARC
  5
94
330
1F
100
AcDbEntity
  8
0
  6
Continuous
 62
     7
370
    25
100
AcDbCircle
 10
4.297354963
 20
3.6729583952
 30
0.0
 40
0.0100000000000007
100
AcDbArc
 50
180.0
 51
270.0
  0
ARC
  5
95
330
1F
100
AcDbEntity
  8
0
  6
Continuous
 62
     7
370
    25
100
AcDbCircle
 10
5.117354963
 20
3.6729583952
 30
0.0
 40
0.0099999999999998
100
AcDbArc
 50
270.0
 51
0.0
  0
ARC
  5
96
330
1F
100
AcDbEntity
  8
0
  6
Continuous
 62
     7
370
    25
100
AcDbCircle
 10
4.297354963
 20
3.8629583952
 30
0.0
 40
0.0100000000000007
100
AcDbArc
 50
90.0
 51
180.0
  0
ARC
  5
97
330
1F
100
AcDbEntity
  8
0
  6
Continuous
 62
     7
370
    25
100
AcDbCircle
 10
5.117354963
 20
3.8629583952
 30
0.0
 40
0.0099999999999998
100
AcDbArc
 50
0.0
 51
90.0
  0
LINE
  5
98
330
1F
100
AcDbEntity
  8
0
  6
Continuous
 62
     7
370
    25
100
AcDbLine
 10
5.127354963
 20
3.6729583952
 30
0.0
 11
5.127354963
 21
3.8629583952
 31
0.0
  0
LINE
  5
99
330
1F
100
AcDbEntity
  8
0
  6
Continuous
 62
     7
370
    25
100
AcDbLine
 10
4.287354963
 20
3.8629583952
 30
0.0
 11
4.287354963
 21
3.6729583952
 31
0.0
  0
ARC
  5
9A
330
1F
100
AcDbEntity
  8
0
  6
Continuous
 62
     7
370
    25
100
AcDbCircle
 10
4.499854963
 20
3.6429583952
 30
0.0
 40
0.0200000000000005
100
AcDbArc
 50
0.0
 51
90.0
  0
ARC
  5
9B
330
1F
100
AcDbEntity
  8
0
  6
Continuous
 62
     7
370
    25
100
AcDbCircle
 10
4.914854963
 20
3.6429583952
 30
0.0
 40
0.0200000000000005
100
AcDbArc
 50
90.0
 51
180.0
  0
LINE
  5
9C
330
1F
100
AcDbEntity
  8
0
  6
Continuous
 62
     7
370
    25
100
AcDbLine
 10
4.894854963
 20
3.4879583952
 30
0.0
 11
4.894854963
 21
3.6429583952
 31
0.0
  0
LINE
  5
9D
330
1F
100
AcDbEntity
  8
0
  6
Continuous
 62
     7
370
    25
100
AcDbLine
 10
4.519854963
 20
3.6429583952
 30
0.0
 11
4.519854963
 21
3.4879583952
 31
0.0
  0
ARC
  5
9E
330
1F
100
AcDbEntity
  8
0
  6
Continuous
 62
     7
370
    25
100
AcDbCircle
 10
4.940854963
 20
5.7919583952
 30
0.0
 40
0.0200000000000005
100
AcDbArc
 50
90.0
 51
180.0
  0
ARC
  5
9F
330
1F
100
AcDbEntity
  8
0
  6
Continuous
 62
     7
370
    25
100
AcDbCircle
 10
5.067854963
 20
5.7919583952
 30
0.0
 40
0.0199999999999996
100
AcDbArc
 50
0.0
 51
90.0
  0
LINE
  5
A0
330
1F
100
AcDbEntity
  8
0
  6
Continuous
 62
     7
370
    25
100
AcDbLine
 10
5.087854963
 20
5.7499583952
 30
0.0
 11
5.087854963
 21
5.7919583952
 31
0.0
  0
LINE
  5
A1
330
1F
100
AcDbEntity
  8
0
  6
Continuous
 62
     7
370
    25
100
AcDbLine
 10
4.920854963
 20
5.7919583952
 30
0.0
 11
4.920854963
 21
5.7499583952
 31
0.0
  0
LINE
  5
A2
330
1F
100
AcDbEntity
  8
0
  6
Continuous
 62
     7
370
    25
100
AcDbLine
 10
5.127354963
 20
3.8729583952
 30
0.0
 11
4.287354963
 21
3.8729583952
 31
0.0
  0
LINE
  5
A3
330
1F
100
AcDbEntity
  8
0
  6
Continuous
 62
     7
370
    25
100
AcDbLine
 10
5.127354963
 20
5.4479583952
 30
0.0
 11
5.113354963
 21
5.4479583952
 31
0.0
  0
LINE
  5
A4
330
1F
100
AcDbEntity
  8
0
  6
Continuous
 62
     7
370
    25
100
AcDbLine
 10
4.8148910035
 20
5.4479583952
 30
0.0
 11
4.5998189225
 21
5.4479583952
 31
0.0
  0
LINE
  5
A5
330
1F
100
AcDbEntity
  8
0
  6
Continuous
 62
     7
370
    25
100
AcDbLine
 10
4.301354963
 20
5.4479583952
 30
0.0
 11
4.287354963
 21
5.4479583952
 31
0.0
  0
SPLINE
  5
A6
330
1F
100
AcDbEntity
  8
0
  6
Continuous
 62
     7
370
    25
100
AcDbSpline
210
0.0
220
0.0
230
1.0
 70
    11
 71
     3
 72
    54
 73
    50
 74
     0
 42
0.000000001
 43
0.00000001
 40
0.0
 40
0.0
 40
0.0
 40
0.0
 40
0.03125
 40
0.03125
 40
0.0625
 40
0.0625
 40
0.0937499999999999
 40
0.0937499999999999
 40
0.1249999999999999
 40
0.1249999999999999
 40
0.1874999999999982
 40
0.1874999999999982
 40
0.2499999999999964
 40
0.2499999999999964
 40
0.2812499999999956
 40
0.2812499999999956
 40
0.3124999999999947
 40
0.3124999999999947
 40
0.3749999999999931
 40
0.3749999999999931
 40
0.4062499999999922
 40
0.4062499999999922
 40
0.4374999999999914
 40
0.4374999999999914
 40
0.4687499999999905
 40
0.4687499999999905
 40
0.4999999999999897
 40
0.4999999999999897
 40
0.5624999999999881
 40
0.5624999999999881
 40
0.6249999999999865
 40
0.6249999999999865
 40
0.6562499999999857
 40
0.6562499999999857
 40
0.6874999999999849
 40
0.6874999999999849
 40
0.7499999999999855
 40
0.7499999999999855
 40
0.7812499999999868
 40
0.7812499999999868
 40
0.8124999999999882
 40
0.8124999999999882
 40
0.8437499999999897
 40
0.8437499999999897
 40
0.8749999999999911
 40
0.8749999999999911
 40
0.9374999999999954
 40
0.9374999999999954
 40
1.0
 40
1.0
 40
1.0
 40
1.0
 10
4.70735496300966
 20
5.24145839524517
 30
0.0
 10
4.703617768478099
 20
5.24145839524517
 30
0.0
 10
4.699943865430997
 20
5.241825530259424
 30
0.0
 10
4.692717209141328
 20
5.243263248655015
 30
0.0
 10
4.689126685249262
 20
5.244351589748089
 30
0.0
 10
4.682286511369947
 20
5.247188990697753
 30
0.0
 10
4.679042981377631
 20
5.248924689253401
 30
0.0
 10
4.67290452252491
 20
5.253024668740168
 30
0.0
 10
4.670001424929327
 20
5.255408274579594
 30
0.0
 10
4.662193787652731
 20
5.26321769082691
 30
0.0
 10
4.65798568211476
 20
5.269514342240308
 30
0.0
 10
4.652347362165557
 20
5.283107338151526
 30
0.0
 10
4.650859101382113
 20
5.290548169879756
 30
0.0
 10
4.650852907096191
 20
5.301616076587558
 30
0.0
 10
4.651220622109984
 20
5.305364120090682
 30
0.0
 10
4.652663676563637
 20
5.312613502737356
 30
0.0
 10
4.653731337666293
 20
5.316137450678315
 30
0.0
 10
4.657980081309366
 20
5.326405821538439
 30
0.0
 10
4.662121747052068
 20
5.332624334943336
 30
0.0
 10
4.670022067065292
 20
5.340530512653901
 30
0.0
 10
4.672870929155962
 20
5.342865323471071
 30
0.0
 10
4.678984661491998
 20
5.346957444065593
 30
0.0
 10
4.682289176048476
 20
5.348729035897196
 30
0.0
 10
4.689127427151504
 20
5.351565377670412
 30
0.0
 10
4.692649038453177
 20
5.352636029422329
 30
0.0
 10
4.699896783271058
 20
5.354085781174488
 30
0.0
 10
4.703644345675175
 20
5.354456994585926
 30
0.0
 10
4.714712031010349
 20
5.354461184418049
 30
0.0
 10
4.722154205176627
 20
5.352980345895282
 30
0.0
 10
4.735757577720022
 20
5.347351958587719
 30
0.0
 10
4.742055485749673
 20
5.343151052385124
 30
0.0
 10
4.749875302976857
 20
5.335346011156377
 30
0.0
 10
4.752261971517862
 20
5.332443345183458
 30
0.0
 10
4.756363763625685
 20
5.326313088817502
 30
0.0
 10
4.758102242034198
 20
5.323071838021482
 30
0.0
 10
4.762368951938376
 20
5.312810882176471
 30
0.0
 10
4.763848331372134
 20
5.305479591722387
 30
0.0
 10
4.763858245664329
 20
5.29427277242217
 30
0.0
 10
4.76349466412735
 20
5.290598985588818
 30
0.0
 10
4.762063317199651
 20
5.283369943171832
 30
0.0
 10
4.760977482791172
 20
5.279776647224793
 30
0.0
 10
4.758147105937145
 20
5.272936228959472
 30
0.0
 10
4.7564144701621
 20
5.269690962874116
 30
0.0
 10
4.752318367158544
 20
5.263546547543593
 30
0.0
 10
4.74993792945962
 20
5.26064237684807
 30
0.0
 10
4.742137022417372
 20
5.25282929835499
 30
0.0
 10
4.735843298838646
 20
5.248614618703596
 30
0.0
 10
4.72225490087239
 20
5.242963982680104
 30
0.0
 10
4.714829352072782
 20
5.24145839524517
 30
0.0
 10
4.70735496300966
 20
5.24145839524517
 30
0.0
  0
SPLINE
  5
A7
330
1F
100
AcDbEntity
  8
0
  6
Continuous
 62
     7
370
    25
100
AcDbSpline
210
0.0
220
0.0
230
1.0
 70
    11
 71
     3
 72
    54
 73
    50
 74
     0
 42
0.000000001
 43
0.00000001
 40
0.0
 40
0.0
 40
0.0
 40
0.0
 40
0.0312499999999998
 40
0.0312499999999998
 40
0.0624999999999995
 40
0.0624999999999995
 40
0.0937499999999993
 40
0.0937499999999993
 40
0.1249999999999991
 40
0.1249999999999991
 40
0.1874999999999987
 40
0.1874999999999987
 40
0.2499999999999984
 40
0.2499999999999984
 40
0.2812499999999982
 40
0.2812499999999982
 40
0.3124999999999978
 40
0.3124999999999978
 40
0.374999999999998
 40
0.374999999999998
 40
0.4062499999999981
 40
0.4062499999999981
 40
0.4374999999999982
 40
0.4374999999999982
 40
0.4687499999999983
 40
0.4687499999999983
 40
0.4999999999999984
 40
0.4999999999999984
 40
0.5624999999999987
 40
0.5624999999999987
 40
0.6249999999999988
 40
0.6249999999999988
 40
0.656249999999999
 40
0.656249999999999
 40
0.6874999999999992
 40
0.6874999999999992
 40
0.7499999999999996
 40
0.7499999999999996
 40
0.7812499999999998
 40
0.7812499999999998
 40
0.8124999999999998
 40
0.8124999999999998
 40
0.8437499999999998
 40
0.8437499999999998
 40
0.8749999999999997
 40
0.8749999999999997
 40
0.9374999999999998
 40
0.9374999999999998
 40
1.0
 40
1.0
 40
1.0
 40
1.0
 10
5.045227319544089
 20
5.16295839524517
 30
0.0
 10
5.045227319544089
 20
5.167093601035497
 30
0.0
 10
5.044983637119172
 20
5.17115853996328
 30
0.0
 10
5.044024578453914
 20
5.179153993514224
 30
0.0
 10
5.043297226928006
 20
5.183126372644326
 30
0.0
 10
5.041385628326266
 20
5.190692266436314
 30
0.0
 10
5.040210258012556
 20
5.194279762912151
 30
0.0
 10
5.037403256611505
 20
5.201069227957403
 30
0.0
 10
5.035758219669382
 20
5.204279364339663
 30
0.0
 10
5.030297648366175
 20
5.212913576254342
 30
0.0
 10
5.025804264163973
 20
5.217568393074918
 30
0.0
 10
5.015779637482133
 20
5.223806347034299
 30
0.0
 10
5.010137518630956
 20
5.225453769754357
 30
0.0
 10
5.001478430881719
 20
5.22546069301048
 30
0.0
 10
4.998502549973818
 20
5.225053647341554
 30
0.0
 10
4.992666664120349
 20
5.223456834198234
 30
0.0
 10
4.989789080749219
 20
5.222275424780895
 30
0.0
 10
4.981297796487089
 20
5.217573626412731
 30
0.0
 10
4.976008418107571
 20
5.212989988115966
 30
0.0
 10
4.969174634790645
 20
5.204255829707098
 30
0.0
 10
4.967134381310899
 20
5.201105805835523
 30
0.0
 10
4.963534927428781
 20
5.194343878557876
 30
0.0
 10
4.961962843686976
 20
5.190687743752804
 30
0.0
 10
4.959436783399389
 20
5.18312551638221
 30
0.0
 10
4.958476758296439
 20
5.179230015329275
 30
0.0
 10
4.95717480382517
 20
5.171210171073469
 30
0.0
 10
4.956840252109719
 20
5.167063984366989
 30
0.0
 10
4.956836422738891
 20
5.154819297036716
 30
0.0
 10
4.958175779650303
 20
5.146584529003388
 30
0.0
 10
4.963190338225919
 20
5.131536228981691
 30
0.0
 10
4.966907408266486
 20
5.12457273551651
 30
0.0
 10
4.973658972988034
 20
5.115922663750951
 30
0.0
 10
4.976147633747287
 20
5.113283035978471
 30
0.0
 10
4.981338450937185
 20
5.108747402070562
 30
0.0
 10
4.984054780153564
 20
5.106823950594789
 30
0.0
 10
4.992543404081406
 20
5.1021017575922
 30
0.0
 10
4.998459144336045
 20
5.100465434799325
 30
0.0
 10
5.007223841670823
 20
5.100454909277242
 30
0.0
 10
5.010054870227153
 20
5.100857033599383
 30
0.0
 10
5.015547578235726
 20
5.102441209396244
 30
0.0
 10
5.018237109598764
 20
5.103643664580297
 30
0.0
 10
5.023280700662506
 20
5.10677410251135
 30
0.0
 10
5.025638078011037
 20
5.10869066463189
 30
0.0
 10
5.030047038379359
 20
5.113223397895556
 30
0.0
 10
5.032098819453982
 20
5.115855224211077
 30
0.0
 10
5.037561543769812
 20
5.124480862935994
 30
0.0
 10
5.040424996253864
 20
5.131441567860207
 30
0.0
 10
5.044232279916544
 20
5.146472263032867
 30
0.0
 10
5.045227319544089
 20
5.154687983664516
 30
0.0
 10
5.045227319544088
 20
5.16295839524517
 30
0.0
  0
SPLINE
  5
A8
330
1F
100
AcDbEntity
  8
0
  6
Continuous
 62
   144
370
    18
100
AcDbSpline
210
0.0
220
0.0
230
1.0
 70
     8
 71
     3
 72
    14
 73
    10
 74
     0
 42
0.000000001
 43
0.00000001
 40
0.0
 40
0.0
 40
0.0
 40
0.0
 40
0.1490294941126838
 40
0.2980858230528824
 40
0.4462126562144111
 40
0.5928733014984827
 40
0.7400400337096532
 40
0.8888846184865307
 40
1.0
 40
1.0
 40
1.0
 40
1.0
 10
5.010141262974991
 20
5.112958395245171
 30
0.0
 10
5.013422640298308
 20
5.117732967736056
 30
0.0
 10
5.019985985802441
 20
5.12728297244583
 30
0.0
 10
5.025032816619902
 20
5.147146735932572
 30
0.0
 10
5.026118408655556
 20
5.168307879166686
 30
0.0
 10
5.022981359418194
 20
5.18892019707017
 30
0.0
 10
5.015803052288977
 20
5.206394173609235
 30
0.0
 10
5.006115328726646
 20
5.21881547799961
 30
0.0
 10
4.997997117912369
 20
5.221874429116601
 30
0.0
 10
4.994527129418726
 20
5.223181924748509
 30
0.0
  0
SPLINE
  5
A9
330
1F
100
AcDbEntity
  8
0
  6
Continuous
 62
   144
370
    18
100
AcDbSpline
210
0.0
220
0.0
230
1.0
 70
     8
 71
     3
 72
     9
 73
     5
 74
     0
 42
0.000000001
 43
0.00000001
 40
0.0
 40
0.0
 40
0.0
 40
0.0
 40
0.4226220959289488
 40
1.0
 40
1.0
 40
1.0
 40
1.0
 10
4.990883806390805
 20
5.103677487108448
 30
0.0
 10
4.993571716434126
 20
5.104559025401493
 30
0.0
 10
4.999931795732428
 20
5.106644903782052
 30
0.0
 10
5.006404225209355
 20
5.110647426859638
 30
0.0
 10
5.010141262974991
 20
5.112958395245171
 30
0.0
  0
LINE
  5
AA
330
1F
100
AcDbEntity
  8
0
  6
Continuous
 62
     7
370
    25
100
AcDbLine
 10
4.410354963
 20
5.8119583952
 30
0.0
 11
4.473854963
 21
5.8119583952
 31
0.0
  0
LINE
  5
AB
330
1F
100
AcDbEntity
  8
0
  6
Continuous
 62
     7
370
    25
100
AcDbLine
 10
4.346854963
 20
5.8119583952
 30
0.0
 11
4.410354963
 21
5.8119583952
 31
0.0
  0
LINE
  5
AC
330
1F
100
AcDbEntity
  8
0
  6
Continuous
 62
     7
370
    25
100
AcDbLine
 10
4.5548197552
 20
2.9159583952
 30
0.0
 11
4.5173197552
 21
2.9159583952
 31
0.0
  0
LINE
  5
AD
330
1F
100
AcDbEntity
  8
0
  6
Continuous
 62
     7
370
    25
100
AcDbLine
 10
4.5548197552
 20
2.9159583952
 30
0.0
 11
4.8598901708
 21
2.9159583952
 31
0.0
  0
LINE
  5
AE
330
1F
100
AcDbEntity
  8
0
  6
Continuous
 62
     7
370
    25
100
AcDbLine
 10
4.8973901708
 20
2.9159583952
 30
0.0
 11
4.8598901708
 21
2.9159583952
 31
0.0
  0
LINE
  5
AF
330
1F
100
AcDbEntity
  8
0
  6
Continuous
 62
     7
370
    25
100
AcDbLine
 10
4.8973901708
 20
2.9159583952
 30
0.0
 11
5.0528121299
 21
2.9159583952
 31
0.0
  0
LINE
  5
B0
330
1F
100
AcDbEntity
  8
0
  6
Continuous
 62
     7
370
    25
100
AcDbLine
 10
4.5173197552
 20
2.9159583952
 30
0.0
 11
4.3618977961
 21
2.9159583952
 31
0.0
  0
LINE
  5
B1
330
1F
100
AcDbEntity
  8
0
  6
Continuous
 62
     7
370
    25
100
AcDbLine
 10
4.8598901708
 20
2.9159583952
 30
0.0
 11
4.8598901708
 21
3.1959583952
 31
0.0
  0
LINE
  5
B2
330
1F
100
AcDbEntity
  8
0
  6
Continuous
 62
     7
370
    25
100
AcDbLine
 10
4.8598901708
 20
3.1959583952
 30
0.0
 11
4.8973901708
 21
3.1959583952
 31
0.0
  0
LINE
  5
B3
330
1F
100
AcDbEntity
  8
0
  6
Continuous
 62
     7
370
    25
100
AcDbLine
 10
4.8973901708
 20
3.1959583952
 30
0.0
 11
4.8973901708
 21
2.9159583952
 31
0.0
  0
LINE
  5
B4
330
1F
100
AcDbEntity
  8
0
  6
Continuous
 62
     7
370
    25
100
AcDbLine
 10
4.5548197552
 20
3.1959583952
 30
0.0
 11
4.5548197552
 21
2.9159583952
 31
0.0
  0
LINE
  5
B5
330
1F
100
AcDbEntity
  8
0
  6
Continuous
 62
     7
370
    25
100
AcDbLine
 10
4.5548197552
 20
3.1959583952
 30
0.0
 11
4.8598901708
 21
3.1959583952
 31
0.0
  0
LINE
  5
B6
330
1F
100
AcDbEntity
  8
0
  6
Continuous
 62
     7
370
    25
100
AcDbLine
 10
4.8973901708
 20
3.1959583952
 30
0.0
 11
5.0528121299
 21
3.1959583952
 31
0.0
  0
LINE
  5
B7
330
1F
100
AcDbEntity
  8
0
  6
Continuous
 62
     7
370
    25
100
AcDbLine
 10
4.5173197552
 20
3.1959583952
 30
0.0
 11
4.5548197552
 21
3.1959583952
 31
0.0
  0
LINE
  5
B8
330
1F
100
AcDbEntity
  8
0
  6
Continuous
 62
     7
370
    25
100
AcDbLine
 10
4.5173197552
 20
3.1959583952
 30
0.0
 11
4.3618977961
 21
3.1959583952
 31
0.0
  0
LINE
  5
B9
330
1F
100
AcDbEntity
  8
0
  6
Continuous
 62
     7
370
    25
100
AcDbLine
 10
4.5173197552
 20
2.9159583952
 30
0.0
 11
4.5173197552
 21
3.1959583952
 31
0.0
  0
LINE
  5
BA
330
1F
100
AcDbEntity
  8
0
  6
Continuous
 62
     7
370
    25
100
AcDbLine
 10
4.3618977961
 20
3.1959583952
 30
0.0
 11
4.3618977961
 21
2.9159583952
 31
0.0
  0
LINE
  5
BB
330
1F
100
AcDbEntity
  8
0
  6
Continuous
 62
     7
370
    25
100
AcDbLine
 10
5.0528121299
 20
2.9159583952
 30
0.0
 11
5.0528121299
 21
3.1959583952
 31
0.0
  0
LINE
  5
BC
330
1F
100
AcDbEntity
  8
0
  6
Continuous
 62
     7
370
    25
100
AcDbLine
 10
4.427354963
 20
2.4859583952
 30
0.0
 11
4.987354963
 21
2.4859583952
 31
0.0
  0
LINE
  5
BD
330
1F
100
AcDbEntity
  8
0
  6
Continuous
 62
     7
370
    25
100
AcDbLine
 10
4.5998189225
 20
5.6879583952
 30
0.0
 11
4.5998189225
 21
5.4479583952
 31
0.0
  0
LINE
  5
BE
330
1F
100
AcDbEntity
  8
0
  6
Continuous
 62
     7
370
    25
100
AcDbLine
 10
4.7780939197
 20
5.6879583952
 30
0.0
 11
4.6366160063
 21
5.6879583952
 31
0.0
  0
LINE
  5
BF
330
1F
100
AcDbEntity
  8
0
  6
Continuous
 62
     7
370
    25
100
AcDbLine
 10
4.8148910035
 20
5.4479583952
 30
0.0
 11
4.8148910035
 21
5.6879583952
 31
0.0
  0
LINE
  5
C0
330
1F
100
AcDbEntity
  8
0
  6
Continuous
 62
     7
370
    25
100
AcDbLine
 10
4.293354963
 20
5.6879583952
 30
0.0
 11
4.287354963
 21
5.6879583952
 31
0.0
  0
LINE
  5
C1
330
1F
100
AcDbEntity
  8
0
  6
Continuous
 62
     7
370
    25
100
AcDbLine
 10
5.127354963
 20
5.6879583952
 30
0.0
 11
5.121354963
 21
5.6879583952
 31
0.0
  0
LINE
  5
C2
330
1F
100
AcDbEntity
  8
0
  6
Continuous
 62
     7
370
    25
100
AcDbLine
 10
4.301354963
 20
5.4479583952
 30
0.0
 11
4.410354963
 21
5.4479583952
 31
0.0
  0
LINE
  5
C3
330
1F
100
AcDbEntity
  8
0
  6
Continuous
 62
     7
370
    25
100
AcDbLine
 10
4.410354963
 20
5.4479583952
 30
0.0
 11
4.5998189225
 21
5.4479583952
 31
0.0
  0
LINE
  5
C4
330
1F
100
AcDbEntity
  8
0
  6
Continuous
 62
     7
370
    25
100
AcDbLine
 10
4.8148910035
 20
5.4479583952
 30
0.0
 11
5.004354963
 21
5.4479583952
 31
0.0
  0
LINE
  5
C5
330
1F
100
AcDbEntity
  8
0
  6
Continuous
 62
     7
370
    25
100
AcDbLine
 10
5.004354963
 20
5.4479583952
 30
0.0
 11
5.113354963
 21
5.4479583952
 31
0.0
  0
LINE
  5
C6
330
1F
100
AcDbEntity
  8
0
  6
Continuous
 62
     7
370
    25
100
AcDbLine
 10
4.410354963
 20
5.4479583952
 30
0.0
 11
4.410354963
 21
5.6879583952
 31
0.0
  0
LINE
  5
C7
330
1F
100
AcDbEntity
  8
0
  6
Continuous
 62
     7
370
    25
100
AcDbLine
 10
4.301354963
 20
5.4479583952
 30
0.0
 11
4.301354963
 21
5.6879583952
 31
0.0
  0
LINE
  5
C8
330
1F
100
AcDbEntity
  8
0
  6
Continuous
 62
     7
370
    25
100
AcDbLine
 10
5.004354963
 20
5.4479583952
 30
0.0
 11
5.004354963
 21
5.6879583952
 31
0.0
  0
LINE
  5
C9
330
1F
100
AcDbEntity
  8
0
  6
Continuous
 62
     7
370
    25
100
AcDbLine
 10
5.113354963
 20
5.4479583952
 30
0.0
 11
5.113354963
 21
5.6879583952
 31
0.0
  0
LINE
  5
CA
330
1F
100
AcDbEntity
  8
0
  6
Continuous
 62
     7
370
    25
100
AcDbLine
 10
5.0151366683
 20
5.1354583952
 30
0.0
 11
4.9635107065
 21
5.1354583952
 31
0.0
  0
SPLINE
  5
CB
330
1F
100
AcDbEntity
  8
0
  6
Continuous
 62
     7
370
    25
100
AcDbSpline
210
0.0
220
0.0
230
1.0
 70
     8
 71
     3
 72
    13
 73
     9
 74
     0
 42
0.000000001
 43
0.00000001
 40
0.0
 40
0.0
 40
0.0
 40
0.0
 40
0.1545853630281895
 40
0.3483324995690446
 40
0.5426431492257988
 40
0.7383567538854693
 40
0.9341460266000958
 40
0.9999999999999999
 40
0.9999999999999999
 40
0.9999999999999999
 40
0.9999999999999999
 10
4.976539499689658
 20
5.211896543739208
 30
0.0
 10
4.979724189512705
 20
5.212428537445063
 30
0.0
 10
4.986900360300696
 20
5.21362729710565
 30
0.0
 10
4.997267134488019
 20
5.208789588931766
 30
0.0
 10
5.006342113206717
 20
5.199114556694576
 30
0.0
 10
5.01256356335033
 20
5.185193059054606
 30
0.0
 10
5.014934969954099
 20
5.172346074802857
 30
0.0
 10
5.01509611025773
 20
5.164846093714171
 30
0.0
 10
5.015136668267258
 20
5.162958395245171
 30
0.0
  0
LINE
  5
CC
330
1F
100
AcDbEntity
  8
0
  6
Continuous
 62
   144
370
    18
100
AcDbLine
 10
5.0151366683
 20
5.1629583952
 30
0.0
 11
5.0151366683
 21
5.1354583952
 31
0.0
  0
LINE
  5
CD
330
1F
100
AcDbEntity
  8
0
  6
Continuous
 62
   144
370
    18
100
AcDbLine
 10
5.0151366683
 20
5.1354583952
 30
0.0
 11
5.0217936064
 21
5.1354583952
 31
0.0
  0
ARC
  5
CE
330
1F
100
AcDbEntity
  8
0
  6
Continuous
 62
   144
370
    18
100
AcDbCircle
 10
4.9043119034
 20
5.1636007174
 30
0.0
 40
0.0646757583039644
100
AcDbArc
 50
359.4309621834
 51
25.367503635
  0
LINE
  5
CF
330
1F
100
AcDbEntity
  8
0
  6
Continuous
 62
   144
370
    18
100
AcDbLine
 10
5.0151366683
 20
5.1629583952
 30
0.0
 11
4.968984472
 21
5.1629583952
 31
0.0
  0
LINE
  5
D0
330
1F
100
AcDbEntity
  8
0
  6
Continuous
 62
   144
370
    18
100
AcDbLine
 10
5.013925087
 20
5.1179583952
 30
0.0
 11
4.9734092934
 21
5.1179583952
 31
0.0
  0
LINE
  5
D1
330
1F
100
AcDbEntity
  8
0
  6
Continuous
 62
     7
370
    25
100
AcDbLine
 10
4.957354963
 20
2.4779583952
 30
0.0
 11
4.457354963
 21
2.4779583952
 31
0.0
  0
LINE
  5
D2
330
1F
100
AcDbEntity
  8
0
  6
Continuous
 62
     7
370
    25
100
AcDbLine
 10
4.457354963
 20
2.4239583952
 30
0.0
 11
4.957354963
 21
2.4239583952
 31
0.0
  0
LINE
  5
D3
330
1F
100
AcDbEntity
  8
0
  6
Continuous
 62
     7
370
    25
100
AcDbLine
 10
4.949354963
 20
2.4159583952
 30
0.0
 11
4.465354963
 21
2.4159583952
 31
0.0
  0
LINE
  5
D4
330
1F
100
AcDbEntity
  8
0
  6
Continuous
 62
     7
370
    25
100
AcDbLine
 10
4.483354963
 20
2.3279583952
 30
0.0
 11
4.931354963
 21
2.3279583952
 31
0.0
  0
LINE
  5
D5
330
1F
100
AcDbEntity
  8
0
  6
Continuous
 62
     7
370
    25
100
AcDbLine
 10
4.519854963
 20
3.4879583952
 30
0.0
 11
4.894854963
 21
3.4879583952
 31
0.0
  0
LINE
  5
D6
330
1F
100
AcDbEntity
  8
0
  6
Continuous
 62
     7
370
    25
100
AcDbLine
 10
4.402354963
 20
5.7499583952
 30
0.0
 11
4.402354963
 21
5.6879583952
 31
0.0
  0
LINE
  5
D7
330
1F
100
AcDbEntity
  8
0
  6
Continuous
 62
     7
370
    25
100
AcDbLine
 10
4.402354963
 20
5.6879583952
 30
0.0
 11
4.293354963
 21
5.6879583952
 31
0.0
  0
LINE
  5
D8
330
1F
100
AcDbEntity
  8
0
  6
Continuous
 62
     7
370
    25
100
AcDbLine
 10
4.293354963
 20
5.6879583952
 30
0.0
 11
4.293354963
 21
5.7499583952
 31
0.0
  0
LINE
  5
D9
330
1F
100
AcDbEntity
  8
0
  6
Continuous
 62
     7
370
    25
100
AcDbLine
 10
4.293354963
 20
5.7499583952
 30
0.0
 11
4.402354963
 21
5.7499583952
 31
0.0
  0
LINE
  5
DA
330
1F
100
AcDbEntity
  8
0
  6
Continuous
 62
     7
370
    25
100
AcDbLine
 10
5.121354963
 20
5.6879583952
 30
0.0
 11
5.012354963
 21
5.6879583952
 31
0.0
  0
LINE
  5
DB
330
1F
100
AcDbEntity
  8
0
  6
Continuous
 62
     7
370
    25
100
AcDbLine
 10
4.402354963
 20
5.6879583952
 30
0.0
 11
4.6366160063
 21
5.6879583952
 31
0.0
  0
LINE
  5
DC
330
1F
100
AcDbEntity
  8
0
  6
Continuous
 62
     7
370
    25
100
AcDbLine
 10
4.7780939197
 20
5.6879583952
 30
0.0
 11
5.012354963
 21
5.6879583952
 31
0.0
  0
LINE
  5
DD
330
1F
100
AcDbEntity
  8
0
  6
Continuous
 62
     7
370
    25
100
AcDbLine
 10
5.012354963
 20
5.7499583952
 30
0.0
 11
5.121354963
 21
5.7499583952
 31
0.0
  0
LINE
  5
DE
330
1F
100
AcDbEntity
  8
0
  6
Continuous
 62
     7
370
    25
100
AcDbLine
 10
4.402354963
 20
5.7499583952
 30
0.0
 11
5.012354963
 21
5.7499583952
 31
0.0
  0
LINE
  5
DF
330
1F
100
AcDbEntity
  8
0
  6
Continuous
 62
     7
370
    25
100
AcDbLine
 10
5.012354963
 20
5.6879583952
 30
0.0
 11
5.012354963
 21
5.7499583952
 31
0.0
  0
LINE
  5
E0
330
1F
100
AcDbEntity
  8
0
  6
Continuous
 62
     7
370
    25
100
AcDbLine
 10
5.121354963
 20
5.7499583952
 30
0.0
 11
5.121354963
 21
5.6879583952
 31
0.0
  0
CIRCLE
  5
E1
330
1F
100
AcDbEntity
  8
0
  6
Continuous
 62
     7
370
    25
100
AcDbCircle
 10
4.6939699201
 20
6.0734583952
 30
0.0
 40
0.0394999999999994
  0
LINE
  5
E2
330
1F
100
AcDbEntity
  8
0
  6
Continuous
 62
     7
370
    25
100
AcDbLine
 10
4.707354963
 20
6.1779583952
 30
0.0
 11
4.942854963
 21
6.1779583952
 31
0.0
  0
LINE
  5
E3
330
1F
100
AcDbEntity
  8
0
  6
Continuous
 62
     7
370
    25
100
AcDbLine
 10
4.471854963
 20
6.1779583952
 30
0.0
 11
4.707354963
 21
6.1779583952
 31
0.0
  0
LWPOLYLINE
  5
E4
330
1F
100
AcDbEntity
  8
0
  6
Continuous
 62
     7
370
    25
100
AcDbPolyline
 90
       14
 70
   128
 43
0.0
 10
4.9569676102
 20
6.1129583952
 10
4.9583153979
 20
6.1128663116
 10
4.9635814826
 20
6.1106777017
 10
4.9683570466
 20
6.105728706
 10
4.9722879082
 20
6.098386369
 10
4.9750825334
 20
6.0891952383
 10
4.9765336577
 20
6.0788369779
 10
4.9765336577
 20
6.0680798126
 10
4.9750825334
 20
6.0577215522
 10
4.9722879082
 20
6.0485304214
 10
4.9683570466
 20
6.0411880845
 10
4.9635814826
 20
6.0362390888
 10
4.9583153979
 20
6.0340504789
 10
4.9569676102
 20
6.0339583952
  0
LWPOLYLINE
  5
E5
330
1F
100
AcDbEntity
  8
0
  6
Continuous
 62
     7
370
    25
100
AcDbPolyline
 90
        7
 70
   128
 43
0.0
 10
4.4513773587
 20
6.0734583952
 10
4.4521097423
 20
6.0841153677
 10
4.4542525755
 20
6.0939819613
 10
4.4576469341
 20
6.1023264158
 10
4.4620410742
 20
6.1085298614
 10
4.4671091025
 20
6.1121322167
 10
4.4711273587
 20
6.1129583952
  0
LWPOLYLINE
  5
E6
330
1F
100
AcDbEntity
  8
0
  6
Continuous
 62
     7
370
    25
100
AcDbPolyline
 90
        7
 70
   128
 43
0.0
 10
4.4711273587
 20
6.0339583952
 10
4.4671091025
 20
6.0347845738
 10
4.4620410742
 20
6.0383869291
 10
4.4576469341
 20
6.0445903747
 10
4.4542525755
 20
6.0529348292
 10
4.4521097423
 20
6.0628014228
 10
4.4513773587
 20
6.0734583952
  0
LINE
  5
E7
330
1F
100
AcDbEntity
  8
0
  6
Continuous
 62
   144
370
    18
100
AcDbLine
 10
4.6578098022
 20
5.2729583952
 30
0.0
 11
4.757038693
 21
5.2729583952
 31
0.0
  0
SPLINE
  5
E8
330
1F
100
AcDbEntity
  8
0
  6
Continuous
 62
     7
370
    25
100
AcDbSpline
210
0.0
220
0.0
230
1.0
 70
    24
 71
     3
 72
    10
 73
     6
 74
     0
 42
0.000000001
 43
0.00000001
 40
0.0
 40
0.0
 40
0.0
 40
0.0
 40
0.5
 40
0.5
 40
1.0
 40
1.0
 40
1.0
 40
1.0
 10
4.707354963009658
 20
3.662958395245171
 30
0.0
 10
4.598619279569658
 20
3.662958395245171
 30
0.0
 10
4.494328921840556
 20
3.662958395245171
 30
0.0
 10
4.340553443605799
 20
3.662958395245171
 30
0.0
 10
4.297354963009661
 20
3.662958395245171
 30
0.0
 10
4.297354963009659
 20
3.662958395245171
 30
0.0
  0
SPLINE
  5
E9
330
1F
100
AcDbEntity
  8
0
  6
Continuous
 62
     7
370
    25
100
AcDbSpline
210
0.0
220
0.0
230
1.0
 70
    24
 71
     3
 72
    10
 73
     6
 74
     0
 42
0.000000001
 43
0.00000001
 40
0.0
 40
0.0
 40
0.0
 40
0.0
 40
0.4999999999999999
 40
0.4999999999999999
 40
0.9999999999999999
 40
0.9999999999999999
 40
0.9999999999999999
 40
0.9999999999999999
 10
5.117354963009658
 20
3.662958395245171
 30
0.0
 10
5.117354963009661
 20
3.662958395245171
 30
0.0
 10
5.074156482413524
 20
3.662958395245171
 30
0.0
 10
4.92038100417877
 20
3.662958395245171
 30
0.0
 10
4.816090646449659
 20
3.662958395245171
 30
0.0
 10
4.707354963009658
 20
3.662958395245171
 30
0.0
  0
SPLINE
  5
EA
330
1F
100
AcDbEntity
  8
0
  6
Continuous
 62
   144
370
    18
100
AcDbSpline
210
0.0
220
0.0
230
1.0
 70
    24
 71
     3
 72
    10
 73
     6
 74
     0
 42
0.000000001
 43
0.00000001
 40
0.0
 40
0.0
 40
0.0
 40
0.0
 40
0.4999999999999999
 40
0.4999999999999999
 40
0.9999999999999999
 40
0.9999999999999999
 40
0.9999999999999999
 40
0.9999999999999999
 10
4.297354963009659
 20
3.87295839524517
 30
0.0
 10
4.297354963009656
 20
3.87295839524517
 30
0.0
 10
4.340553443605794
 20
3.87295839524517
 30
0.0
 10
4.494328921840547
 20
3.87295839524517
 30
0.0
 10
4.598619279569658
 20
3.87295839524517
 30
0.0
 10
4.707354963009658
 20
3.87295839524517
 30
0.0
  0
SPLINE
  5
EB
330
1F
100
AcDbEntity
  8
0
  6
Continuous
 62
   144
370
    18
100
AcDbSpline
210
0.0
220
0.0
230
1.0
 70
    24
 71
     3
 72
    10
 73
     6
 74
     0
 42
0.000000001
 43
0.00000001
 40
0.0
 40
0.0
 40
0.0
 40
0.0
 40
0.5000000000000002
 40
0.5000000000000002
 40
0.9999999999999999
 40
0.9999999999999999
 40
0.9999999999999999
 40
0.9999999999999999
 10
4.707354963009658
 20
3.87295839524517
 30
0.0
 10
4.816090646449658
 20
3.87295839524517
 30
0.0
 10
4.92038100417876
 20
3.87295839524517
 30
0.0
 10
5.074156482413518
 20
3.87295839524517
 30
0.0
 10
5.117354963009656
 20
3.87295839524517
 30
0.0
 10
5.117354963009658
 20
3.87295839524517
 30
0.0
  0
LINE
  5
EC
330
1F
100
AcDbEntity
  8
0
  6
Continuous
 62
   144
370
    18
100
AcDbLine
 10
4.519854963
 20
3.4879583952
 30
0.0
 11
4.894854963
 21
3.4879583952
 31
0.0
  0
LINE
  5
ED
330
1F
100
AcDbEntity
  8
0
  6
Continuous
 62
     7
370
    25
100
AcDbLine
 10
4.940854963
 20
5.8119583952
 30
0.0
 11
5.067854963
 21
5.8119583952
 31
0.0
  0
LINE
  5
EE
330
1F
100
AcDbEntity
  8
0
  6
Continuous
 62
     8
370
    25
100
AcDbLine
 10
4.410354963
 20
5.7919583952
 30
0.0
 11
4.326854963
 21
5.7919583952
 31
0.0
  0
LINE
  5
EF
330
1F
100
AcDbEntity
  8
0
  6
Continuous
 62
     8
370
    25
100
AcDbLine
 10
4.493854963
 20
5.7919583952
 30
0.0
 11
4.410354963
 21
5.7919583952
 31
0.0
  0
LINE
  5
F0
330
1F
100
AcDbEntity
  8
0
  6
Continuous
 62
     8
370
    25
100
AcDbLine
 10
4.707354963
 20
3.6729583952
 30
0.0
 11
4.287354963
 21
3.6729583952
 31
0.0
  0
LINE
  5
F1
330
1F
100
AcDbEntity
  8
0
  6
Continuous
 62
     8
370
    25
100
AcDbLine
 10
5.127354963
 20
3.6729583952
 30
0.0
 11
4.707354963
 21
3.6729583952
 31
0.0
  0
LINE
  5
F2
330
1F
100
AcDbEntity
  8
0
  6
Continuous
 62
     8
370
    25
100
AcDbLine
 10
5.127354963
 20
3.8629583952
 30
0.0
 11
4.287354963
 21
3.8629583952
 31
0.0
  0
LINE
  5
F3
330
1F
100
AcDbEntity
  8
0
  6
Continuous
 62
     8
370
    25
100
AcDbLine
 10
4.707354963
 20
3.6429583952
 30
0.0
 11
4.519854963
 21
3.6429583952
 31
0.0
  0
LINE
  5
F4
330
1F
100
AcDbEntity
  8
0
  6
Continuous
 62
     8
370
    25
100
AcDbLine
 10
4.894854963
 20
3.6429583952
 30
0.0
 11
4.707354963
 21
3.6429583952
 31
0.0
  0
LINE
  5
F5
330
1F
100
AcDbEntity
  8
0
  6
Continuous
 62
     8
370
    25
100
AcDbLine
 10
5.087854963
 20
5.7919583952
 30
0.0
 11
4.920854963
 21
5.7919583952
 31
0.0
  0
LINE
  5
F6
330
1F
100
AcDbEntity
  8
0
  6
Continuous
 62
     7
370
    25
100
AcDbLine
 10
2.3998779942
 20
5.3537448141
 30
0.0
 11
2.3998779942
 21
5.4479583952
 31
0.0
  0
LINE
  5
F7
330
1F
100
AcDbEntity
  8
0
  6
Continuous
 62
     7
370
    25
100
AcDbLine
 10
2.3998779942
 20
3.8729583952
 30
0.0
 11
2.3998779942
 21
5.2414583952
 31
0.0
  0
LINE
  5
F8
330
1F
100
AcDbEntity
  8
0
  6
Continuous
 62
     7
370
    25
100
AcDbLine
 10
1.5598779942
 20
5.2414583952
 30
0.0
 11
1.5598779942
 21
3.8729583952
 31
0.0
  0
LINE
  5
F9
330
1F
100
AcDbEntity
  8
0
  6
Continuous
 62
     7
370
    25
100
AcDbLine
 10
1.5598779942
 20
5.4479583952
 30
0.0
 11
1.5598779942
 21
5.3537448141
 31
0.0
  0
LINE
  5
FA
330
1F
100
AcDbEntity
  8
0
  6
Continuous
 62
     7
370
    25
100
AcDbLine
 10
2.3603779942
 20
5.7499583952
 30
0.0
 11
2.3603779942
 21
5.7919583952
 31
0.0
  0
LINE
  5
FB
330
1F
100
AcDbEntity
  8
0
  6
Continuous
 62
     7
370
    25
100
AcDbLine
 10
2.1933779942
 20
5.7919583952
 30
0.0
 11
2.1933779942
 21
5.7499583952
 31
0.0
  0
ARC
  5
FC
330
1F
100
AcDbEntity
  8
0
  6
Continuous
 62
     7
370
    25
100
AcDbCircle
 10
2.2133779942
 20
5.7919583952
 30
0.0
 40
0.02
100
AcDbArc
 50
90.0
 51
180.0
  0
ARC
  5
FD
330
1F
100
AcDbEntity
  8
0
  6
Continuous
 62
     7
370
    25
100
AcDbCircle
 10
2.3403779942
 20
5.7919583952
 30
0.0
 40
0.0199999999999996
100
AcDbArc
 50
0.0
 51
90.0
  0
ARC
  5
FE
330
1F
100
AcDbEntity
  8
0
  6
Continuous
 62
     7
370
    25
100
AcDbCircle
 10
1.6193779942
 20
5.7919583952
 30
0.0
 40
0.0199999999999998
100
AcDbArc
 50
90.0
 51
180.0
  0
ARC
  5
FF
330
1F
100
AcDbEntity
  8
0
  6
Continuous
 62
     7
370
    25
100
AcDbCircle
 10
1.7463779942
 20
5.7919583952
 30
0.0
 40
0.02
100
AcDbArc
 50
0.0
 51
90.0
  0
LINE
  5
100
330
1F
100
AcDbEntity
  8
0
  6
Continuous
 62
     7
370
    25
100
AcDbLine
 10
1.7663779942
 20
5.7499583952
 30
0.0
 11
1.7663779942
 21
5.7919583952
 31
0.0
  0
LINE
  5
101
330
1F
100
AcDbEntity
  8
0
  6
Continuous
 62
     7
370
    25
100
AcDbLine
 10
1.5993779942
 20
5.7919583952
 30
0.0
 11
1.5993779942
 21
5.7499583952
 31
0.0
  0
LINE
  5
102
330
1F
100
AcDbEntity
  8
0
  6
Continuous
 62
     7
370
    25
100
AcDbLine
 10
1.6998779942
 20
2.9159583952
 30
0.0
 11
1.6998779942
 21
2.4859583952
 31
0.0
  0
LINE
  5
103
330
1F
100
AcDbEntity
  8
0
  6
Continuous
 62
     7
370
    25
100
AcDbLine
 10
2.2598779942
 20
2.4859583952
 30
0.0
 11
2.2598779942
 21
2.9159583952
 31
0.0
  0
LINE
  5
104
330
1F
100
AcDbEntity
  8
0
  6
Continuous
 62
     7
370
    25
100
AcDbLine
 10
1.5598779942
 20
5.6879583952
 30
0.0
 11
1.5598779942
 21
5.4479583952
 31
0.0
  0
LINE
  5
105
330
1F
100
AcDbEntity
  8
0
  6
Continuous
 62
     7
370
    25
100
AcDbLine
 10
2.3998779942
 20
5.4479583952
 30
0.0
 11
2.3998779942
 21
5.6879583952
 31
0.0
  0
LINE
  5
106
330
1F
100
AcDbEntity
  8
0
  6
Continuous
 62
     7
370
    25
100
AcDbLine
 10
2.2298779942
 20
2.4779583952
 30
0.0
 11
2.2218779942
 21
2.4859583952
 31
0.0
  0
LINE
  5
107
330
1F
100
AcDbEntity
  8
0
  6
Continuous
 62
     7
370
    25
100
AcDbLine
 10
1.7378779942
 20
2.4859583952
 30
0.0
 11
1.7298779942
 21
2.4779583952
 31
0.0
  0
LINE
  5
108
330
1F
100
AcDbEntity
  8
0
  6
Continuous
 62
     7
370
    25
100
AcDbLine
 10
1.7298779942
 20
2.4239583952
 30
0.0
 11
1.7378779942
 21
2.4159583952
 31
0.0
  0
LINE
  5
109
330
1F
100
AcDbEntity
  8
0
  6
Continuous
 62
     7
370
    25
100
AcDbLine
 10
2.2218779942
 20
2.4159583952
 30
0.0
 11
2.2298779942
 21
2.4239583952
 31
0.0
  0
LINE
  5
10A
330
1F
100
AcDbEntity
  8
0
  6
Continuous
 62
     7
370
    25
100
AcDbLine
 10
1.7298779942
 20
2.4779583952
 30
0.0
 11
1.7298779942
 21
2.4239583952
 31
0.0
  0
LINE
  5
10B
330
1F
100
AcDbEntity
  8
0
  6
Continuous
 62
     7
370
    25
100
AcDbLine
 10
2.2298779942
 20
2.4239583952
 30
0.0
 11
2.2298779942
 21
2.4779583952
 31
0.0
  0
LINE
  5
10C
330
1F
100
AcDbEntity
  8
0
  6
Continuous
 62
     7
370
    25
100
AcDbLine
 10
2.2038779942
 20
2.3279583952
 30
0.0
 11
2.2038779942
 21
2.4159583952
 31
0.0
  0
LINE
  5
10D
330
1F
100
AcDbEntity
  8
0
  6
Continuous
 62
     7
370
    25
100
AcDbLine
 10
1.7558779942
 20
2.4159583952
 30
0.0
 11
1.7558779942
 21
2.3279583952
 31
0.0
  0
ARC
  5
10E
330
1F
100
AcDbEntity
  8
0
  6
Continuous
 62
     7
370
    25
100
AcDbCircle
 10
1.8248779942
 20
2.3279583952
 30
0.0
 40
0.0300000000000002
100
AcDbArc
 50
180.0
 51
270.0
  0
ARC
  5
10F
330
1F
100
AcDbEntity
  8
0
  6
Continuous
 62
     7
370
    25
100
AcDbCircle
 10
2.1348779942
 20
2.3279583952
 30
0.0
 40
0.0300000000000002
100
AcDbArc
 50
270.0
 51
360.0
  0
LINE
  5
110
330
1F
100
AcDbEntity
  8
0
  6
Continuous
 62
     7
370
    25
100
AcDbLine
 10
1.8248779942
 20
2.2979583952
 30
0.0
 11
2.1348779942
 21
2.2979583952
 31
0.0
  0
LINE
  5
111
330
1F
100
AcDbEntity
  8
0
  6
Continuous
 62
     7
370
    25
100
AcDbLine
 10
1.7923779942
 20
3.4879583952
 30
0.0
 11
1.7923779942
 21
3.1959583952
 31
0.0
  0
LINE
  5
112
330
1F
100
AcDbEntity
  8
0
  6
Continuous
 62
     7
370
    25
100
AcDbLine
 10
2.1673779942
 20
3.1959583952
 30
0.0
 11
2.1673779942
 21
3.4879583952
 31
0.0
  0
LINE
  5
113
330
1F
100
AcDbEntity
  8
0
  6
Continuous
 62
     7
370
    25
100
AcDbLine
 10
1.828036207
 20
6.0339583952
 30
0.0
 11
1.8507335443
 21
6.0339583952
 31
0.0
  0
LINE
  5
114
330
1F
100
AcDbEntity
  8
0
  6
Continuous
 62
     7
370
    25
100
AcDbLine
 10
1.8507677807
 20
6.1129583952
 30
0.0
 11
1.828036207
 21
6.1129583952
 31
0.0
  0
LINE
  5
115
330
1F
100
AcDbEntity
  8
0
  6
Continuous
 62
     7
370
    25
100
AcDbLine
 10
2.2153779942
 20
6.1129583952
 30
0.0
 11
2.2153779942
 21
6.1779583952
 31
0.0
  0
LINE
  5
116
330
1F
100
AcDbEntity
  8
0
  6
Continuous
 62
     7
370
    25
100
AcDbLine
 10
2.2153779942
 20
5.8119583952
 30
0.0
 11
2.2153779942
 21
6.0339583952
 31
0.0
  0
LINE
  5
117
330
1F
100
AcDbEntity
  8
0
  6
Continuous
 62
     7
370
    25
100
AcDbLine
 10
1.7443779942
 20
6.1779583952
 30
0.0
 11
1.7443779942
 21
5.8119583952
 31
0.0
  0
LINE
  5
118
330
1F
100
AcDbEntity
  8
0
  6
Continuous
 62
     7
370
    25
100
AcDbLine
 10
2.2603779942
 20
6.1129583952
 30
0.0
 11
2.2149148468
 21
6.1129583952
 31
0.0
  0
LINE
  5
119
330
1F
100
AcDbEntity
  8
0
  6
Continuous
 62
     7
370
    25
100
AcDbLine
 10
2.2149833197
 20
6.0339583952
 30
0.0
 11
2.2603779942
 21
6.0339583952
 31
0.0
  0
ARC
  5
11A
330
1F
100
AcDbEntity
  8
0
  6
Continuous
 62
     7
370
    25
100
AcDbCircle
 10
1.5698779942
 20
3.6729583952
 30
0.0
 40
0.0099999999999998
100
AcDbArc
 50
180.0
 51
270.0
  0
ARC
  5
11B
330
1F
100
AcDbEntity
  8
0
  6
Continuous
 62
     7
370
    25
100
AcDbCircle
 10
2.3898779942
 20
3.6729583952
 30
0.0
 40
0.0099999999999998
100
AcDbArc
 50
270.0
 51
0.0
  0
ARC
  5
11C
330
1F
100
AcDbEntity
  8
0
  6
Continuous
 62
     7
370
    25
100
AcDbCircle
 10
1.5698779942
 20
3.8629583952
 30
0.0
 40
0.0099999999999998
100
AcDbArc
 50
90.0
 51
180.0
  0
ARC
  5
11D
330
1F
100
AcDbEntity
  8
0
  6
Continuous
 62
     7
370
    25
100
AcDbCircle
 10
2.3898779942
 20
3.8629583952
 30
0.0
 40
0.0099999999999998
100
AcDbArc
 50
0.0
 51
90.0
  0
LINE
  5
11E
330
1F
100
AcDbEntity
  8
0
  6
Continuous
 62
     7
370
    25
100
AcDbLine
 10
2.3998779942
 20
3.6729583952
 30
0.0
 11
2.3998779942
 21
3.8629583952
 31
0.0
  0
LINE
  5
11F
330
1F
100
AcDbEntity
  8
0
  6
Continuous
 62
     7
370
    25
100
AcDbLine
 10
1.5598779942
 20
3.8629583952
 30
0.0
 11
1.5598779942
 21
3.6729583952
 31
0.0
  0
ARC
  5
120
330
1F
100
AcDbEntity
  8
0
  6
Continuous
 62
     7
370
    25
100
AcDbCircle
 10
1.7723779942
 20
3.6429583952
 30
0.0
 40
0.0200000000000005
100
AcDbArc
 50
0.0
 51
90.0
  0
ARC
  5
121
330
1F
100
AcDbEntity
  8
0
  6
Continuous
 62
     7
370
    25
100
AcDbCircle
 10
2.1873779942
 20
3.6429583952
 30
0.0
 40
0.0200000000000005
100
AcDbArc
 50
90.0
 51
180.0
  0
LINE
  5
122
330
1F
100
AcDbEntity
  8
0
  6
Continuous
 62
     7
370
    25
100
AcDbLine
 10
2.1673779942
 20
3.4879583952
 30
0.0
 11
2.1673779942
 21
3.6429583952
 31
0.0
  0
LINE
  5
123
330
1F
100
AcDbEntity
  8
0
  6
Continuous
 62
     7
370
    25
100
AcDbLine
 10
1.7923779942
 20
3.6429583952
 30
0.0
 11
1.7923779942
 21
3.4879583952
 31
0.0
  0
LINE
  5
124
330
1F
100
AcDbEntity
  8
0
  6
Continuous
 62
     7
370
    25
100
AcDbLine
 10
2.3998779942
 20
3.8729583952
 30
0.0
 11
1.5598779942
 21
3.8729583952
 31
0.0
  0
LINE
  5
125
330
1F
100
AcDbEntity
  8
0
  6
Continuous
 62
     7
370
    25
100
AcDbLine
 10
2.3998779942
 20
5.4479583952
 30
0.0
 11
2.3858779942
 21
5.4479583952
 31
0.0
  0
LINE
  5
126
330
1F
100
AcDbEntity
  8
0
  6
Continuous
 62
     7
370
    25
100
AcDbLine
 10
2.0874140347
 20
5.4479583952
 30
0.0
 11
1.8723419537
 21
5.4479583952
 31
0.0
  0
LINE
  5
127
330
1F
100
AcDbEntity
  8
0
  6
Continuous
 62
     7
370
    25
100
AcDbLine
 10
1.5738779942
 20
5.4479583952
 30
0.0
 11
1.5598779942
 21
5.4479583952
 31
0.0
  0
SPLINE
  5
128
330
1F
100
AcDbEntity
  8
0
  6
Continuous
 62
     7
370
    25
100
AcDbSpline
210
0.0
220
0.0
230
1.0
 70
     8
 71
     3
 72
    17
 73
    13
 74
     0
 42
0.000000001
 43
0.00000001
 40
0.0
 40
0.0
 40
0.0
 40
0.0
 40
0.1067140084488812
 40
0.2134050901567012
 40
0.3206930859337214
 40
0.4283944923850143
 40
0.5354396561328705
 40
0.64178147148651
 40
0.7484699157849137
 40
0.8560110578156883
 40
0.9635882079430819
 40
1.0
 40
1.0
 40
1.0
 40
1.0
 10
2.399877994213235
 20
5.241458395245171
 30
0.0
 10
2.399792417102876
 20
5.242077335773109
 30
0.0
 10
2.399621281267787
 20
5.24331508385404
 30
0.0
 10
2.398428871338268
 20
5.252956773369513
 30
0.0
 10
2.397090467797016
 20
5.267201072631789
 30
0.0
 10
2.396115328713045
 20
5.28507301750195
 30
0.0
 10
2.395962489790425
 20
5.304341842415045
 30
0.0
 10
2.396679491626348
 20
5.322793169007276
 30
0.0
 10
2.397968834681724
 20
5.338593826497491
 30
0.0
 10
2.399208406631523
 20
5.349477605629258
 30
0.0
 10
2.399912058757369
 20
5.354715129828446
 30
0.0
 10
2.399808942766085
 20
5.353940661091671
 30
0.0
 10
2.399782866888483
 20
5.353744814145577
 30
0.0
  0
SPLINE
  5
129
330
1F
100
AcDbEntity
  8
0
  6
Continuous
 62
     7
370
    25
100
AcDbSpline
210
0.0
220
0.0
230
1.0
 70
    11
 71
     3
 72
    54
 73
    50
 74
     0
 42
0.000000001
 43
0.00000001
 40
0.0
 40
0.0
 40
0.0
 40
0.0
 40
0.0312500000000004
 40
0.0312500000000004
 40
0.0625000000000009
 40
0.0625000000000009
 40
0.0937500000000013
 40
0.0937500000000013
 40
0.1250000000000017
 40
0.1250000000000017
 40
0.1875000000000015
 40
0.1875000000000015
 40
0.2500000000000013
 40
0.2500000000000013
 40
0.2812500000000013
 40
0.2812500000000013
 40
0.3125000000000016
 40
0.3125000000000016
 40
0.3750000000000022
 40
0.3750000000000022
 40
0.4062500000000018
 40
0.4062500000000018
 40
0.4375000000000013
 40
0.4375000000000013
 40
0.4687500000000009
 40
0.4687500000000009
 40
0.5000000000000004
 40
0.5000000000000004
 40
0.5624999999999996
 40
0.5624999999999996
 40
0.6249999999999987
 40
0.6249999999999987
 40
0.6562499999999983
 40
0.6562499999999983
 40
0.687499999999998
 40
0.687499999999998
 40
0.7499999999999977
 40
0.7499999999999977
 40
0.7812499999999974
 40
0.7812499999999974
 40
0.8124999999999973
 40
0.8124999999999973
 40
0.8437499999999972
 40
0.8437499999999972
 40
0.8749999999999971
 40
0.8749999999999971
 40
0.9374999999999986
 40
0.9374999999999986
 40
1.0
 40
1.0
 40
1.0
 40
1.0
 10
1.642005637678792
 20
5.16295839524517
 30
0.0
 10
1.642005637678792
 20
5.158823189454843
 30
0.0
 10
1.642249320103708
 20
5.15475825052706
 30
0.0
 10
1.643208378768965
 20
5.146762796976117
 30
0.0
 10
1.643935730294873
 20
5.142790417846016
 30
0.0
 10
1.645847328896614
 20
5.135224524054026
 30
0.0
 10
1.647022699210323
 20
5.131637027578189
 30
0.0
 10
1.649829700611374
 20
5.124847562532936
 30
0.0
 10
1.651474737553498
 20
5.121637426150677
 30
0.0
 10
1.656935308856704
 20
5.113003214235997
 30
0.0
 10
1.661428693058906
 20
5.108348397415422
 30
0.0
 10
1.671453319740746
 20
5.10211044345604
 30
0.0
 10
1.677095438591923
 20
5.100463020735984
 30
0.0
 10
1.68575452634116
 20
5.10045609747986
 30
0.0
 10
1.688730407249061
 20
5.100863143148786
 30
0.0
 10
1.69456629310253
 20
5.102459956292107
 30
0.0
 10
1.697443876473659
 20
5.103641365709446
 30
0.0
 10
1.705935160735789
 20
5.108343164077609
 30
0.0
 10
1.711224539115308
 20
5.112926802374373
 30
0.0
 10
1.718058322432234
 20
5.121660960783243
 30
0.0
 10
1.72009857591198
 20
5.124810984654816
 30
0.0
 10
1.723698029794097
 20
5.131572911932463
 30
0.0
 10
1.725270113535903
 20
5.135229046737535
 30
0.0
 10
1.72779617382349
 20
5.142791274108129
 30
0.0
 10
1.72875619892644
 20
5.146686775161065
 30
0.0
 10
1.730058153397709
 20
5.154706619416872
 30
0.0
 10
1.73039270511316
 20
5.15885280612335
 30
0.0
 10
1.730396534483988
 20
5.171097493453625
 30
0.0
 10
1.729057177572576
 20
5.179332261486953
 30
0.0
 10
1.72404261899696
 20
5.194380561508651
 30
0.0
 10
1.720325548956393
 20
5.201344054973831
 30
0.0
 10
1.713573984234845
 20
5.20999412673939
 30
0.0
 10
1.711085323475592
 20
5.212633754511869
 30
0.0
 10
1.705894506285694
 20
5.217169388419778
 30
0.0
 10
1.703178177069316
 20
5.219092839895552
 30
0.0
 10
1.694689553141473
 20
5.223815032898142
 30
0.0
 10
1.688773812886835
 20
5.225451355691015
 30
0.0
 10
1.680009115552057
 20
5.225461881213097
 30
0.0
 10
1.677178086995727
 20
5.225059756890957
 30
0.0
 10
1.671685378987154
 20
5.223475581094096
 30
0.0
 10
1.668995847624116
 20
5.222273125910043
 30
0.0
 10
1.663952256560373
 20
5.219142687978992
 30
0.0
 10
1.661594879211844
 20
5.217226125858453
 30
0.0
 10
1.657185918843521
 20
5.212693392594787
 30
0.0
 10
1.655134137768897
 20
5.210061566279266
 30
0.0
 10
1.649671413453068
 20
5.201435927554347
 30
0.0
 10
1.646807960969016
 20
5.194475222630135
 30
0.0
 10
1.643000677306336
 20
5.179444527457473
 30
0.0
 10
1.642005637678792
 20
5.171228806825825
 30
0.0
 10
1.642005637678792
 20
5.16295839524517
 30
0.0
  0
ARC
  5
12A
330
1F
100
AcDbEntity
  8
0
  6
Continuous
 62
     7
370
    25
100
AcDbCircle
 10
1.1419068776
 20
5.2979557437
 30
0.0
 40
0.4217722189831478
100
AcDbArc
 50
352.3019605739
 51
7.6009592454
  0
SPLINE
  5
12B
330
1F
100
AcDbEntity
  8
0
  6
Continuous
 62
   144
370
    18
100
AcDbSpline
210
0.0
220
0.0
230
1.0
 70
     8
 71
     3
 72
    14
 73
    10
 74
     0
 42
0.000000001
 43
0.00000001
 40
0.0
 40
0.0
 40
0.0
 40
0.0
 40
0.1265149796438995
 40
0.2749587940004933
 40
0.424870392643955
 40
0.5743413201603939
 40
0.7221048220136624
 40
0.8695757184739534
 40
1.0
 40
1.0
 40
1.0
 40
1.0
 10
1.692152548704541
 20
5.223265164984695
 30
0.0
 10
1.688297821689912
 20
5.221526729735002
 30
0.0
 10
1.679920228031619
 20
5.217748536345979
 30
0.0
 10
1.670241607277183
 20
5.20430540355976
 30
0.0
 10
1.663543425769266
 20
5.186152967082979
 30
0.0
 10
1.660999375276861
 20
5.165154374482902
 30
0.0
 10
1.662710778278318
 20
5.144177446184178
 30
0.0
 10
1.668049405395175
 20
5.12576870662993
 30
0.0
 10
1.674203431150228
 20
5.117050229762382
 30
0.0
 10
1.677091694247889
 20
5.112958395245171
 30
0.0
  0
SPLINE
  5
12C
330
1F
100
AcDbEntity
  8
0
  6
Continuous
 62
   144
370
    18
100
AcDbSpline
210
0.0
220
0.0
230
1.0
 70
     8
 71
     3
 72
     9
 73
     5
 74
     0
 42
0.000000001
 43
0.00000001
 40
0.0
 40
0.0
 40
0.0
 40
0.0
 40
0.8382225569621733
 40
0.9999999999999999
 40
0.9999999999999999
 40
0.9999999999999999
 40
0.9999999999999999
 10
1.677091694247889
 20
5.112958395245171
 30
0.0
 10
1.682411539368893
 20
5.109587657652508
 30
0.0
 10
1.688758117705182
 20
5.10556636573586
 30
0.0
 10
1.69469817670409
 20
5.104113726925433
 30
0.0
 10
1.695659144260427
 20
5.103878722733024
 30
0.0
  0
LINE
  5
12D
330
1F
100
AcDbEntity
  8
0
  6
Continuous
 62
     7
370
    25
100
AcDbLine
 10
2.2133780019
 20
5.8119583952
 30
0.0
 11
2.3403779942
 21
5.8119583952
 31
0.0
  0
LINE
  5
12E
330
1F
100
AcDbEntity
  8
0
  6
Continuous
 62
     7
370
    25
100
AcDbLine
 10
1.6193780019
 20
5.8119583952
 30
0.0
 11
1.7463779942
 21
5.8119583952
 31
0.0
  0
LINE
  5
12F
330
1F
100
AcDbEntity
  8
0
  6
Continuous
 62
     7
370
    25
100
AcDbLine
 10
1.6673779942
 20
3.1959583952
 30
0.0
 11
1.6890286293
 21
3.1959583952
 31
0.0
  0
LINE
  5
130
330
1F
100
AcDbEntity
  8
0
  6
Continuous
 62
     7
370
    25
100
AcDbLine
 10
2.2707273591
 20
3.1959583952
 30
0.0
 11
2.2923779942
 21
3.1959583952
 31
0.0
  0
LINE
  5
131
330
1F
100
AcDbEntity
  8
0
  6
Continuous
 62
     7
370
    25
100
AcDbLine
 10
2.2707273591
 20
3.1959583952
 30
0.0
 11
2.0015286293
 21
3.1959583952
 31
0.0
  0
LINE
  5
132
330
1F
100
AcDbEntity
  8
0
  6
Continuous
 62
     7
370
    25
100
AcDbLine
 10
1.9582273591
 20
3.1959583952
 30
0.0
 11
2.0015286293
 21
3.1959583952
 31
0.0
  0
LINE
  5
133
330
1F
100
AcDbEntity
  8
0
  6
Continuous
 62
     7
370
    25
100
AcDbLine
 10
1.6890286293
 20
3.1959583952
 30
0.0
 11
1.9582273591
 21
3.1959583952
 31
0.0
  0
LINE
  5
134
330
1F
100
AcDbEntity
  8
0
  6
Continuous
 62
     7
370
    25
100
AcDbLine
 10
2.2923779942
 20
2.9159583952
 30
0.0
 11
2.2707273591
 21
2.9159583952
 31
0.0
  0
LINE
  5
135
330
1F
100
AcDbEntity
  8
0
  6
Continuous
 62
     7
370
    25
100
AcDbLine
 10
1.6890286293
 20
2.9159583952
 30
0.0
 11
1.6673779942
 21
2.9159583952
 31
0.0
  0
LINE
  5
136
330
1F
100
AcDbEntity
  8
0
  6
Continuous
 62
     7
370
    25
100
AcDbLine
 10
1.6890286293
 20
2.9159583952
 30
0.0
 11
1.9582273591
 21
2.9159583952
 31
0.0
  0
LINE
  5
137
330
1F
100
AcDbEntity
  8
0
  6
Continuous
 62
     7
370
    25
100
AcDbLine
 10
2.0015286293
 20
2.9159583952
 30
0.0
 11
1.9582273591
 21
2.9159583952
 31
0.0
  0
LINE
  5
138
330
1F
100
AcDbEntity
  8
0
  6
Continuous
 62
     7
370
    25
100
AcDbLine
 10
2.2707273591
 20
2.9159583952
 30
0.0
 11
2.0015286293
 21
2.9159583952
 31
0.0
  0
LINE
  5
139
330
1F
100
AcDbEntity
  8
0
  6
Continuous
 62
     7
370
    25
100
AcDbLine
 10
1.6890286293
 20
3.1959583952
 30
0.0
 11
1.6890286293
 21
2.9159583952
 31
0.0
  0
LINE
  5
13A
330
1F
100
AcDbEntity
  8
0
  6
Continuous
 62
     7
370
    25
100
AcDbLine
 10
1.9582273591
 20
2.9159583952
 30
0.0
 11
1.9582273591
 21
3.1959583952
 31
0.0
  0
LINE
  5
13B
330
1F
100
AcDbEntity
  8
0
  6
Continuous
 62
     7
370
    25
100
AcDbLine
 10
2.0015286293
 20
3.1959583952
 30
0.0
 11
2.0015286293
 21
2.9159583952
 31
0.0
  0
LINE
  5
13C
330
1F
100
AcDbEntity
  8
0
  6
Continuous
 62
     7
370
    25
100
AcDbLine
 10
2.2707273591
 20
2.9159583952
 30
0.0
 11
2.2707273591
 21
3.1959583952
 31
0.0
  0
LINE
  5
13D
330
1F
100
AcDbEntity
  8
0
  6
Continuous
 62
     7
370
    25
100
AcDbLine
 10
1.9798779942
 20
2.4859583952
 30
0.0
 11
2.2598779942
 21
2.4859583952
 31
0.0
  0
LINE
  5
13E
330
1F
100
AcDbEntity
  8
0
  6
Continuous
 62
     7
370
    25
100
AcDbLine
 10
1.6998779942
 20
2.4859583952
 30
0.0
 11
1.9798779942
 21
2.4859583952
 31
0.0
  0
LINE
  5
13F
330
1F
100
AcDbEntity
  8
0
  6
Continuous
 62
     7
370
    25
100
AcDbLine
 10
1.6673779942
 20
2.9159583952
 30
0.0
 11
1.6673779942
 21
3.1959583952
 31
0.0
  0
LINE
  5
140
330
1F
100
AcDbEntity
  8
0
  6
Continuous
 62
     7
370
    25
100
AcDbLine
 10
2.2923779942
 20
3.1959583952
 30
0.0
 11
2.2923779942
 21
2.9159583952
 31
0.0
  0
LINE
  5
141
330
1F
100
AcDbEntity
  8
0
  6
Continuous
 62
     7
370
    25
100
AcDbLine
 10
2.3998779942
 20
5.6879583952
 30
0.0
 11
2.3938779942
 21
5.6879583952
 31
0.0
  0
LINE
  5
142
330
1F
100
AcDbEntity
  8
0
  6
Continuous
 62
     7
370
    25
100
AcDbLine
 10
2.0506169509
 20
5.6879583952
 30
0.0
 11
1.9091390375
 21
5.6879583952
 31
0.0
  0
LINE
  5
143
330
1F
100
AcDbEntity
  8
0
  6
Continuous
 62
     7
370
    25
100
AcDbLine
 10
1.5658779942
 20
5.6879583952
 30
0.0
 11
1.5598779942
 21
5.6879583952
 31
0.0
  0
LINE
  5
144
330
1F
100
AcDbEntity
  8
0
  6
Continuous
 62
     7
370
    25
100
AcDbLine
 10
1.8723419537
 20
5.6879583952
 30
0.0
 11
1.8723419537
 21
5.4479583952
 31
0.0
  0
LINE
  5
145
330
1F
100
AcDbEntity
  8
0
  6
Continuous
 62
     7
370
    25
100
AcDbLine
 10
2.0874140347
 20
5.4479583952
 30
0.0
 11
2.0874140347
 21
5.6879583952
 31
0.0
  0
LINE
  5
146
330
1F
100
AcDbEntity
  8
0
  6
Continuous
 62
     7
370
    25
100
AcDbLine
 10
1.5738779942
 20
5.4479583952
 30
0.0
 11
1.6828779942
 21
5.4479583952
 31
0.0
  0
LINE
  5
147
330
1F
100
AcDbEntity
  8
0
  6
Continuous
 62
     7
370
    25
100
AcDbLine
 10
1.6828779942
 20
5.4479583952
 30
0.0
 11
1.8723419537
 21
5.4479583952
 31
0.0
  0
LINE
  5
148
330
1F
100
AcDbEntity
  8
0
  6
Continuous
 62
     7
370
    25
100
AcDbLine
 10
2.0874140347
 20
5.4479583952
 30
0.0
 11
2.2768779942
 21
5.4479583952
 31
0.0
  0
LINE
  5
149
330
1F
100
AcDbEntity
  8
0
  6
Continuous
 62
     7
370
    25
100
AcDbLine
 10
2.2768779942
 20
5.4479583952
 30
0.0
 11
2.3858779942
 21
5.4479583952
 31
0.0
  0
LINE
  5
14A
330
1F
100
AcDbEntity
  8
0
  6
Continuous
 62
     7
370
    25
100
AcDbLine
 10
1.6828779942
 20
5.4479583952
 30
0.0
 11
1.6828779942
 21
5.6879583952
 31
0.0
  0
LINE
  5
14B
330
1F
100
AcDbEntity
  8
0
  6
Continuous
 62
     7
370
    25
100
AcDbLine
 10
1.5738779942
 20
5.4479583952
 30
0.0
 11
1.5738779942
 21
5.6879583952
 31
0.0
  0
LINE
  5
14C
330
1F
100
AcDbEntity
  8
0
  6
Continuous
 62
     7
370
    25
100
AcDbLine
 10
2.2768779942
 20
5.4479583952
 30
0.0
 11
2.2768779942
 21
5.6879583952
 31
0.0
  0
LINE
  5
14D
330
1F
100
AcDbEntity
  8
0
  6
Continuous
 62
     7
370
    25
100
AcDbLine
 10
2.3858779942
 20
5.4479583952
 30
0.0
 11
2.3858779942
 21
5.6879583952
 31
0.0
  0
LINE
  5
14E
330
1F
100
AcDbEntity
  8
0
  6
Continuous
 62
     7
370
    25
100
AcDbLine
 10
1.6649950949
 20
5.1354583952
 30
0.0
 11
1.724659563
 21
5.1354583952
 31
0.0
  0
LINE
  5
14F
330
1F
100
AcDbEntity
  8
0
  6
Continuous
 62
   144
370
    18
100
AcDbLine
 10
1.7149057068
 20
5.1179583952
 30
0.0
 11
1.6738341732
 21
5.1179583952
 31
0.0
  0
LINE
  5
150
330
1F
100
AcDbEntity
  8
0
  6
Continuous
 62
     7
370
    25
100
AcDbLine
 10
2.2298779942
 20
2.4779583952
 30
0.0
 11
1.7298779942
 21
2.4779583952
 31
0.0
  0
LINE
  5
151
330
1F
100
AcDbEntity
  8
0
  6
Continuous
 62
     7
370
    25
100
AcDbLine
 10
1.9798779942
 20
2.4159583952
 30
0.0
 11
1.7378779942
 21
2.4159583952
 31
0.0
  0
LINE
  5
152
330
1F
100
AcDbEntity
  8
0
  6
Continuous
 62
     7
370
    25
100
AcDbLine
 10
2.2218779942
 20
2.4159583952
 30
0.0
 11
1.9798779942
 21
2.4159583952
 31
0.0
  0
LINE
  5
153
330
1F
100
AcDbEntity
  8
0
  6
Continuous
 62
     7
370
    25
100
AcDbLine
 10
1.9798779942
 20
2.4239583952
 30
0.0
 11
2.2298779942
 21
2.4239583952
 31
0.0
  0
LINE
  5
154
330
1F
100
AcDbEntity
  8
0
  6
Continuous
 62
     7
370
    25
100
AcDbLine
 10
1.7298779942
 20
2.4239583952
 30
0.0
 11
1.9798779942
 21
2.4239583952
 31
0.0
  0
LINE
  5
155
330
1F
100
AcDbEntity
  8
0
  6
Continuous
 62
     7
370
    25
100
AcDbLine
 10
1.9798779942
 20
2.3279583952
 30
0.0
 11
2.2038779942
 21
2.3279583952
 31
0.0
  0
LINE
  5
156
330
1F
100
AcDbEntity
  8
0
  6
Continuous
 62
     7
370
    25
100
AcDbLine
 10
1.7558779942
 20
2.3279583952
 30
0.0
 11
1.9798779942
 21
2.3279583952
 31
0.0
  0
LINE
  5
157
330
1F
100
AcDbEntity
  8
0
  6
Continuous
 62
     7
370
    25
100
AcDbLine
 10
1.9798779942
 20
3.4879583952
 30
0.0
 11
2.1673779942
 21
3.4879583952
 31
0.0
  0
LINE
  5
158
330
1F
100
AcDbEntity
  8
0
  6
Continuous
 62
     7
370
    25
100
AcDbLine
 10
1.7923779942
 20
3.4879583952
 30
0.0
 11
1.9798779942
 21
3.4879583952
 31
0.0
  0
LINE
  5
159
330
1F
100
AcDbEntity
  8
0
  6
Continuous
 62
     7
370
    25
100
AcDbLine
 10
1.6748779942
 20
5.7499583952
 30
0.0
 11
1.6748779942
 21
5.6879583952
 31
0.0
  0
LINE
  5
15A
330
1F
100
AcDbEntity
  8
0
  6
Continuous
 62
     7
370
    25
100
AcDbLine
 10
1.6748779942
 20
5.6879583952
 30
0.0
 11
1.5658779942
 21
5.6879583952
 31
0.0
  0
LINE
  5
15B
330
1F
100
AcDbEntity
  8
0
  6
Continuous
 62
     7
370
    25
100
AcDbLine
 10
1.5658779942
 20
5.6879583952
 30
0.0
 11
1.5658779942
 21
5.7499583952
 31
0.0
  0
LINE
  5
15C
330
1F
100
AcDbEntity
  8
0
  6
Continuous
 62
     7
370
    25
100
AcDbLine
 10
1.5658779942
 20
5.7499583952
 30
0.0
 11
1.6748779942
 21
5.7499583952
 31
0.0
  0
LINE
  5
15D
330
1F
100
AcDbEntity
  8
0
  6
Continuous
 62
     7
370
    25
100
AcDbLine
 10
2.2848779942
 20
5.7499583952
 30
0.0
 11
2.3938779942
 21
5.7499583952
 31
0.0
  0
LINE
  5
15E
330
1F
100
AcDbEntity
  8
0
  6
Continuous
 62
     7
370
    25
100
AcDbLine
 10
1.6748779942
 20
5.7499583952
 30
0.0
 11
2.2848779942
 21
5.7499583952
 31
0.0
  0
LINE
  5
15F
330
1F
100
AcDbEntity
  8
0
  6
Continuous
 62
     7
370
    25
100
AcDbLine
 10
1.6748779942
 20
5.6879583952
 30
0.0
 11
1.9091390375
 21
5.6879583952
 31
0.0
  0
LINE
  5
160
330
1F
100
AcDbEntity
  8
0
  6
Continuous
 62
     7
370
    25
100
AcDbLine
 10
2.0506169509
 20
5.6879583952
 30
0.0
 11
2.2848779942
 21
5.6879583952
 31
0.0
  0
LINE
  5
161
330
1F
100
AcDbEntity
  8
0
  6
Continuous
 62
     7
370
    25
100
AcDbLine
 10
2.3938779942
 20
5.6879583952
 30
0.0
 11
2.2848779942
 21
5.6879583952
 31
0.0
  0
LINE
  5
162
330
1F
100
AcDbEntity
  8
0
  6
Continuous
 62
     7
370
    25
100
AcDbLine
 10
2.2848779942
 20
5.6879583952
 30
0.0
 11
2.2848779942
 21
5.7499583952
 31
0.0
  0
LINE
  5
163
330
1F
100
AcDbEntity
  8
0
  6
Continuous
 62
     7
370
    25
100
AcDbLine
 10
2.3938779942
 20
5.7499583952
 30
0.0
 11
2.3938779942
 21
5.6879583952
 31
0.0
  0
LWPOLYLINE
  5
164
330
1F
100
AcDbEntity
  8
0
  6
Continuous
 62
     7
370
    25
100
AcDbPolyline
 90
       24
 70
   128
 43
0.0
 10
1.8622442104
 20
6.0734583952
 10
1.8609756849
 20
6.0841153677
 10
1.8572641889
 20
6.0939819613
 10
1.8513849873
 20
6.1023264158
 10
1.8437741134
 20
6.1085298614
 10
1.834996031
 20
6.1121322167
 10
1.8257017703
 20
6.1128663116
 10
1.8165806441
 20
6.1106777017
 10
1.8083091245
 20
6.105728706
 10
1.8015006725
 20
6.098386369
 10
1.7966602396
 20
6.0891952383
 10
1.7941468187
 20
6.0788369779
 10
1.7941468187
 20
6.0680798126
 10
1.7966602396
 20
6.0577215522
 10
1.8015006725
 20
6.0485304214
 10
1.8083091245
 20
6.0411880845
 10
1.8165806441
 20
6.0362390888
 10
1.8257017703
 20
6.0340504789
 10
1.834996031
 20
6.0347845738
 10
1.8437741134
 20
6.0383869291
 10
1.8513849873
 20
6.0445903747
 10
1.8572641889
 20
6.0529348292
 10
1.8609756849
 20
6.0628014228
 10
1.8622442104
 20
6.0734583952
  0
SPLINE
  5
165
330
1F
100
AcDbEntity
  8
0
  6
Continuous
 62
     7
370
    25
100
AcDbSpline
210
0.0
220
0.0
230
1.0
 70
     8
 71
     3
 72
    12
 73
     8
 74
     0
 42
0.000000001
 43
0.00000001
 40
0.0
 40
0.0
 40
0.0
 40
0.0
 40
0.2139900087950585
 40
0.4279444478405213
 40
0.6427564331759561
 40
0.8573933135327663
 40
1.0
 40
1.0
 40
1.0
 40
1.0
 10
1.885470431854632
 20
6.073458395245172
 30
0.0
 10
1.885069088238947
 20
6.077884714590055
 30
0.0
 10
1.884266467719533
 20
6.086736617530186
 30
0.0
 10
1.878071521707108
 20
6.098570092170217
 30
0.0
 10
1.869134924633247
 20
6.10743288270625
 30
0.0
 10
1.859416841445874
 20
6.112477533903766
 30
0.0
 10
1.853218307335189
 20
6.11247468243659
 30
0.0
 10
1.850743938326007
 20
6.112473544170366
 30
0.0
  0
SPLINE
  5
166
330
1F
100
AcDbEntity
  8
0
  6
Continuous
 62
     7
370
    25
100
AcDbSpline
210
0.0
220
0.0
230
1.0
 70
     8
 71
     3
 72
    12
 73
     8
 74
     0
 42
0.000000001
 43
0.00000001
 40
0.0
 40
0.0
 40
0.0
 40
0.0
 40
0.2058800892727733
 40
0.4177928396060276
 40
0.6308921298496244
 40
0.8457357066414211
 40
1.0
 40
1.0
 40
1.0
 40
1.0
 10
1.850722577283356
 20
6.034039290157095
 30
0.0
 10
1.85432413789766
 20
6.034406546326881
 30
0.0
 10
1.861632791402612
 20
6.035151819940179
 30
0.0
 10
1.871935648222549
 20
6.041659401896863
 30
0.0
 10
1.880095866776563
 20
6.051426345955917
 30
0.0
 10
1.884756642311116
 20
6.062655766108433
 30
0.0
 10
1.885260041912363
 20
6.070274313120841
 30
0.0
 10
1.885470431855367
 20
6.073458395245152
 30
0.0
  0
LINE
  5
167
330
1F
100
AcDbEntity
  8
0
  6
Continuous
 62
     7
370
    25
100
AcDbLine
 10
1.7443779942
 20
6.1779583952
 30
0.0
 11
2.2153779942
 21
6.1779583952
 31
0.0
  0
SPLINE
  5
168
330
1F
100
AcDbEntity
  8
0
  6
Continuous
 62
     7
370
    25
100
AcDbSpline
210
0.0
220
0.0
230
1.0
 70
     8
 71
     3
 72
    18
 73
    14
 74
     0
 42
0.000000001
 43
0.00000001
 40
0.0
 40
0.0
 40
0.0
 40
0.0
 40
0.0348942390295968
 40
0.1405595337044647
 40
0.2475866188297739
 40
0.3560864467296189
 40
0.4638827501667593
 40
0.5692384582896264
 40
0.6735379031384399
 40
0.7794746281033305
 40
0.8876405016630929
 40
0.9959528186764328
 40
1.0
 40
1.0
 40
1.0
 40
1.0
 10
2.214914846816105
 20
6.112473544170477
 30
0.0
 10
2.214855101083179
 20
6.112607655864483
 30
0.0
 10
2.214614435787288
 20
6.113147879055994
 30
0.0
 10
2.213447966436643
 20
6.109606983917535
 30
0.0
 10
2.211742305443185
 20
6.102170658389493
 30
0.0
 10
2.210125804468156
 20
6.091120663021803
 30
0.0
 10
2.20925146753068
 20
6.078141626967429
 30
0.0
 10
2.209419548618818
 20
6.064761811868421
 30
0.0
 10
2.210526021336152
 20
6.052506553575931
 30
0.0
 10
2.212218231222561
 20
6.04233641520448
 30
0.0
 10
2.213850374364869
 20
6.036008296772048
 30
0.0
 10
2.214839108711371
 20
6.033268476282017
 30
0.0
 10
2.214978305823038
 20
6.03401249080595
 30
0.0
 10
2.214983319693328
 20
6.034039290157409
 30
0.0
  0
LINE
  5
169
330
1F
100
AcDbEntity
  8
0
  6
Continuous
 62
     7
370
    25
100
AcDbLine
 10
2.2603779942
 20
6.1129583952
 30
0.0
 11
2.2603779942
 21
6.0339583952
 31
0.0
  0
SPLINE
  5
16A
330
1F
100
AcDbEntity
  8
0
  6
Continuous
 62
     7
370
    25
100
AcDbSpline
210
0.0
220
0.0
230
1.0
 70
    24
 71
     3
 72
    14
 73
    10
 74
     0
 42
0.000000001
 43
0.00000001
 40
0.0
 40
0.0
 40
0.0
 40
0.0
 40
0.25
 40
0.25
 40
0.5
 40
0.5
 40
0.75
 40
0.75
 40
1.0
 40
1.0
 40
1.0
 40
1.0
 10
2.389877994213221
 20
3.662958395245171
 30
0.0
 10
2.389877994213221
 20
3.662958395245171
 30
0.0
 10
2.346679513617083
 20
3.662958395245171
 30
0.0
 10
2.192904035382327
 20
3.662958395245171
 30
0.0
 10
2.088613677653221
 20
3.662958395245171
 30
0.0
 10
1.87114231077322
 20
3.662958395245171
 30
0.0
 10
1.766851953044114
 20
3.662958395245171
 30
0.0
 10
1.613076474809359
 20
3.662958395245171
 30
0.0
 10
1.569877994213221
 20
3.662958395245171
 30
0.0
 10
1.569877994213221
 20
3.662958395245171
 30
0.0
  0
SPLINE
  5
16B
330
1F
100
AcDbEntity
  8
0
  6
Continuous
 62
   144
370
    18
100
AcDbSpline
210
0.0
220
0.0
230
1.0
 70
    24
 71
     3
 72
    14
 73
    10
 74
     0
 42
0.000000001
 43
0.00000001
 40
0.0
 40
0.0
 40
0.0
 40
0.0
 40
0.25
 40
0.25
 40
0.5
 40
0.5
 40
0.75
 40
0.75
 40
1.0
 40
1.0
 40
1.0
 40
1.0
 10
1.569877994213221
 20
3.87295839524517
 30
0.0
 10
1.569877994213221
 20
3.87295839524517
 30
0.0
 10
1.613076474809359
 20
3.87295839524517
 30
0.0
 10
1.766851953044114
 20
3.87295839524517
 30
0.0
 10
1.871142310773221
 20
3.87295839524517
 30
0.0
 10
2.088613677653221
 20
3.87295839524517
 30
0.0
 10
2.192904035382327
 20
3.87295839524517
 30
0.0
 10
2.346679513617083
 20
3.87295839524517
 30
0.0
 10
2.389877994213221
 20
3.87295839524517
 30
0.0
 10
2.389877994213221
 20
3.87295839524517
 30
0.0
  0
LINE
  5
16C
330
1F
100
AcDbEntity
  8
0
  6
Continuous
 62
   144
370
    18
100
AcDbLine
 10
1.7923779942
 20
3.4879583952
 30
0.0
 11
2.1673779942
 21
3.4879583952
 31
0.0
  0
LINE
  5
16D
330
1F
100
AcDbEntity
  8
0
  6
Continuous
 62
     8
370
    25
100
AcDbLine
 10
2.3603779942
 20
5.7919583952
 30
0.0
 11
2.1933779942
 21
5.7919583952
 31
0.0
  0
LINE
  5
16E
330
1F
100
AcDbEntity
  8
0
  6
Continuous
 62
     8
370
    25
100
AcDbLine
 10
1.7663779942
 20
5.7919583952
 30
0.0
 11
1.5993779942
 21
5.7919583952
 31
0.0
  0
LINE
  5
16F
330
1F
100
AcDbEntity
  8
0
  6
Continuous
 62
     8
370
    25
100
AcDbLine
 10
2.3998779942
 20
3.6729583952
 30
0.0
 11
1.5598779942
 21
3.6729583952
 31
0.0
  0
LINE
  5
170
330
1F
100
AcDbEntity
  8
0
  6
Continuous
 62
     8
370
    25
100
AcDbLine
 10
2.3998779942
 20
3.8629583952
 30
0.0
 11
1.5598779942
 21
3.8629583952
 31
0.0
  0
LINE
  5
171
330
1F
100
AcDbEntity
  8
0
  6
Continuous
 62
     8
370
    25
100
AcDbLine
 10
2.1673779942
 20
3.6429583952
 30
0.0
 11
1.7923779942
 21
3.6429583952
 31
0.0
  0
LINE
  5
172
330
1F
100
AcDbEntity
  8
0
  6
Continuous
 62
     7
370
    25
100
AcDbLine
 10
4.763854963
 20
8.3118940903
 30
0.0
 11
4.763854963
 21
8.3119891563
 31
0.0
  0
LINE
  5
173
330
1F
100
AcDbEntity
  8
0
  6
Continuous
 62
     7
370
    25
100
AcDbLine
 10
4.650854963
 20
8.3118982489
 30
0.0
 11
4.650854963
 21
8.3118940903
 31
0.0
  0
LINE
  5
174
330
1F
100
AcDbEntity
  8
0
  6
Continuous
 62
     7
370
    25
100
AcDbLine
 10
4.763854963
 20
7.479525228
 30
0.0
 11
4.763854963
 21
7.4795293866
 31
0.0
  0
LINE
  5
175
330
1F
100
AcDbEntity
  8
0
  6
Continuous
 62
     7
370
    25
100
AcDbLine
 10
4.650854963
 20
7.4795293866
 30
0.0
 11
4.650854963
 21
7.4794343206
 31
0.0
  0
LINE
  5
176
330
1F
100
AcDbEntity
  8
0
  6
Continuous
 62
     7
370
    25
100
AcDbLine
 10
4.4513773587
 20
8.0133455223
 30
0.0
 11
4.4916063543
 21
7.9901193008
 31
0.0
  0
LINE
  5
177
330
1F
100
AcDbEntity
  8
0
  6
Continuous
 62
     7
370
    25
100
AcDbLine
 10
4.5349605242
 20
8.0563101017
 30
0.0
 11
4.4908773587
 21
8.0817615292
 31
0.0
  0
LINE
  5
178
330
1F
100
AcDbEntity
  8
0
  6
Continuous
 62
     7
370
    25
100
AcDbLine
 10
4.9372176102
 20
8.0585779547
 30
0.0
 11
4.8969886147
 21
8.0353517333
 31
0.0
  0
LINE
  5
179
330
1F
100
AcDbEntity
  8
0
  6
Continuous
 62
     7
370
    25
100
AcDbLine
 10
4.9326344448
 20
7.9647105204
 30
0.0
 11
4.9767176102
 21
7.9901619478
 31
0.0
  0
LINE
  5
17A
330
1F
100
AcDbEntity
  8
0
  6
Continuous
 62
     7
370
    25
100
AcDbLine
 10
4.7334699201
 20
7.6152117385
 30
0.0
 11
4.7334699201
 21
7.6616641813
 31
0.0
  0
LINE
  5
17B
330
1F
100
AcDbEntity
  8
0
  6
Continuous
 62
     7
370
    25
100
AcDbLine
 10
4.6544699201
 20
7.6661145934
 30
0.0
 11
4.6544699201
 21
7.6152117385
 31
0.0
  0
LINE
  5
17C
330
1F
100
AcDbEntity
  8
0
  6
Continuous
 62
     7
370
    25
100
AcDbLine
 10
5.009354963
 20
7.6038282001
 30
0.0
 11
4.9992385014
 21
7.5937117385
 31
0.0
  0
LWPOLYLINE
  5
17D
330
1F
100
AcDbEntity
  8
0
  6
Continuous
 62
     7
370
    25
100
AcDbPolyline
 90
        3
 70
   128
 43
0.0
 10
4.4154714246
 20
7.5937117385
 10
4.407356378
 20
7.6017715252
 10
4.405354963
 20
7.6038282001
  0
LWPOLYLINE
  5
17E
330
1F
100
AcDbEntity
  8
0
  6
Continuous
 62
     7
370
    25
100
AcDbPolyline
 90
        3
 70
   128
 43
0.0
 10
4.405354963
 20
8.1875952769
 10
4.407356378
 20
8.1896519518
 10
4.4154714246
 20
8.1977117385
  0
LINE
  5
17F
330
1F
100
AcDbEntity
  8
0
  6
Continuous
 62
     7
370
    25
100
AcDbLine
 10
4.9992385014
 20
8.1977117385
 30
0.0
 11
5.009354963
 21
8.1875952769
 31
0.0
  0
LINE
  5
180
330
1F
100
AcDbEntity
  8
0
  6
Continuous
 62
   144
370
    18
100
AcDbLine
 10
5.009354963
 20
7.6144231287
 30
0.0
 11
4.9886435728
 21
7.5937117385
 31
0.0
  0
LINE
  5
181
330
1F
100
AcDbEntity
  8
0
  6
Continuous
 62
   144
370
    18
100
AcDbLine
 10
4.4260663533
 20
7.5937117385
 30
0.0
 11
4.405354963
 21
7.6144231287
 31
0.0
  0
LINE
  5
182
330
1F
100
AcDbEntity
  8
0
  6
Continuous
 62
   144
370
    18
100
AcDbLine
 10
4.405354963
 20
8.1770003482
 30
0.0
 11
4.4260663533
 21
8.1977117385
 31
0.0
  0
LINE
  5
183
330
1F
100
AcDbEntity
  8
0
  6
Continuous
 62
   144
370
    18
100
AcDbLine
 10
4.9886435728
 20
8.1977117385
 30
0.0
 11
5.009354963
 21
8.1770003482
 31
0.0
  0
LINE
  5
184
330
1F
100
AcDbEntity
  8
0
  6
Continuous
 62
   144
370
    18
100
AcDbLine
 10
4.4085536689
 20
7.6186304568
 30
0.0
 11
4.415354963
 21
7.6114719629
 31
0.0
  0
LINE
  5
185
330
1F
100
AcDbEntity
  8
0
  6
Continuous
 62
   144
370
    18
100
AcDbLine
 10
4.4231151875
 20
7.6037117385
 30
0.0
 11
4.4302736813
 21
7.5969104444
 31
0.0
  0
LINE
  5
186
330
1F
100
AcDbEntity
  8
0
  6
Continuous
 62
   144
370
    18
100
AcDbLine
 10
5.0061562571
 20
8.1727930202
 30
0.0
 11
4.999354963
 21
8.179951514
 31
0.0
  0
LINE
  5
187
330
1F
100
AcDbEntity
  8
0
  6
Continuous
 62
   144
370
    18
100
AcDbLine
 10
4.9915947386
 20
8.1877117385
 30
0.0
 11
4.9844362447
 21
8.1945130326
 31
0.0
  0
LINE
  5
188
330
1F
100
AcDbEntity
  8
0
  6
Continuous
 62
     7
370
    25
100
AcDbLine
 10
4.415354963
 20
7.6387117385
 30
0.0
 11
4.415354963
 21
7.6037117385
 31
0.0
  0
LINE
  5
189
330
1F
100
AcDbEntity
  8
0
  6
Continuous
 62
     7
370
    25
100
AcDbLine
 10
4.405354963
 20
7.6387117385
 30
0.0
 11
4.415354963
 21
7.6387117385
 31
0.0
  0
LINE
  5
18A
330
1F
100
AcDbEntity
  8
0
  6
Continuous
 62
     7
370
    25
100
AcDbLine
 10
4.405354963
 20
7.6387117385
 30
0.0
 11
4.405354963
 21
7.6037117385
 31
0.0
  0
LINE
  5
18B
330
1F
100
AcDbEntity
  8
0
  6
Continuous
 62
     7
370
    25
100
AcDbLine
 10
4.370354963
 20
7.6037117385
 30
0.0
 11
4.405354963
 21
7.6037117385
 31
0.0
  0
LINE
  5
18C
330
1F
100
AcDbEntity
  8
0
  6
Continuous
 62
   144
370
    18
100
AcDbLine
 10
4.370354963
 20
7.6037117385
 30
0.0
 11
4.370354963
 21
7.5937117385
 31
0.0
  0
LINE
  5
18D
330
1F
100
AcDbEntity
  8
0
  6
Continuous
 62
     7
370
    25
100
AcDbLine
 10
4.370354963
 20
7.5937117385
 30
0.0
 11
4.405354963
 21
7.5937117385
 31
0.0
  0
LINE
  5
18E
330
1F
100
AcDbEntity
  8
0
  6
Continuous
 62
     7
370
    25
100
AcDbLine
 10
4.405354963
 20
7.5937117385
 30
0.0
 11
4.405354963
 21
7.5587117385
 31
0.0
  0
LINE
  5
18F
330
1F
100
AcDbEntity
  8
0
  6
Continuous
 62
   144
370
    18
100
AcDbLine
 10
4.405354963
 20
7.5587117385
 30
0.0
 11
4.415354963
 21
7.5587117385
 31
0.0
  0
LINE
  5
190
330
1F
100
AcDbEntity
  8
0
  6
Continuous
 62
     7
370
    25
100
AcDbLine
 10
4.415354963
 20
7.5937117385
 30
0.0
 11
4.415354963
 21
7.5587117385
 31
0.0
  0
LINE
  5
191
330
1F
100
AcDbEntity
  8
0
  6
Continuous
 62
     7
370
    25
100
AcDbLine
 10
4.415354963
 20
7.5937117385
 30
0.0
 11
4.450354963
 21
7.5937117385
 31
0.0
  0
LINE
  5
192
330
1F
100
AcDbEntity
  8
0
  6
Continuous
 62
     7
370
    25
100
AcDbLine
 10
4.450354963
 20
7.6037117385
 30
0.0
 11
4.450354963
 21
7.5937117385
 31
0.0
  0
LINE
  5
193
330
1F
100
AcDbEntity
  8
0
  6
Continuous
 62
     7
370
    25
100
AcDbLine
 10
4.415354963
 20
7.6037117385
 30
0.0
 11
4.450354963
 21
7.6037117385
 31
0.0
  0
CIRCLE
  5
194
330
1F
100
AcDbEntity
  8
0
  6
Continuous
 62
     7
370
    25
100
AcDbCircle
 10
4.410354963
 20
7.5987117385
 30
0.0
 40
0.0634999999999994
  0
CIRCLE
  5
195
330
1F
100
AcDbEntity
  8
0
  6
Continuous
 62
     7
370
    25
100
AcDbCircle
 10
4.410354963
 20
7.5987117385
 30
0.0
 40
0.0834999999999999
  0
LINE
  5
196
330
1F
100
AcDbEntity
  8
0
  6
Continuous
 62
     7
370
    25
100
AcDbLine
 10
4.964354963
 20
8.1977117385
 30
0.0
 11
4.999354963
 21
8.1977117385
 31
0.0
  0
LINE
  5
197
330
1F
100
AcDbEntity
  8
0
  6
Continuous
 62
     7
370
    25
100
AcDbLine
 10
4.964354963
 20
8.1977117385
 30
0.0
 11
4.964354963
 21
8.1877117385
 31
0.0
  0
LINE
  5
198
330
1F
100
AcDbEntity
  8
0
  6
Continuous
 62
     7
370
    25
100
AcDbLine
 10
4.964354963
 20
8.1877117385
 30
0.0
 11
4.999354963
 21
8.1877117385
 31
0.0
  0
LINE
  5
199
330
1F
100
AcDbEntity
  8
0
  6
Continuous
 62
     7
370
    25
100
AcDbLine
 10
4.999354963
 20
8.1877117385
 30
0.0
 11
4.999354963
 21
8.1527117385
 31
0.0
  0
LINE
  5
19A
330
1F
100
AcDbEntity
  8
0
  6
Continuous
 62
     7
370
    25
100
AcDbLine
 10
4.999354963
 20
8.1527117385
 30
0.0
 11
5.009354963
 21
8.1527117385
 31
0.0
  0
LINE
  5
19B
330
1F
100
AcDbEntity
  8
0
  6
Continuous
 62
     7
370
    25
100
AcDbLine
 10
5.009354963
 20
8.1877117385
 30
0.0
 11
5.009354963
 21
8.1527117385
 31
0.0
  0
LINE
  5
19C
330
1F
100
AcDbEntity
  8
0
  6
Continuous
 62
     7
370
    25
100
AcDbLine
 10
5.009354963
 20
8.1877117385
 30
0.0
 11
5.044354963
 21
8.1877117385
 31
0.0
  0
LINE
  5
19D
330
1F
100
AcDbEntity
  8
0
  6
Continuous
 62
     7
370
    25
100
AcDbLine
 10
5.009354963
 20
8.2327117385
 30
0.0
 11
5.009354963
 21
8.1977117385
 31
0.0
  0
LINE
  5
19E
330
1F
100
AcDbEntity
  8
0
  6
Continuous
 62
     7
370
    25
100
AcDbLine
 10
5.009354963
 20
8.1977117385
 30
0.0
 11
5.044354963
 21
8.1977117385
 31
0.0
  0
LINE
  5
19F
330
1F
100
AcDbEntity
  8
0
  6
Continuous
 62
     7
370
    25
100
AcDbLine
 10
4.999354963
 20
8.2327117385
 30
0.0
 11
4.999354963
 21
8.1977117385
 31
0.0
  0
CIRCLE
  5
1A0
330
1F
100
AcDbEntity
  8
0
  6
Continuous
 62
     7
370
    25
100
AcDbCircle
 10
5.004354963
 20
8.1927117385
 30
0.0
 40
0.0635000000000012
  0
LINE
  5
1A1
330
1F
100
AcDbEntity
  8
0
  6
Continuous
 62
   144
370
    18
100
AcDbLine
 10
5.044354963
 20
8.1977117385
 30
0.0
 11
5.044354963
 21
8.1877117385
 31
0.0
  0
LINE
  5
1A2
330
1F
100
AcDbEntity
  8
0
  6
Continuous
 62
   144
370
    18
100
AcDbLine
 10
4.999354963
 20
8.2327117385
 30
0.0
 11
5.009354963
 21
8.2327117385
 31
0.0
  0
CIRCLE
  5
1A3
330
1F
100
AcDbEntity
  8
0
  6
Continuous
 62
     7
370
    25
100
AcDbCircle
 10
5.004354963
 20
8.1927117385
 30
0.0
 40
0.0835000000000008
  0
LINE
  5
1A4
330
1F
100
AcDbEntity
  8
0
  6
Continuous
 62
     7
370
    25
100
AcDbLine
 10
4.450354963
 20
8.1977117385
 30
0.0
 11
4.450354963
 21
8.1877117385
 31
0.0
  0
LINE
  5
1A5
330
1F
100
AcDbEntity
  8
0
  6
Continuous
 62
     7
370
    25
100
AcDbLine
 10
4.415354963
 20
8.1977117385
 30
0.0
 11
4.450354963
 21
8.1977117385
 31
0.0
  0
LINE
  5
1A6
330
1F
100
AcDbEntity
  8
0
  6
Continuous
 62
     7
370
    25
100
AcDbLine
 10
4.415354963
 20
8.2327117385
 30
0.0
 11
4.415354963
 21
8.1977117385
 31
0.0
  0
LINE
  5
1A7
330
1F
100
AcDbEntity
  8
0
  6
Continuous
 62
   144
370
    18
100
AcDbLine
 10
4.405354963
 20
8.2327117385
 30
0.0
 11
4.415354963
 21
8.2327117385
 31
0.0
  0
LINE
  5
1A8
330
1F
100
AcDbEntity
  8
0
  6
Continuous
 62
     7
370
    25
100
AcDbLine
 10
4.405354963
 20
8.2327117385
 30
0.0
 11
4.405354963
 21
8.1977117385
 31
0.0
  0
LINE
  5
1A9
330
1F
100
AcDbEntity
  8
0
  6
Continuous
 62
     7
370
    25
100
AcDbLine
 10
4.370354963
 20
8.1977117385
 30
0.0
 11
4.405354963
 21
8.1977117385
 31
0.0
  0
LINE
  5
1AA
330
1F
100
AcDbEntity
  8
0
  6
Continuous
 62
   144
370
    18
100
AcDbLine
 10
4.370354963
 20
8.1977117385
 30
0.0
 11
4.370354963
 21
8.1877117385
 31
0.0
  0
LINE
  5
1AB
330
1F
100
AcDbEntity
  8
0
  6
Continuous
 62
     7
370
    25
100
AcDbLine
 10
4.370354963
 20
8.1877117385
 30
0.0
 11
4.405354963
 21
8.1877117385
 31
0.0
  0
LINE
  5
1AC
330
1F
100
AcDbEntity
  8
0
  6
Continuous
 62
     7
370
    25
100
AcDbLine
 10
4.405354963
 20
8.1877117385
 30
0.0
 11
4.405354963
 21
8.1527117385
 31
0.0
  0
LINE
  5
1AD
330
1F
100
AcDbEntity
  8
0
  6
Continuous
 62
     7
370
    25
100
AcDbLine
 10
4.405354963
 20
8.1527117385
 30
0.0
 11
4.415354963
 21
8.1527117385
 31
0.0
  0
LINE
  5
1AE
330
1F
100
AcDbEntity
  8
0
  6
Continuous
 62
     7
370
    25
100
AcDbLine
 10
4.415354963
 20
8.1877117385
 30
0.0
 11
4.415354963
 21
8.1527117385
 31
0.0
  0
LINE
  5
1AF
330
1F
100
AcDbEntity
  8
0
  6
Continuous
 62
     7
370
    25
100
AcDbLine
 10
4.415354963
 20
8.1877117385
 30
0.0
 11
4.450354963
 21
8.1877117385
 31
0.0
  0
CIRCLE
  5
1B0
330
1F
100
AcDbEntity
  8
0
  6
Continuous
 62
     7
370
    25
100
AcDbCircle
 10
4.410354963
 20
8.1927117385
 30
0.0
 40
0.0635000000000012
  0
CIRCLE
  5
1B1
330
1F
100
AcDbEntity
  8
0
  6
Continuous
 62
     7
370
    25
100
AcDbCircle
 10
4.410354963
 20
8.1927117385
 30
0.0
 40
0.0835000000000008
  0
ARC
  5
1B2
330
1F
100
AcDbEntity
  8
0
  6
Continuous
 62
     7
370
    25
100
AcDbCircle
 10
4.707354963
 20
7.8957117385
 30
0.0
 40
0.4199999999999996
100
AcDbArc
 50
260.3036789465
 51
279.6963210535
  0
ARC
  5
1B3
330
1F
100
AcDbEntity
  8
0
  6
Continuous
 62
     7
370
    25
100
AcDbCircle
 10
4.707354963
 20
7.8957117385
 30
0.0
 40
0.4200000000000002
100
AcDbArc
 50
170.3036789465
 51
189.6963210535
  0
ARC
  5
1B4
330
1F
100
AcDbEntity
  8
0
  6
Continuous
 62
     7
370
    25
100
AcDbCircle
 10
4.707354963
 20
7.8957117385
 30
0.0
 40
0.4200000000000013
100
AcDbArc
 50
80.3036789465
 51
99.6963210535
  0
ARC
  5
1B5
330
1F
100
AcDbEntity
  8
0
  6
Continuous
 62
     7
370
    25
100
AcDbCircle
 10
4.707354963
 20
7.8957117385
 30
0.0
 40
0.420000000000001
100
AcDbArc
 50
350.3036789465
 51
9.6963210535
  0
LINE
  5
1B6
330
1F
100
AcDbEntity
  8
0
  6
Continuous
 62
   144
370
    18
100
AcDbLine
 10
5.004354963
 20
7.5607117385
 30
0.0
 11
5.009354963
 21
7.5610421221
 31
0.0
  0
LWPOLYLINE
  5
1B7
330
1F
100
AcDbEntity
  8
0
  6
Continuous
 62
   144
370
    18
100
AcDbPolyline
 90
        3
 70
   128
 43
0.0
 10
5.0420245794
 20
7.5937117385
 10
5.0422663762
 20
7.6013049502
 10
5.0420245794
 20
7.6037117385
  0
LINE
  5
1B8
330
1F
100
AcDbEntity
  8
0
  6
Continuous
 62
   144
370
    18
100
AcDbLine
 10
5.009354963
 20
7.6363813549
 30
0.0
 11
4.999354963
 21
7.6363813549
 31
0.0
  0
LWPOLYLINE
  5
1B9
330
1F
100
AcDbEntity
  8
0
  6
Continuous
 62
   144
370
    18
100
AcDbPolyline
 90
        3
 70
   128
 43
0.0
 10
4.9666853466
 20
7.6037117385
 10
4.9664435498
 20
7.6013049502
 10
4.9666853466
 20
7.5937117385
  0
LINE
  5
1BA
330
1F
100
AcDbEntity
  8
0
  6
Continuous
 62
   144
370
    18
100
AcDbLine
 10
4.999354963
 20
7.5610421221
 30
0.0
 11
5.004354963
 21
7.5607117385
 31
0.0
  0
LINE
  5
1BB
330
1F
100
AcDbEntity
  8
0
  6
Continuous
 62
   144
370
    18
100
AcDbLine
 10
5.004354963
 20
8.2307117385
 30
0.0
 11
4.999354963
 21
8.2303813549
 31
0.0
  0
LWPOLYLINE
  5
1BC
330
1F
100
AcDbEntity
  8
0
  6
Continuous
 62
   144
370
    18
100
AcDbPolyline
 90
        3
 70
   128
 43
0.0
 10
4.9666853466
 20
8.1977117385
 10
4.9664435498
 20
8.1901185268
 10
4.9666853466
 20
8.1877117385
  0
LINE
  5
1BD
330
1F
100
AcDbEntity
  8
0
  6
Continuous
 62
   144
370
    18
100
AcDbLine
 10
4.999354963
 20
8.1550421221
 30
0.0
 11
5.009354963
 21
8.1550421221
 31
0.0
  0
LWPOLYLINE
  5
1BE
330
1F
100
AcDbEntity
  8
0
  6
Continuous
 62
   144
370
    18
100
AcDbPolyline
 90
        3
 70
   128
 43
0.0
 10
5.0420245794
 20
8.1877117385
 10
5.0422663762
 20
8.1901185268
 10
5.0420245794
 20
8.1977117385
  0
LINE
  5
1BF
330
1F
100
AcDbEntity
  8
0
  6
Continuous
 62
   144
370
    18
100
AcDbLine
 10
5.009354963
 20
8.2303813549
 30
0.0
 11
5.004354963
 21
8.2307117385
 31
0.0
  0
LINE
  5
1C0
330
1F
100
AcDbEntity
  8
0
  6
Continuous
 62
   144
370
    18
100
AcDbLine
 10
4.410354963
 20
7.6367117385
 30
0.0
 11
4.405354963
 21
7.6363813549
 31
0.0
  0
LWPOLYLINE
  5
1C1
330
1F
100
AcDbEntity
  8
0
  6
Continuous
 62
   144
370
    18
100
AcDbPolyline
 90
        3
 70
   128
 43
0.0
 10
4.3726853466
 20
7.6037117385
 10
4.3724435498
 20
7.5961185268
 10
4.3726853466
 20
7.5937117385
  0
LINE
  5
1C2
330
1F
100
AcDbEntity
  8
0
  6
Continuous
 62
   144
370
    18
100
AcDbLine
 10
4.405354963
 20
7.5610421221
 30
0.0
 11
4.415354963
 21
7.5610421221
 31
0.0
  0
LWPOLYLINE
  5
1C3
330
1F
100
AcDbEntity
  8
0
  6
Continuous
 62
   144
370
    18
100
AcDbPolyline
 90
        3
 70
   128
 43
0.0
 10
4.4480245794
 20
7.5937117385
 10
4.4482663762
 20
7.5961185268
 10
4.4480245794
 20
7.6037117385
  0
LINE
  5
1C4
330
1F
100
AcDbEntity
  8
0
  6
Continuous
 62
   144
370
    18
100
AcDbLine
 10
4.415354963
 20
7.6363813549
 30
0.0
 11
4.410354963
 21
7.6367117385
 31
0.0
  0
LINE
  5
1C5
330
1F
100
AcDbEntity
  8
0
  6
Continuous
 62
   144
370
    18
100
AcDbLine
 10
4.410354963
 20
8.1547117385
 30
0.0
 11
4.415354963
 21
8.1550421221
 31
0.0
  0
LWPOLYLINE
  5
1C6
330
1F
100
AcDbEntity
  8
0
  6
Continuous
 62
   144
370
    18
100
AcDbPolyline
 90
        3
 70
   128
 43
0.0
 10
4.4480245794
 20
8.1877117385
 10
4.4482663762
 20
8.1953049502
 10
4.4480245794
 20
8.1977117385
  0
LINE
  5
1C7
330
1F
100
AcDbEntity
  8
0
  6
Continuous
 62
   144
370
    18
100
AcDbLine
 10
4.415354963
 20
8.2303813549
 30
0.0
 11
4.405354963
 21
8.2303813549
 31
0.0
  0
LWPOLYLINE
  5
1C8
330
1F
100
AcDbEntity
  8
0
  6
Continuous
 62
   144
370
    18
100
AcDbPolyline
 90
        3
 70
   128
 43
0.0
 10
4.3726853466
 20
8.1977117385
 10
4.3724435498
 20
8.1953049502
 10
4.3726853466
 20
8.1877117385
  0
LINE
  5
1C9
330
1F
100
AcDbEntity
  8
0
  6
Continuous
 62
   144
370
    18
100
AcDbLine
 10
4.405354963
 20
8.1550421221
 30
0.0
 11
4.410354963
 21
8.1547117385
 31
0.0
  0
LINE
  5
1CA
330
1F
100
AcDbEntity
  8
0
  6
Continuous
 62
   144
370
    18
100
AcDbLine
 10
5.004354963
 20
8.2127117385
 30
0.0
 11
5.009354963
 21
8.2120766552
 31
0.0
  0
LWPOLYLINE
  5
1CB
330
1F
100
AcDbEntity
  8
0
  6
Continuous
 62
   144
370
    18
100
AcDbPolyline
 90
        3
 70
   128
 43
0.0
 10
5.0237198797
 20
8.1977117385
 10
5.024354963
 20
8.1927117385
 10
5.0237198797
 20
8.1877117385
  0
LWPOLYLINE
  5
1CC
330
1F
100
AcDbEntity
  8
0
  6
Continuous
 62
   144
370
    18
100
AcDbPolyline
 90
        3
 70
   128
 43
0.0
 10
5.009354963
 20
8.1733468218
 10
5.004354963
 20
8.1727117385
 10
4.999354963
 20
8.1733468218
  0
LWPOLYLINE
  5
1CD
330
1F
100
AcDbEntity
  8
0
  6
Continuous
 62
   144
370
    18
100
AcDbPolyline
 90
        3
 70
   128
 43
0.0
 10
4.9849900463
 20
8.1877117385
 10
4.984354963
 20
8.1927117385
 10
4.9849900463
 20
8.1977117385
  0
LINE
  5
1CE
330
1F
100
AcDbEntity
  8
0
  6
Continuous
 62
   144
370
    18
100
AcDbLine
 10
4.999354963
 20
8.2120766552
 30
0.0
 11
5.004354963
 21
8.2127117385
 31
0.0
  0
LINE
  5
1CF
330
1F
100
AcDbEntity
  8
0
  6
Continuous
 62
   144
370
    18
100
AcDbLine
 10
5.004354963
 20
7.5787117385
 30
0.0
 11
5.009354963
 21
7.5793468218
 31
0.0
  0
LWPOLYLINE
  5
1D0
330
1F
100
AcDbEntity
  8
0
  6
Continuous
 62
   144
370
    18
100
AcDbPolyline
 90
        3
 70
   128
 43
0.0
 10
5.0237198797
 20
7.5937117385
 10
5.024354963
 20
7.5987117385
 10
5.0237198797
 20
7.6037117385
  0
LWPOLYLINE
  5
1D1
330
1F
100
AcDbEntity
  8
0
  6
Continuous
 62
   144
370
    18
100
AcDbPolyline
 90
        3
 70
   128
 43
0.0
 10
5.009354963
 20
7.6180766552
 10
5.004354963
 20
7.6187117385
 10
4.999354963
 20
7.6180766552
  0
LWPOLYLINE
  5
1D2
330
1F
100
AcDbEntity
  8
0
  6
Continuous
 62
   144
370
    18
100
AcDbPolyline
 90
        3
 70
   128
 43
0.0
 10
4.9849900463
 20
7.6037117385
 10
4.984354963
 20
7.5987117385
 10
4.9849900463
 20
7.5937117385
  0
LINE
  5
1D3
330
1F
100
AcDbEntity
  8
0
  6
Continuous
 62
   144
370
    18
100
AcDbLine
 10
4.999354963
 20
7.5793468218
 30
0.0
 11
5.004354963
 21
7.5787117385
 31
0.0
  0
LINE
  5
1D4
330
1F
100
AcDbEntity
  8
0
  6
Continuous
 62
   144
370
    18
100
AcDbLine
 10
4.410354963
 20
8.1727117385
 30
0.0
 11
4.415354963
 21
8.1733468218
 31
0.0
  0
LWPOLYLINE
  5
1D5
330
1F
100
AcDbEntity
  8
0
  6
Continuous
 62
   144
370
    18
100
AcDbPolyline
 90
        3
 70
   128
 43
0.0
 10
4.4297198797
 20
8.1877117385
 10
4.430354963
 20
8.1927117385
 10
4.4297198797
 20
8.1977117385
  0
LWPOLYLINE
  5
1D6
330
1F
100
AcDbEntity
  8
0
  6
Continuous
 62
   144
370
    18
100
AcDbPolyline
 90
        3
 70
   128
 43
0.0
 10
4.415354963
 20
8.2120766552
 10
4.410354963
 20
8.2127117385
 10
4.405354963
 20
8.2120766552
  0
LWPOLYLINE
  5
1D7
330
1F
100
AcDbEntity
  8
0
  6
Continuous
 62
   144
370
    18
100
AcDbPolyline
 90
        3
 70
   128
 43
0.0
 10
4.3909900463
 20
8.1977117385
 10
4.390354963
 20
8.1927117385
 10
4.3909900463
 20
8.1877117385
  0
LINE
  5
1D8
330
1F
100
AcDbEntity
  8
0
  6
Continuous
 62
   144
370
    18
100
AcDbLine
 10
4.405354963
 20
8.1733468218
 30
0.0
 11
4.410354963
 21
8.1727117385
 31
0.0
  0
LINE
  5
1D9
330
1F
100
AcDbEntity
  8
0
  6
Continuous
 62
   144
370
    18
100
AcDbLine
 10
4.410354963
 20
7.6187117385
 30
0.0
 11
4.415354963
 21
7.6180766552
 31
0.0
  0
LWPOLYLINE
  5
1DA
330
1F
100
AcDbEntity
  8
0
  6
Continuous
 62
   144
370
    18
100
AcDbPolyline
 90
        3
 70
   128
 43
0.0
 10
4.4297198797
 20
7.6037117385
 10
4.430354963
 20
7.5987117385
 10
4.4297198797
 20
7.5937117385
  0
LWPOLYLINE
  5
1DB
330
1F
100
AcDbEntity
  8
0
  6
Continuous
 62
   144
370
    18
100
AcDbPolyline
 90
        3
 70
   128
 43
0.0
 10
4.415354963
 20
7.5793468218
 10
4.410354963
 20
7.5787117385
 10
4.405354963
 20
7.5793468218
  0
LWPOLYLINE
  5
1DC
330
1F
100
AcDbEntity
  8
0
  6
Continuous
 62
   144
370
    18
100
AcDbPolyline
 90
        3
 70
   128
 43
0.0
 10
4.3909900463
 20
7.5937117385
 10
4.390354963
 20
7.5987117385
 10
4.3909900463
 20
7.6037117385
  0
LINE
  5
1DD
330
1F
100
AcDbEntity
  8
0
  6
Continuous
 62
   144
370
    18
100
AcDbLine
 10
4.405354963
 20
7.6180766552
 30
0.0
 11
4.410354963
 21
7.6187117385
 31
0.0
  0
ARC
  5
1DE
330
1F
100
AcDbEntity
  8
0
  6
Continuous
 62
   144
370
    18
100
AcDbCircle
 10
4.707354963
 20
7.8957117385
 30
0.0
 40
0.09
100
AcDbArc
 50
180.0
 51
212.0461860427
  0
ARC
  5
1DF
330
1F
100
AcDbEntity
  8
0
  6
Continuous
 62
   144
370
    18
100
AcDbCircle
 10
4.707354963
 20
7.8957117385
 30
0.0
 40
0.0899999999999993
100
AcDbArc
 50
237.7894200692
 51
302.4166226384
  0
ARC
  5
1E0
330
1F
100
AcDbEntity
  8
0
  6
Continuous
 62
   144
370
    18
100
AcDbCircle
 10
4.707354963
 20
7.8957117385
 30
0.0
 40
0.0900000000000003
100
AcDbArc
 50
327.9459986306
 51
32.1706673521
  0
ARC
  5
1E1
330
1F
100
AcDbEntity
  8
0
  6
Continuous
 62
   144
370
    18
100
AcDbCircle
 10
4.707354963
 20
7.8957117385
 30
0.0
 40
0.09
100
AcDbArc
 50
57.6775762875
 51
122.4194940935
  0
ARC
  5
1E2
330
1F
100
AcDbEntity
  8
0
  6
Continuous
 62
   144
370
    18
100
AcDbCircle
 10
4.707354963
 20
7.8957117385
 30
0.0
 40
0.0900000000000006
100
AcDbArc
 50
147.8487963998
 51
180.0
  0
CIRCLE
  5
1E3
330
1F
100
AcDbEntity
  8
0
  6
Continuous
 62
     7
370
    25
100
AcDbCircle
 10
4.707354963
 20
7.8957117385
 30
0.0
 40
0.125
  0
CIRCLE
  5
1E4
330
1F
100
AcDbEntity
  8
0
  6
Continuous
 62
   144
370
    18
100
AcDbCircle
 10
4.707354963
 20
7.8957117385
 30
0.0
 40
0.1524999999999999
  0
CIRCLE
  5
1E5
330
1F
100
AcDbEntity
  8
0
  6
Continuous
 62
     7
370
    25
100
AcDbCircle
 10
4.707354963
 20
7.8957117385
 30
0.0
 40
0.2354999999999992
  0
ARC
  5
1E6
330
1F
100
AcDbEntity
  8
0
  6
Continuous
 62
     7
370
    25
100
AcDbCircle
 10
4.707354963
 20
7.8957117385
 30
0.0
 40
0.2105000000000008
100
AcDbArc
 50
74.1476587899
 51
105.8523412101
  0
LINE
  5
1E7
330
1F
100
AcDbEntity
  8
0
  6
Continuous
 62
     7
370
    25
100
AcDbLine
 10
4.649854963
 20
8.072075
 30
0.0
 11
4.649854963
 21
8.0982061829
 31
0.0
  0
ARC
  5
1E8
330
1F
100
AcDbEntity
  8
0
  6
Continuous
 62
     7
370
    25
100
AcDbCircle
 10
4.707354963
 20
7.8957117385
 30
0.0
 40
0.1854999999999999
100
AcDbArc
 50
108.0576061149
 51
172.2546282489
  0
LINE
  5
1E9
330
1F
100
AcDbEntity
  8
0
  6
Continuous
 62
     7
370
    25
100
AcDbLine
 10
4.523547319
 20
7.9207117385
 30
0.0
 11
4.4983447958
 21
7.9207117385
 31
0.0
  0
ARC
  5
1EA
330
1F
100
AcDbEntity
  8
0
  6
Continuous
 62
     7
370
    25
100
AcDbCircle
 10
4.707354963
 20
7.8957117385
 30
0.0
 40
0.2105000000000002
100
AcDbArc
 50
173.1791763213
 51
186.8208236787
  0
LINE
  5
1EB
330
1F
100
AcDbEntity
  8
0
  6
Continuous
 62
     7
370
    25
100
AcDbLine
 10
4.523547319
 20
7.8707117385
 30
0.0
 11
4.4983447958
 21
7.8707117385
 31
0.0
  0
ARC
  5
1EC
330
1F
100
AcDbEntity
  8
0
  6
Continuous
 62
     7
370
    25
100
AcDbCircle
 10
4.707354963
 20
7.8957117385
 30
0.0
 40
0.1854999999999994
100
AcDbArc
 50
187.7453717511
 51
221.5936309617
  0
LINE
  5
1ED
330
1F
100
AcDbEntity
  8
0
  6
Continuous
 62
     7
370
    25
100
AcDbLine
 10
4.5686247277
 20
7.7725688466
 30
0.0
 11
4.5499279305
 21
7.7559727696
 31
0.0
  0
ARC
  5
1EE
330
1F
100
AcDbEntity
  8
0
  6
Continuous
 62
     7
370
    25
100
AcDbCircle
 10
4.707354963
 20
7.8957117385
 30
0.0
 40
0.210499999999999
100
AcDbArc
 50
221.5936309617
 51
237.0843744639
  0
LINE
  5
1EF
330
1F
100
AcDbEntity
  8
0
  6
Continuous
 62
     7
370
    25
100
AcDbLine
 10
4.6065536308
 20
7.7399897381
 30
0.0
 11
4.5929685455
 21
7.7190029456
 31
0.0
  0
ARC
  5
1F0
330
1F
100
AcDbEntity
  8
0
  6
Continuous
 62
     7
370
    25
100
AcDbCircle
 10
4.707354963
 20
7.8957117385
 30
0.0
 40
0.1854999999999994
100
AcDbArc
 50
237.0843744639
 51
313.4377167693
  0
LINE
  5
1F1
330
1F
100
AcDbEntity
  8
0
  6
Continuous
 62
     7
370
    25
100
AcDbLine
 10
4.8348983916
 20
7.7610160673
 30
0.0
 11
4.8520875329
 21
7.7428630119
 31
0.0
  0
ARC
  5
1F2
330
1F
100
AcDbEntity
  8
0
  6
Continuous
 62
     7
370
    25
100
AcDbCircle
 10
4.707354963
 20
7.8957117385
 30
0.0
 40
0.2105000000000002
100
AcDbArc
 50
313.4377167693
 51
328.9284602715
  0
LINE
  5
1F3
330
1F
100
AcDbEntity
  8
0
  6
Continuous
 62
     7
370
    25
100
AcDbLine
 10
4.8662400823
 20
7.7999737164
 30
0.0
 11
4.8876531712
 21
7.7870710181
 31
0.0
  0
ARC
  5
1F4
330
1F
100
AcDbEntity
  8
0
  6
Continuous
 62
     7
370
    25
100
AcDbCircle
 10
4.707354963
 20
7.8957117385
 30
0.0
 40
0.1855000000000003
100
AcDbArc
 50
328.9284602715
 51
352.2546282489
  0
LINE
  5
1F5
330
1F
100
AcDbEntity
  8
0
  6
Continuous
 62
     7
370
    25
100
AcDbLine
 10
4.891162607
 20
7.8707117385
 30
0.0
 11
4.9163651302
 21
7.8707117385
 31
0.0
  0
ARC
  5
1F6
330
1F
100
AcDbEntity
  8
0
  6
Continuous
 62
     7
370
    25
100
AcDbCircle
 10
4.707354963
 20
7.8957117385
 30
0.0
 40
0.2105000000000002
100
AcDbArc
 50
353.1791763213
 51
6.8208236787
  0
LINE
  5
1F7
330
1F
100
AcDbEntity
  8
0
  6
Continuous
 62
     7
370
    25
100
AcDbLine
 10
4.891162607
 20
7.9207117385
 30
0.0
 11
4.9163651302
 21
7.9207117385
 31
0.0
  0
ARC
  5
1F8
330
1F
100
AcDbEntity
  8
0
  6
Continuous
 62
     7
370
    25
100
AcDbCircle
 10
4.707354963
 20
7.8957117385
 30
0.0
 40
0.1855000000000003
100
AcDbArc
 50
7.7453717511
 51
71.9423938851
  0
LINE
  5
1F9
330
1F
100
AcDbEntity
  8
0
  6
Continuous
 62
     7
370
    25
100
AcDbLine
 10
4.764854963
 20
8.072075
 30
0.0
 11
4.764854963
 21
8.0982061829
 31
0.0
  0
LINE
  5
1FA
330
1F
100
AcDbEntity
  8
0
  6
Continuous
 62
     7
370
    25
100
AcDbLine
 10
4.4513773587
 20
8.0133455223
 30
0.0
 11
4.4908773587
 21
8.0817615292
 31
0.0
  0
LINE
  5
1FB
330
1F
100
AcDbEntity
  8
0
  6
Continuous
 62
     7
370
    25
100
AcDbLine
 10
4.9372176102
 20
8.0585779547
 30
0.0
 11
4.9767176102
 21
7.9901619478
 31
0.0
  0
LINE
  5
1FC
330
1F
100
AcDbEntity
  8
0
  6
Continuous
 62
     7
370
    25
100
AcDbLine
 10
4.7334699201
 20
7.6152117385
 30
0.0
 11
4.6544699201
 21
7.6152117385
 31
0.0
  0
LINE
  5
1FD
330
1F
100
AcDbEntity
  8
0
  6
Continuous
 62
     7
370
    25
100
AcDbLine
 10
5.012354963
 20
8.3097117385
 30
0.0
 11
4.402354963
 21
8.3097117385
 31
0.0
  0
ARC
  5
1FE
330
1F
100
AcDbEntity
  8
0
  6
Continuous
 62
     7
370
    25
100
AcDbCircle
 10
4.402354963
 20
8.2007117385
 30
0.0
 40
0.109
100
AcDbArc
 50
90.0
 51
180.0
  0
ARC
  5
1FF
330
1F
100
AcDbEntity
  8
0
  6
Continuous
 62
     7
370
    25
100
AcDbCircle
 10
5.012354963
 20
8.2007117385
 30
0.0
 40
0.1090000000000009
100
AcDbArc
 50
0.0
 51
90.0
  0
LINE
  5
200
330
1F
100
AcDbEntity
  8
0
  6
Continuous
 62
     7
370
    25
100
AcDbLine
 10
5.121354963
 20
7.5907117385
 30
0.0
 11
5.121354963
 21
8.2007117385
 31
0.0
  0
ARC
  5
201
330
1F
100
AcDbEntity
  8
0
  6
Continuous
 62
     7
370
    25
100
AcDbCircle
 10
5.012354963
 20
7.5907117385
 30
0.0
 40
0.1090000000000009
100
AcDbArc
 50
270.0
 51
0.0
  0
LINE
  5
202
330
1F
100
AcDbEntity
  8
0
  6
Continuous
 62
     7
370
    25
100
AcDbLine
 10
4.402354963
 20
7.4817117385
 30
0.0
 11
5.012354963
 21
7.4817117385
 31
0.0
  0
ARC
  5
203
330
1F
100
AcDbEntity
  8
0
  6
Continuous
 62
     7
370
    25
100
AcDbCircle
 10
4.402354963
 20
7.5907117385
 30
0.0
 40
0.1090000000000009
100
AcDbArc
 50
180.0
 51
270.0
  0
LINE
  5
204
330
1F
100
AcDbEntity
  8
0
  6
Continuous
 62
     7
370
    25
100
AcDbLine
 10
4.293354963
 20
8.2007117385
 30
0.0
 11
4.293354963
 21
7.5907117385
 31
0.0
  0
SPLINE
  5
205
330
1F
100
AcDbEntity
  8
0
  6
Continuous
 62
     7
370
    25
100
AcDbSpline
210
0.0
220
0.0
230
1.0
 70
    11
 71
     3
 72
    22
 73
    18
 74
     0
 42
0.000000001
 43
0.00000001
 40
0.0
 40
0.0
 40
0.0
 40
0.0
 40
0.1250000000000001
 40
0.1250000000000001
 40
0.2500000000000002
 40
0.2500000000000002
 40
0.3750000000000003
 40
0.3750000000000003
 40
0.5000000000000002
 40
0.5000000000000002
 40
0.6250000000000002
 40
0.6250000000000002
 40
0.7500000000000002
 40
0.7500000000000002
 40
0.8750000000000001
 40
0.8750000000000001
 40
1.0
 40
1.0
 40
1.0
 40
1.0
 10
4.767354965516517
 20
7.855711738484412
 30
0.0
 10
4.762069952965261
 20
7.855711739146854
 30
0.0
 10
4.756895899692202
 20
7.853538847580026
 30
0.0
 10
4.749522461484087
 20
7.846161605159456
 30
0.0
 10
4.747356964866979
 20
7.840940621170355
 30
0.0
 10
4.747352964088032
 20
7.830498180870149
 30
0.0
 10
4.749478152885279
 20
7.825305992492957
 30
0.0
 10
4.75694100659049
 20
7.817839710016406
 30
0.0
 10
4.762133164344685
 20
7.815713092239723
 30
0.0
 10
4.772566386490638
 20
7.815710386074654
 30
0.0
 10
4.777790352838826
 20
7.817869552654849
 30
0.0
 10
4.785178220167636
 20
7.825244051999629
 30
0.0
 10
4.787350619082472
 20
7.830411857460978
 30
0.0
 10
4.787359293459329
 20
7.840978783567299
 30
0.0
 10
4.785195099375404
 20
7.846150114938285
 30
0.0
 10
4.777821126728572
 20
7.853535587270526
 30
0.0
 10
4.772639978067775
 20
7.855711737821969
 30
0.0
 10
4.767354965516517
 20
7.855711738484412
 30
0.0
  0
SPLINE
  5
206
330
1F
100
AcDbEntity
  8
0
  6
Continuous
 62
     7
370
    25
100
AcDbSpline
210
0.0
220
0.0
230
1.0
 70
    11
 71
     3
 72
    22
 73
    18
 74
     0
 42
0.000000001
 43
0.00000001
 40
0.0
 40
0.0
 40
0.0
 40
0.0
 40
0.1249999999999999
 40
0.1249999999999999
 40
0.2499999999999999
 40
0.2499999999999999
 40
0.3749999999999998
 40
0.3749999999999998
 40
0.4999999999999998
 40
0.4999999999999998
 40
0.6249999999999998
 40
0.6249999999999998
 40
0.7499999999999998
 40
0.7499999999999998
 40
0.8749999999999998
 40
0.8749999999999998
 40
1.0
 40
1.0
 40
1.0
 40
1.0
 10
4.76735496302156
 20
7.935711738484411
 30
0.0
 10
4.772639978281636
 20
7.93571173848756
 30
0.0
 10
4.777814025081783
 20
7.937884630024108
 30
0.0
 10
4.785187458569639
 20
7.94526186395947
 30
0.0
 10
4.787352956481873
 20
7.950482833865478
 30
0.0
 10
4.787356966587996
 20
7.960925282315702
 30
0.0
 10
4.785231776486849
 20
7.966117476108931
 30
0.0
 10
4.77776893506048
 20
7.973583756326097
 30
0.0
 10
4.772576771717163
 20
7.975710381711065
 30
0.0
 10
4.762143552607833
 20
7.975713093906201
 30
0.0
 10
4.756919587293049
 20
7.973553934147128
 30
0.0
 10
4.749531708069232
 20
7.966179431436645
 30
0.0
 10
4.747359305863053
 20
7.961011604871834
 30
0.0
 10
4.747350633627129
 20
7.950444699999229
 30
0.0
 10
4.749514834913926
 20
7.945273351754431
 30
0.0
 10
4.756888798648009
 20
7.93788789233518
 30
0.0
 10
4.762069947761486
 20
7.935711738481262
 30
0.0
 10
4.76735496302156
 20
7.935711738484411
 30
0.0
  0
SPLINE
  5
207
330
1F
100
AcDbEntity
  8
0
  6
Continuous
 62
     7
370
    25
100
AcDbSpline
210
0.0
220
0.0
230
1.0
 70
    11
 71
     3
 72
    22
 73
    18
 74
     0
 42
0.000000001
 43
0.00000001
 40
0.0
 40
0.0
 40
0.0
 40
0.0
 40
0.1250000000000002
 40
0.1250000000000002
 40
0.2500000000000003
 40
0.2500000000000003
 40
0.3750000000000004
 40
0.3750000000000004
 40
0.5000000000000003
 40
0.5000000000000003
 40
0.6250000000000003
 40
0.6250000000000003
 40
0.7500000000000002
 40
0.7500000000000002
 40
0.8750000000000002
 40
0.8750000000000002
 40
1.0
 40
1.0
 40
1.0
 40
1.0
 10
4.647354965516518
 20
7.975711738484412
 30
0.0
 10
4.64206995296526
 20
7.975711739146853
 30
0.0
 10
4.636895899692203
 20
7.973538847580025
 30
0.0
 10
4.629522461484088
 20
7.966161605159455
 30
0.0
 10
4.627356964866979
 20
7.960940621170354
 30
0.0
 10
4.627352964088033
 20
7.95049818087015
 30
0.0
 10
4.62947815288528
 20
7.945305992492957
 30
0.0
 10
4.636941006590491
 20
7.937839710016406
 30
0.0
 10
4.642133164344686
 20
7.935713092239724
 30
0.0
 10
4.652566386490638
 20
7.935710386074653
 30
0.0
 10
4.657790352838827
 20
7.93786955265485
 30
0.0
 10
4.665178220167637
 20
7.945244051999629
 30
0.0
 10
4.667350619082472
 20
7.950411857460977
 30
0.0
 10
4.667359293459329
 20
7.9609787835673
 30
0.0
 10
4.665195099375405
 20
7.966150114938285
 30
0.0
 10
4.657821126728572
 20
7.973535587270526
 30
0.0
 10
4.652639978067776
 20
7.975711737821968
 30
0.0
 10
4.647354965516518
 20
7.975711738484411
 30
0.0
  0
SPLINE
  5
208
330
1F
100
AcDbEntity
  8
0
  6
Continuous
 62
     7
370
    25
100
AcDbSpline
210
0.0
220
0.0
230
1.0
 70
    11
 71
     3
 72
    22
 73
    18
 74
     0
 42
0.000000001
 43
0.00000001
 40
0.0
 40
0.0
 40
0.0
 40
0.0
 40
0.1250000000000001
 40
0.1250000000000001
 40
0.2500000000000001
 40
0.2500000000000001
 40
0.3750000000000002
 40
0.3750000000000002
 40
0.5000000000000002
 40
0.5000000000000002
 40
0.6250000000000002
 40
0.6250000000000002
 40
0.7500000000000002
 40
0.7500000000000002
 40
0.8750000000000001
 40
0.8750000000000001
 40
1.0
 40
1.0
 40
1.0
 40
1.0
 10
4.647354963021561
 20
7.815711738484412
 30
0.0
 10
4.652639978281636
 20
7.81571173848756
 30
0.0
 10
4.657814025081783
 20
7.817884630024109
 30
0.0
 10
4.66518745856964
 20
7.82526186395947
 30
0.0
 10
4.667352956481873
 20
7.830482833865478
 30
0.0
 10
4.667356966587997
 20
7.840925282315702
 30
0.0
 10
4.66523177648685
 20
7.846117476108931
 30
0.0
 10
4.65776893506048
 20
7.853583756326098
 30
0.0
 10
4.652576771717163
 20
7.855710381711064
 30
0.0
 10
4.642143552607833
 20
7.855713093906201
 30
0.0
 10
4.636919587293049
 20
7.853553934147128
 30
0.0
 10
4.629531708069232
 20
7.846179431436644
 30
0.0
 10
4.627359305863053
 20
7.841011604871834
 30
0.0
 10
4.627350633627128
 20
7.83044469999923
 30
0.0
 10
4.629514834913927
 20
7.825273351754431
 30
0.0
 10
4.636888798648009
 20
7.817887892335179
 30
0.0
 10
4.642069947761486
 20
7.815711738481262
 30
0.0
 10
4.647354963021561
 20
7.815711738484412
 30
0.0
  0
CIRCLE
  5
209
330
1F
100
AcDbEntity
  8
0
  6
Continuous
 62
   144
370
    18
100
AcDbCircle
 10
4.707354963
 20
7.8957117385
 30
0.0
 40
0.1845000000000008
  0
LINE
  5
20A
330
1F
100
AcDbEntity
  8
0
  6
Continuous
 62
   144
370
    18
100
AcDbLine
 10
4.9849874004
 20
8.1963959674
 30
0.0
 11
4.9948898656
 21
8.1877117385
 31
0.0
  0
LINE
  5
20B
330
1F
100
AcDbEntity
  8
0
  6
Continuous
 62
   144
370
    18
100
AcDbLine
 10
4.999354963
 20
8.1832466411
 30
0.0
 11
5.0079690235
 21
8.1734241877
 31
0.0
  0
LINE
  5
20C
330
1F
100
AcDbEntity
  8
0
  6
Continuous
 62
   144
370
    18
100
AcDbLine
 10
4.4296411783
 20
7.5950988492
 30
0.0
 11
4.4198200604
 21
7.6037117385
 31
0.0
  0
LINE
  5
20D
330
1F
100
AcDbEntity
  8
0
  6
Continuous
 62
   144
370
    18
100
AcDbLine
 10
4.415354963
 20
7.6081768359
 30
0.0
 11
4.4065720178
 21
7.6181918654
 31
0.0
  0
CIRCLE
  5
20E
330
1F
100
AcDbEntity
  8
0
  6
Continuous
 62
     7
370
    25
100
AcDbCircle
 10
5.004354963
 20
7.5987117385
 30
0.0
 40
0.0635000000000003
  0
CIRCLE
  5
20F
330
1F
100
AcDbEntity
  8
0
  6
Continuous
 62
     7
370
    25
100
AcDbCircle
 10
5.004354963
 20
7.5987117385
 30
0.0
 40
0.0835000000000008
  0
LINE
  5
210
330
1F
100
AcDbEntity
  8
0
  6
Continuous
 62
     7
370
    25
100
AcDbLine
 10
4.999354963
 20
7.5587117385
 30
0.0
 11
4.999354963
 21
7.5937117385
 31
0.0
  0
LINE
  5
211
330
1F
100
AcDbEntity
  8
0
  6
Continuous
 62
     7
370
    25
100
AcDbLine
 10
5.009354963
 20
7.5587117385
 30
0.0
 11
5.009354963
 21
7.5937117385
 31
0.0
  0
LINE
  5
212
330
1F
100
AcDbEntity
  8
0
  6
Continuous
 62
     7
370
    25
100
AcDbLine
 10
5.044354963
 20
7.5937117385
 30
0.0
 11
5.009354963
 21
7.5937117385
 31
0.0
  0
LINE
  5
213
330
1F
100
AcDbEntity
  8
0
  6
Continuous
 62
     7
370
    25
100
AcDbLine
 10
5.044354963
 20
7.6037117385
 30
0.0
 11
5.009354963
 21
7.6037117385
 31
0.0
  0
LINE
  5
214
330
1F
100
AcDbEntity
  8
0
  6
Continuous
 62
     7
370
    25
100
AcDbLine
 10
5.009354963
 20
7.6037117385
 30
0.0
 11
5.009354963
 21
7.6387117385
 31
0.0
  0
LINE
  5
215
330
1F
100
AcDbEntity
  8
0
  6
Continuous
 62
     7
370
    25
100
AcDbLine
 10
5.009354963
 20
7.6387117385
 30
0.0
 11
4.999354963
 21
7.6387117385
 31
0.0
  0
LINE
  5
216
330
1F
100
AcDbEntity
  8
0
  6
Continuous
 62
     7
370
    25
100
AcDbLine
 10
4.999354963
 20
7.6037117385
 30
0.0
 11
4.999354963
 21
7.6387117385
 31
0.0
  0
LINE
  5
217
330
1F
100
AcDbEntity
  8
0
  6
Continuous
 62
     7
370
    25
100
AcDbLine
 10
4.999354963
 20
7.6037117385
 30
0.0
 11
4.964354963
 21
7.6037117385
 31
0.0
  0
LINE
  5
218
330
1F
100
AcDbEntity
  8
0
  6
Continuous
 62
     7
370
    25
100
AcDbLine
 10
4.964354963
 20
7.5937117385
 30
0.0
 11
4.964354963
 21
7.6037117385
 31
0.0
  0
LINE
  5
219
330
1F
100
AcDbEntity
  8
0
  6
Continuous
 62
     7
370
    25
100
AcDbLine
 10
4.999354963
 20
7.5937117385
 30
0.0
 11
4.964354963
 21
7.5937117385
 31
0.0
  0
LINE
  5
21A
330
1F
100
AcDbEntity
  8
0
  6
Continuous
 62
   144
370
    18
100
AcDbLine
 10
5.044354963
 20
7.5937117385
 30
0.0
 11
5.044354963
 21
7.6037117385
 31
0.0
  0
LINE
  5
21B
330
1F
100
AcDbEntity
  8
0
  6
Continuous
 62
   144
370
    18
100
AcDbLine
 10
5.009354963
 20
7.5587117385
 30
0.0
 11
4.999354963
 21
7.5587117385
 31
0.0
  0
LINE
  5
21C
330
1F
100
AcDbEntity
  8
0
  6
Continuous
 62
     7
370
    25
100
AcDbLine
 10
7.5147308917
 20
6.1572464075
 30
0.0
 11
7.5147308917
 21
7.3542973319
 31
0.0
  0
LINE
  5
21D
330
1F
100
AcDbEntity
  8
0
  6
Continuous
 62
     7
370
    25
100
AcDbLine
 10
6.6747308917
 20
7.3542973319
 30
0.0
 11
6.6747308917
 21
6.1572464075
 31
0.0
  0
SPLINE
  5
21E
330
1F
100
AcDbEntity
  8
0
  6
Continuous
 62
     7
370
    25
100
AcDbSpline
210
0.0
220
0.0
230
1.0
 70
     8
 71
     3
 72
    26
 73
    22
 74
     0
 42
0.000000001
 43
0.00000001
 40
0.0
 40
0.0
 40
0.0
 40
0.0
 40
0.0239478064202975
 40
0.0735472798561559
 40
0.1228432684656618
 40
0.1734968530946703
 40
0.2266604487537824
 40
0.2824706260222078
 40
0.3399578164862475
 40
0.3977734802949514
 40
0.455369789344797
 40
0.5127997797475777
 40
0.5703021542506368
 40
0.6281106758527042
 40
0.6865255995204816
 40
0.745839205483328
 40
0.8060842143336414
 40
0.8586526349447698
 40
0.9086388062555036
 40
0.9567590183120567
 40
1.0
 40
1.0
 40
1.0
 40
1.0
 10
6.757879842282944
 20
7.723666086170674
 30
0.0
 10
6.757970474559217
 20
7.725289704988415
 30
0.0
 10
6.758248819776734
 20
7.730276080169193
 30
0.0
 10
6.756012797445856
 20
7.738460378212503
 30
0.0
 10
6.751590799685157
 20
7.747638318317228
 30
0.0
 10
6.745001416821357
 20
7.755957594209645
 30
0.0
 10
6.736460572236572
 20
7.763380795299579
 30
0.0
 10
6.72597369309494
 20
7.769765365429328
 30
0.0
 10
6.713798002233442
 20
7.77488282572943
 30
0.0
 10
6.700367048978112
 20
7.778533038316048
 30
0.0
 10
6.68617997980096
 20
7.780609549114753
 30
0.0
 10
6.671674277904316
 20
7.78107927288002
 30
0.0
 10
6.657242194636591
 20
7.779936163320329
 30
0.0
 10
6.643253714150629
 20
7.777181835711576
 30
0.0
 10
6.630062210539767
 20
7.772812162871931
 30
0.0
 10
6.618017980256281
 20
7.76680333967073
 30
0.0
 10
6.607996383437634
 20
7.759457545082321
 30
0.0
 10
6.600256172026413
 20
7.751128546973803
 30
0.0
 10
6.59495392730237
 20
7.742279074661663
 30
0.0
 10
6.59168347539015
 20
7.73312889231121
 30
0.0
 10
6.591486122566587
 20
7.726918386045583
 30
0.0
 10
6.591392716061264
 20
7.723978971873131
 30
0.0
  0
LINE
  5
21F
330
1F
100
AcDbEntity
  8
0
  6
Continuous
 62
     7
370
    25
100
AcDbLine
 10
6.7582094637
 20
7.6898935114
 30
0.0
 11
6.7582094637
 21
7.7241882255
 31
0.0
  0
LINE
  5
220
330
1F
100
AcDbEntity
  8
0
  6
Continuous
 62
     7
370
    25
100
AcDbLine
 10
6.5912094637
 20
7.7241882255
 30
0.0
 11
6.5912094637
 21
7.6898935114
 31
0.0
  0
SPLINE
  5
221
330
1F
100
AcDbEntity
  8
0
  6
Continuous
 62
     7
370
    25
100
AcDbSpline
210
0.0
220
0.0
230
1.0
 70
     8
 71
     3
 72
    26
 73
    22
 74
     0
 42
0.000000001
 43
0.00000001
 40
0.0
 40
0.0
 40
0.0
 40
0.0
 40
0.0239478064202986
 40
0.0735472798561564
 40
0.1228432684656615
 40
0.1734968530946695
 40
0.2266604487537819
 40
0.2824706260222061
 40
0.3399578164862437
 40
0.3977734802949467
 40
0.4553697893447919
 40
0.5127997797475738
 40
0.5703021542506337
 40
0.6281106758527043
 40
0.6865255995204798
 40
0.745839205483326
 40
0.8060842143336387
 40
0.858652634944771
 40
0.9086388062555035
 40
0.9567590183120559
 40
1.0
 40
1.0
 40
1.0
 40
1.0
 10
7.597922698332562
 20
7.723666086170672
 30
0.0
 10
7.598013330608836
 20
7.725289704988415
 30
0.0
 10
7.598291675826353
 20
7.730276080169193
 30
0.0
 10
7.596055653495475
 20
7.7384603782125
 30
0.0
 10
7.591633655734776
 20
7.747638318317227
 30
0.0
 10
7.585044272870976
 20
7.755957594209645
 30
0.0
 10
7.576503428286191
 20
7.763380795299578
 30
0.0
 10
7.566016549144559
 20
7.769765365429326
 30
0.0
 10
7.553840858283062
 20
7.77488282572943
 30
0.0
 10
7.540409905027731
 20
7.778533038316045
 30
0.0
 10
7.52622283585058
 20
7.780609549114752
 30
0.0
 10
7.511717133953936
 20
7.78107927288002
 30
0.0
 10
7.49728505068621
 20
7.779936163320328
 30
0.0
 10
7.483296570200248
 20
7.777181835711575
 30
0.0
 10
7.470105066589385
 20
7.772812162871931
 30
0.0
 10
7.458060836305899
 20
7.766803339670729
 30
0.0
 10
7.448039239487252
 20
7.759457545082318
 30
0.0
 10
7.440299028076033
 20
7.751128546973803
 30
0.0
 10
7.434996783351989
 20
7.742279074661663
 30
0.0
 10
7.431726331439768
 20
7.733128892311207
 30
0.0
 10
7.431528978616205
 20
7.726918386045583
 30
0.0
 10
7.431435572110883
 20
7.723978971873131
 30
0.0
  0
LINE
  5
222
330
1F
100
AcDbEntity
  8
0
  6
Continuous
 62
     7
370
    25
100
AcDbLine
 10
7.5982523197
 20
7.6898935114
 30
0.0
 11
7.5982523197
 21
7.7241882255
 31
0.0
  0
LINE
  5
223
330
1F
100
AcDbEntity
  8
0
  6
Continuous
 62
     7
370
    25
100
AcDbLine
 10
7.4312523197
 20
7.7241882255
 30
0.0
 11
7.4312523197
 21
7.6898935114
 31
0.0
  0
LINE
  5
224
330
1F
100
AcDbEntity
  8
0
  6
Continuous
 62
     7
370
    25
100
AcDbLine
 10
6.8147308917
 20
5.282329875
 30
0.0
 11
6.8147308917
 21
5.0247043014
 31
0.0
  0
LINE
  5
225
330
1F
100
AcDbEntity
  8
0
  6
Continuous
 62
     7
370
    25
100
AcDbLine
 10
7.3747308917
 20
5.0247043014
 30
0.0
 11
7.3747308917
 21
5.287622414
 31
0.0
  0
LINE
  5
226
330
1F
100
AcDbEntity
  8
0
  6
Continuous
 62
     7
370
    25
100
AcDbLine
 10
6.5657094637
 20
7.6113521448
 30
0.0
 11
6.5657094637
 21
7.4432981862
 31
0.0
  0
LINE
  5
227
330
1F
100
AcDbEntity
  8
0
  6
Continuous
 62
     7
370
    25
100
AcDbLine
 10
7.6237523197
 20
7.4432981862
 30
0.0
 11
7.6237523197
 21
7.6113521448
 31
0.0
  0
LINE
  5
228
330
1F
100
AcDbEntity
  8
0
  6
Continuous
 62
     7
370
    25
100
AcDbLine
 10
6.9179254722
 20
4.8720443419
 30
0.0
 11
6.9235832456
 21
4.8687771172
 31
0.0
  0
LINE
  5
229
330
1F
100
AcDbEntity
  8
0
  6
Continuous
 62
     7
370
    25
100
AcDbLine
 10
7.2658785377
 20
4.8687771172
 30
0.0
 11
7.2715363112
 21
4.8720443419
 31
0.0
  0
LINE
  5
22A
330
1F
100
AcDbEntity
  8
0
  6
Continuous
 62
     7
370
    25
100
AcDbLine
 10
7.3187308917
 20
4.8956908532
 30
0.0
 11
7.3187308917
 21
4.9099920344
 31
0.0
  0
LINE
  5
22B
330
1F
100
AcDbEntity
  8
0
  6
Continuous
 62
     7
370
    25
100
AcDbLine
 10
6.8707308917
 20
4.9099920344
 30
0.0
 11
6.8707308917
 21
4.8956908532
 31
0.0
  0
LINE
  5
22C
330
1F
100
AcDbEntity
  8
0
  6
Continuous
 62
     7
370
    25
100
AcDbLine
 10
6.9072308917
 20
5.7731349725
 30
0.0
 11
6.9072308917
 21
5.4959569592
 31
0.0
  0
LINE
  5
22D
330
1F
100
AcDbEntity
  8
0
  6
Continuous
 62
     7
370
    25
100
AcDbLine
 10
7.2822308917
 20
5.4959569592
 30
0.0
 11
7.2822308917
 21
5.7736020841
 31
0.0
  0
LINE
  5
22E
330
1F
100
AcDbEntity
  8
0
  6
Continuous
 62
     7
370
    25
100
AcDbLine
 10
7.3302308917
 20
7.6898935114
 30
0.0
 11
7.3302308917
 21
7.869647068
 31
0.0
  0
LINE
  5
22F
330
1F
100
AcDbEntity
  8
0
  6
Continuous
 62
     7
370
    25
100
AcDbLine
 10
7.3302308917
 20
7.9495866004
 30
0.0
 11
7.3302308917
 21
8.0393729789
 31
0.0
  0
LINE
  5
230
330
1F
100
AcDbEntity
  8
0
  6
Continuous
 62
     7
370
    25
100
AcDbLine
 10
6.8592308917
 20
8.0393729789
 30
0.0
 11
6.8592308917
 21
7.8652020433
 31
0.0
  0
LINE
  5
231
330
1F
100
AcDbEntity
  8
0
  6
Continuous
 62
     7
370
    25
100
AcDbLine
 10
6.8592308917
 20
7.8567844465
 30
0.0
 11
6.8592308917
 21
7.6898935114
 31
0.0
  0
LINE
  5
232
330
1F
100
AcDbEntity
  8
0
  6
Continuous
 62
     7
370
    25
100
AcDbLine
 10
6.9066711799
 20
7.8107981252
 30
0.0
 11
6.9388208374
 21
7.8293577273
 31
0.0
  0
LINE
  5
233
330
1F
100
AcDbEntity
  8
0
  6
Continuous
 62
     7
370
    25
100
AcDbLine
 10
6.9015734111
 20
7.8990741175
 30
0.0
 11
6.86717439
 21
7.8792159853
 31
0.0
  0
LINE
  5
234
330
1F
100
AcDbEntity
  8
0
  6
Continuous
 62
     7
370
    25
100
AcDbLine
 10
7.3682469799
 20
7.9437061283
 30
0.0
 11
7.3245541468
 21
7.9504647007
 31
0.0
  0
LINE
  5
235
330
1F
100
AcDbEntity
  8
0
  6
Continuous
 62
     7
370
    25
100
AcDbLine
 10
7.3099064641
 20
7.8727909272
 30
0.0
 11
7.3561705839
 21
7.8656346184
 31
0.0
  0
LINE
  5
236
330
1F
100
AcDbEntity
  8
0
  6
Continuous
 62
     7
370
    25
100
AcDbLine
 10
7.6350660282
 20
7.6392679811
 30
0.0
 11
7.6350660282
 21
7.6898935114
 31
0.0
  0
LINE
  5
237
330
1F
100
AcDbEntity
  8
0
  6
Continuous
 62
     7
370
    25
100
AcDbLine
 10
6.5543957552
 20
7.6898935114
 30
0.0
 11
6.5543957552
 21
7.6392679811
 31
0.0
  0
LINE
  5
238
330
1F
100
AcDbEntity
  8
0
  6
Continuous
 62
     7
370
    25
100
AcDbLine
 10
7.1147308917
 20
7.9184036509
 30
0.0
 11
7.1147308917
 21
7.948748642
 31
0.0
  0
LINE
  5
239
330
1F
100
AcDbEntity
  8
0
  6
Continuous
 62
     7
370
    25
100
AcDbLine
 10
7.0747308917
 20
7.9487491224
 30
0.0
 11
7.0747308917
 21
7.9329103403
 31
0.0
  0
LINE
  5
23A
330
1F
100
AcDbEntity
  8
0
  6
Continuous
 62
     7
370
    25
100
AcDbLine
 10
7.1995837054
 20
7.9510344948
 30
0.0
 11
7.1995837054
 21
7.9977373561
 31
0.0
  0
LINE
  5
23B
330
1F
100
AcDbEntity
  8
0
  6
Continuous
 62
     7
370
    25
100
AcDbLine
 10
7.1595837054
 20
7.9977390054
 30
0.0
 11
7.1595837054
 21
7.9390438248
 31
0.0
  0
LINE
  5
23C
330
1F
100
AcDbEntity
  8
0
  6
Continuous
 62
     7
370
    25
100
AcDbLine
 10
7.1147308917
 20
7.9500461578
 30
0.0
 11
7.1147308917
 21
8.0467176154
 31
0.0
  0
LINE
  5
23D
330
1F
100
AcDbEntity
  8
0
  6
Continuous
 62
     7
370
    25
100
AcDbLine
 10
7.0747308917
 20
8.0467180958
 30
0.0
 11
7.0747308917
 21
7.9487942931
 31
0.0
  0
LINE
  5
23E
330
1F
100
AcDbEntity
  8
0
  6
Continuous
 62
     7
370
    25
100
AcDbLine
 10
7.0298780779
 20
7.9390438248
 30
0.0
 11
7.0298780779
 21
7.9977373561
 31
0.0
  0
LINE
  5
23F
330
1F
100
AcDbEntity
  8
0
  6
Continuous
 62
     7
370
    25
100
AcDbLine
 10
6.9898780779
 20
7.9977390054
 30
0.0
 11
6.9898780779
 21
7.9510344948
 31
0.0
  0
LINE
  5
240
330
1F
100
AcDbEntity
  8
0
  6
Continuous
 62
     7
370
    25
100
AcDbLine
 10
6.6757559127
 20
6.1594828038
 30
0.0
 11
6.6747308917
 21
6.1490809994
 31
0.0
  0
LINE
  5
241
330
1F
100
AcDbEntity
  8
0
  6
Continuous
 62
     7
370
    25
100
AcDbLine
 10
7.5147308917
 20
6.1490809994
 30
0.0
 11
7.5137545787
 21
6.1607044874
 31
0.0
  0
LINE
  5
242
330
1F
100
AcDbEntity
  8
0
  6
Continuous
 62
     7
370
    25
100
AcDbLine
 10
7.5147308917
 20
5.9939382451
 30
0.0
 11
7.5147308917
 21
6.1490809994
 31
0.0
  0
LINE
  5
243
330
1F
100
AcDbEntity
  8
0
  6
Continuous
 62
     7
370
    25
100
AcDbLine
 10
6.6747308917
 20
6.1490809994
 30
0.0
 11
6.6747308917
 21
5.9939382451
 31
0.0
  0
SPLINE
  5
244
330
1F
100
AcDbEntity
  8
0
  6
Continuous
 62
     7
370
    25
100
AcDbSpline
210
0.0
220
0.0
230
1.0
 70
     8
 71
     3
 72
    38
 73
    34
 74
     0
 42
0.000000001
 43
0.00000001
 40
0.0
 40
0.0
 40
0.0
 40
0.0
 40
0.0017877224940932
 40
0.0276028757116671
 40
0.0500993793001975
 40
0.0789174597275173
 40
0.1042425480904656
 40
0.1349691215255496
 40
0.1681449139299787
 40
0.2051702258334109
 40
0.2467817112407263
 40
0.2929737472910453
 40
0.3420891041297579
 40
0.3793283333419037
 40
0.4168937608661321
 40
0.454788954745839
 40
0.4930177026843382
 40
0.5315839607094525
 40
0.5704918016621604
 40
0.6092884833017398
 40
0.6462136940498087
 40
0.6922505451840661
 40
0.7346554470480577
 40
0.7734273007692639
 40
0.8000829515524267
 40
0.8244638691015425
 40
0.8465468406398403
 40
0.869763230064295
 40
0.8886961627062775
 40
0.9104278453262765
 40
0.9359414361226261
 40
0.965958919966744
 40
0.9999999999999999
 40
0.9999999999999999
 40
0.9999999999999999
 40
0.9999999999999999
 10
6.676787005171316
 20
5.96945920032306
 30
0.0
 10
6.676891720306286
 20
5.969022775688702
 30
0.0
 10
6.678508547786643
 20
5.962284271821648
 30
0.0
 10
6.680861689526258
 20
5.949911142161511
 30
0.0
 10
6.687834695715448
 20
5.93168459567728
 30
0.0
 10
6.696700779719466
 20
5.913960830816278
 30
0.0
 10
6.709309186418775
 20
5.894773837307786
 30
0.0
 10
6.725379454154415
 20
5.875263573598286
 30
0.0
 10
6.746861467646751
 20
5.85447116716345
 30
0.0
 10
6.774484536402881
 20
5.833065650206227
 30
0.0
 10
6.809744524520733
 20
5.811454464149
 30
0.0
 10
6.853262688073403
 20
5.790862469731809
 30
0.0
 10
6.89973232509038
 20
5.774539547126008
 30
0.0
 10
6.946037273462466
 20
5.762610777163486
 30
0.0
 10
6.989931011708714
 20
5.754500404701857
 30
0.0
 10
7.035483489056888
 20
5.749204158031084
 30
0.0
 10
7.082172034497951
 20
5.746860591320091
 30
0.0
 10
7.129433206331189
 20
5.747577912795337
 30
0.0
 10
7.176485451086942
 20
5.751413738885418
 30
0.0
 10
7.22184299308146
 20
5.758228971772362
 30
0.0
 10
7.268340218858927
 20
5.768515240527314
 30
0.0
 10
7.313732060657029
 20
5.782421524641935
 30
0.0
 10
7.356274631988325
 20
5.799874689052957
 30
0.0
 10
7.389097474132056
 20
5.817070194540074
 30
0.0
 10
7.413964849591295
 20
5.832856900250611
 30
0.0
 10
7.432547572717991
 20
5.846586551161184
 30
0.0
 10
7.448736419657346
 20
5.860387154794726
 30
0.0
 10
7.462231326781758
 20
5.873716052843012
 30
0.0
 10
7.474231625803237
 20
5.887452345300608
 30
0.0
 10
7.485208935190995
 20
5.902103114084735
 30
0.0
 10
7.495965939557159
 20
5.919784032577079
 30
0.0
 10
7.505856949617244
 20
5.940926197084938
 30
0.0
 10
7.509732816531907
 20
5.956510247622611
 30
0.0
 10
7.511792473943099
 20
5.964791699461132
 30
0.0
  0
SPLINE
  5
245
330
1F
100
AcDbEntity
  8
0
  6
Continuous
 62
     7
370
    25
100
AcDbSpline
210
0.0
220
0.0
230
1.0
 70
     8
 71
     3
 72
    13
 73
     9
 74
     0
 42
0.000000001
 43
0.00000001
 40
0.0
 40
0.0
 40
0.0
 40
0.0
 40
0.0324952934304942
 40
0.2242739986718725
 40
0.4136795960042289
 40
0.6068793442385435
 40
0.808971394278068
 40
1.0
 40
1.0
 40
1.0
 40
1.0
 10
7.178047639288346
 20
7.481924269983058
 30
0.0
 10
7.178103151015775
 20
7.482493847829857
 30
0.0
 10
7.178486278409602
 20
7.486424924849661
 30
0.0
 10
7.176733625715665
 20
7.493688946939509
 30
0.0
 10
7.172896596174629
 20
7.503063016272671
 30
0.0
 10
7.166744038070141
 20
7.511571904840292
 30
0.0
 10
7.159034640184103
 20
7.51901135909732
 30
0.0
 10
7.152706422268174
 20
7.523012622454345
 30
0.0
 10
7.149631359618916
 20
7.524956951120408
 30
0.0
  0
SPLINE
  5
246
330
1F
100
AcDbEntity
  8
0
  6
Continuous
 62
     7
370
    25
100
AcDbSpline
210
0.0
220
0.0
230
1.0
 70
     8
 71
     3
 72
    21
 73
    17
 74
     0
 42
0.000000001
 43
0.00000001
 40
0.0
 40
0.0
 40
0.0
 40
0.0
 40
0.0438544172056184
 40
0.1229433105912376
 40
0.2017598185741215
 40
0.2802565772932909
 40
0.3585888409150335
 40
0.4371119815441665
 40
0.5161245351452357
 40
0.5960679729914384
 40
0.6772988832293837
 40
0.7596316973858086
 40
0.8303790355697585
 40
0.8977635740965667
 40
0.9629802700486249
 40
1.0
 40
1.0
 40
1.0
 40
1.0
 10
7.149631359618916
 20
7.524956951120408
 30
0.0
 10
7.147522732579216
 20
7.52610044133861
 30
0.0
 10
7.141611319189605
 20
7.529306149725871
 30
0.0
 10
7.130780776224301
 20
7.533382177171076
 30
0.0
 10
7.117123577860581
 20
7.536692010636068
 30
0.0
 10
7.102820784731583
 20
7.538389740843762
 30
0.0
 10
7.088298669632926
 20
7.538483396932216
 30
0.0
 10
7.073936986937078
 20
7.536962717173847
 30
0.0
 10
7.060103172721463
 20
7.533831144858421
 30
0.0
 10
7.047148332749026
 20
7.5290806928747
 30
0.0
 10
7.03543022063122
 20
7.522684350382094
 30
0.0
 10
7.025861089511993
 20
7.514990759403804
 30
0.0
 10
7.018644268713855
 20
7.506386831766466
 30
0.0
 10
7.013955825216907
 20
7.497363693699652
 30
0.0
 10
7.01143922943544
 20
7.489170039032014
 30
0.0
 10
7.011528271136333
 20
7.484080187095485
 30
0.0
 10
7.011560513066667
 20
7.482237155685517
 30
0.0
  0
LINE
  5
247
330
1F
100
AcDbEntity
  8
0
  6
Continuous
 62
     7
370
    25
100
AcDbLine
 10
7.1782308917
 20
7.4474203022
 30
0.0
 11
7.1782308917
 21
7.4817150163
 31
0.0
  0
LINE
  5
248
330
1F
100
AcDbEntity
  8
0
  6
Continuous
 62
     7
370
    25
100
AcDbLine
 10
7.0112308917
 20
7.4817150163
 30
0.0
 11
7.0112308917
 21
7.4474203022
 31
0.0
  0
ARC
  5
249
330
1F
100
AcDbEntity
  8
0
  6
Continuous
 62
     7
370
    25
100
AcDbCircle
 10
7.1548298366
 20
7.6892255406
 30
0.0
 40
0.4799116590609768
100
AcDbArc
 50
288.3324842488
 51
299.577682101
  0
ARC
  5
24A
330
1F
100
AcDbEntity
  8
0
  6
Continuous
 62
     7
370
    25
100
AcDbCircle
 10
6.9930236947
 20
7.5986865185
 30
0.0
 40
0.3810400288527243
100
AcDbArc
 50
226.6807045945
 51
253.3246719382
  0
ARC
  5
24B
330
1F
100
AcDbEntity
  8
0
  6
Continuous
 62
     7
370
    25
100
AcDbCircle
 10
7.2367017314
 20
7.5474038924
 30
0.0
 40
0.316161228121522
100
AcDbArc
 50
299.3603345102
 51
314.3866992555
  0
SPLINE
  5
24C
330
1F
100
AcDbEntity
  8
0
  6
Continuous
 62
     7
370
    25
100
AcDbSpline
210
0.0
220
0.0
230
1.0
 70
    11
 71
     3
 72
    54
 73
    50
 74
     0
 42
0.000000001
 43
0.00000001
 40
0.0
 40
0.0
 40
0.0
 40
0.0
 40
0.03125
 40
0.03125
 40
0.0625
 40
0.0625
 40
0.0937499999999999
 40
0.0937499999999999
 40
0.1249999999999999
 40
0.1249999999999999
 40
0.1874999999999982
 40
0.1874999999999982
 40
0.2499999999999964
 40
0.2499999999999964
 40
0.2812499999999956
 40
0.2812499999999956
 40
0.3124999999999947
 40
0.3124999999999947
 40
0.3749999999999931
 40
0.3749999999999931
 40
0.4062499999999922
 40
0.4062499999999922
 40
0.4374999999999914
 40
0.4374999999999914
 40
0.4687499999999905
 40
0.4687499999999905
 40
0.4999999999999897
 40
0.4999999999999897
 40
0.5624999999999881
 40
0.5624999999999881
 40
0.6249999999999865
 40
0.6249999999999865
 40
0.6562499999999857
 40
0.6562499999999857
 40
0.6874999999999849
 40
0.6874999999999849
 40
0.7499999999999855
 40
0.7499999999999855
 40
0.7812499999999868
 40
0.7812499999999868
 40
0.8124999999999882
 40
0.8124999999999882
 40
0.8437499999999897
 40
0.8437499999999897
 40
0.8749999999999911
 40
0.8749999999999911
 40
0.9374999999999954
 40
0.9374999999999954
 40
1.0
 40
1.0
 40
1.0
 40
1.0
 10
6.797746043588862
 20
7.103236805107882
 30
0.0
 10
6.795103447992981
 20
7.104762343073393
 30
0.0
 10
6.792540845161383
 20
7.106582168920071
 30
0.0
 10
6.787565004701768
 20
7.110783533927675
 30
0.0
 10
6.785126657693453
 20
7.113195913912898
 30
0.0
 10
6.780539559444347
 20
7.118449065575995
 30
0.0
 10
6.778393980450966
 20
7.121275762092294
 30
0.0
 10
6.774378656943862
 20
7.127317053351885
 30
0.0
 10
6.772504202522432
 20
7.130551377721315
 30
0.0
 10
6.767510978593775
 20
7.14041977639333
 30
0.0
 10
6.764888710096073
 20
7.14748297736568
 30
0.0
 10
6.761401089512989
 20
7.161172022919536
 30
0.0
 10
6.760496524346721
 20
7.167940599520853
 30
0.0
 10
6.760492738947133
 20
7.176980868850525
 30
0.0
 10
6.760717119453989
 20
7.179870625924891
 30
0.0
 10
6.761601699906238
 20
7.185122578780546
 30
0.0
 10
6.762257203359686
 20
7.187506792997319
 30
0.0
 10
6.764885153552047
 20
7.193939711454952
 30
0.0
 10
6.767464998662511
 20
7.197125404811863
 30
0.0
 10
6.772517357813994
 20
7.200047901088963
 30
0.0
 10
6.774356922965096
 20
7.200690493646238
 30
0.0
 10
6.778355595196309
 20
7.20134896078991
 30
0.0
 10
6.780541336566452
 20
7.201359506967651
 30
0.0
 10
6.785127165067987
 20
7.200740034554414
 30
0.0
 10
6.787518421218805
 20
7.200119636164115
 30
0.0
 10
6.792508078068307
 20
7.19826676756186
 30
0.0
 10
6.795122374143745
 20
7.197019539116038
 30
0.0
 10
6.802948010948178
 20
7.192504856164667
 30
0.0
 10
6.808356044144872
 20
7.188341830827071
 30
0.0
 10
6.818470451302796
 20
7.17847904216007
 30
0.0
 10
6.823275215553995
 20
7.172680898957513
 30
0.0
 10
6.829332528555926
 20
7.163420414402816
 30
0.0
 10
6.831198961895559
 20
7.160179242647946
 30
0.0
 10
6.83442569132599
 20
7.153687653038395
 30
0.0
 10
6.835803877064024
 20
7.150417341298488
 30
0.0
 10
6.839198574921489
 20
7.14051519286487
 30
0.0
 10
6.840391735732271
 20
7.134009914709745
 30
0.0
 10
6.840399697920192
 20
7.124855591744367
 30
0.0
 10
6.840107374373966
 20
7.121983870985675
 30
0.0
 10
6.838960520227123
 20
7.116587561257432
 30
0.0
 10
6.838091581787483
 20
7.114038345002906
 30
0.0
 10
6.8358394808781
 20
7.109463496760682
 30
0.0
 10
6.834465770928042
 20
7.107435116584004
 30
0.0
 10
6.831243140568673
 20
7.103901657513361
 30
0.0
 10
6.829381349650872
 20
7.102398903243555
 30
0.0
 10
6.823337766961219
 20
7.098899043552645
 30
0.0
 10
6.818535264624478
 20
7.097823407005238
 30
0.0
 10
6.808429850516386
 20
7.098469379015134
 30
0.0
 10
6.803031234780621
 20
7.100185729176855
 30
0.0
 10
6.797746043588861
 20
7.10323680510788
 30
0.0
  0
LWPOLYLINE
  5
24D
330
1F
100
AcDbEntity
  8
0
  6
Continuous
 62
     7
370
    25
100
AcDbPolyline
 90
       30
 70
   128
 43
0.0
 10
7.3917157398
 20
5.985800704
 10
7.366520525
 20
5.972396759
 10
7.3395165951
 20
5.9602229579
 10
7.3108836567
 20
5.9493603153
 10
7.2808122573
 20
5.9398811204
 10
7.2495025171
 20
5.9318484556
 10
7.2171627972
 20
5.925315777
 10
7.1840083133
 20
5.9203265585
 10
7.1502597028
 20
5.9169140025
 10
7.1161415573
 20
5.915100819
 10
7.0818809273
 20
5.9148990744
 10
7.0477058117
 20
5.9163101113
 10
7.0138436403
 20
5.9193245396
 10
6.9805197601
 20
5.9239222986
 10
6.9479559363
 20
5.930072791
 10
6.9163688755
 20
5.9377350864
 10
6.8859687845
 20
5.9468581935
 10
6.8569579709
 20
5.9573813993
 10
6.8295294968
 20
5.9692346739
 10
6.8038658943
 20
5.9823391355
 10
6.7801379503
 20
5.9966075761
 10
6.7585035705
 20
6.0119450417
 10
6.739106728
 20
6.0282494638
 10
6.7220765057
 20
6.0454123394
 10
6.7075262368
 20
6.0633194522
 10
6.695552751
 20
6.0818516334
 10
6.6862357298
 20
6.1008855544
 10
6.6796371766
 20
6.1202945476
 10
6.6758010036
 20
6.1399494493
 10
6.6747308917
 20
6.1572464075
  0
ARC
  5
24E
330
1F
100
AcDbEntity
  8
0
  6
Continuous
 62
     7
370
    25
100
AcDbCircle
 10
7.3052536982
 20
6.1776942245
 30
0.0
 40
0.2104728196740321
100
AcDbArc
 50
294.2550419235
 51
354.4248171189
  0
SPLINE
  5
24F
330
1F
100
AcDbEntity
  8
0
  6
Continuous
 62
     7
370
    25
100
AcDbSpline
210
0.0
220
0.0
230
1.0
 70
    11
 71
     3
 72
    54
 73
    50
 74
     0
 42
0.000000001
 43
0.00000001
 40
0.0
 40
0.0
 40
0.0
 40
0.0
 40
0.0312499999999998
 40
0.0312499999999998
 40
0.0624999999999995
 40
0.0624999999999995
 40
0.0937499999999993
 40
0.0937499999999993
 40
0.1249999999999991
 40
0.1249999999999991
 40
0.1874999999999987
 40
0.1874999999999987
 40
0.2499999999999984
 40
0.2499999999999984
 40
0.2812499999999982
 40
0.2812499999999982
 40
0.3124999999999978
 40
0.3124999999999978
 40
0.374999999999998
 40
0.374999999999998
 40
0.4062499999999981
 40
0.4062499999999981
 40
0.4374999999999982
 40
0.4374999999999982
 40
0.4687499999999983
 40
0.4687499999999983
 40
0.4999999999999984
 40
0.4999999999999984
 40
0.5624999999999987
 40
0.5624999999999987
 40
0.6249999999999988
 40
0.6249999999999988
 40
0.656249999999999
 40
0.656249999999999
 40
0.6874999999999992
 40
0.6874999999999992
 40
0.7499999999999996
 40
0.7499999999999996
 40
0.7812499999999998
 40
0.7812499999999998
 40
0.8124999999999998
 40
0.8124999999999998
 40
0.8437499999999998
 40
0.8437499999999998
 40
0.8749999999999997
 40
0.8749999999999997
 40
0.9374999999999998
 40
0.9374999999999998
 40
1.0
 40
1.0
 40
1.0
 40
1.0
 10
7.157230891687217
 20
6.970822804227605
 30
0.0
 10
7.157230891687218
 20
6.974199368520954
 30
0.0
 10
7.156824549128585
 20
6.977482924795727
 30
0.0
 10
7.155233513651487
 20
6.983876036973218
 30
0.0
 10
7.154029093162997
 20
6.987018165190939
 30
0.0
 10
7.15089009751661
 20
6.99294456724055
 30
0.0
 10
7.148970068018017
 20
6.995725076947696
 30
0.0
 10
7.144434822633914
 20
7.000942469530197
 30
0.0
 10
7.141798903578016
 20
7.003385014720807
 30
0.0
 10
7.13316279004499
 20
7.009907733611946
 30
0.0
 10
7.126199045839895
 20
7.013356932870303
 30
0.0
 10
7.111163278969946
 20
7.017954699946046
 30
0.0
 10
7.102930776613822
 20
7.019153636979465
 30
0.0
 10
7.090683947034786
 20
7.019158695352118
 30
0.0
 10
7.086536540235416
 20
7.018861612281872
 30
0.0
 10
7.078516496451146
 20
7.01769234100479
 30
0.0
 10
7.074617772549352
 20
7.016826269005305
 30
0.0
 10
7.063256827092737
 20
7.013360877890058
 30
0.0
 10
7.056378003236302
 20
7.009965381083445
 30
0.0
 10
7.04763805262126
 20
7.003367274325208
 30
0.0
 10
7.04505617071684
 20
7.000970342069214
 30
0.0
 10
7.040529837495793
 20
6.995774579278188
 30
0.0
 10
7.03856960305494
 20
6.992941038659855
 30
0.0
 10
7.035432541503257
 20
6.987017480406902
 30
0.0
 10
7.034247774051145
 20
6.983936465404256
 30
0.0
 10
7.032643201000416
 20
6.97752456115066
 30
0.0
 10
7.032232465367796
 20
6.974175048591814
 30
0.0
 10
7.032227758180816
 20
6.964177170586069
 30
0.0
 10
7.033866667113946
 20
6.957305806551665
 30
0.0
 10
7.040093863986951
 20
6.944519213371628
 30
0.0
 10
7.044739136327125
 20
6.938480249271952
 30
0.0
 10
7.053372868499442
 20
6.93088922793598
 30
0.0
 10
7.056583320685572
 20
6.928555455897426
 30
0.0
 10
7.063361372873189
 20
6.924526986682809
 30
0.0
 10
7.066946406830335
 20
6.922808372897395
 30
0.0
 10
7.078301236990566
 20
6.918577332080597
 30
0.0
 10
7.086415420534845
 20
6.917095767861192
 30
0.0
 10
7.098809008078407
 20
6.917086269138615
 30
0.0
 10
7.10287307305189
 20
6.917449480151214
 30
0.0
 10
7.110872281112004
 20
6.918876577488001
 30
0.0
 10
7.114849678299327
 20
6.919958778520784
 30
0.0
 10
7.122413523400807
 20
6.922763795026608
 30
0.0
 10
7.126003150986205
 20
6.924476412122591
 30
0.0
 10
7.132801494863586
 20
6.928502663195307
 30
0.0
 10
7.136011641485265
 20
6.930829744277404
 30
0.0
 10
7.144650483120042
 20
6.938400215003197
 30
0.0
 10
7.149312851269701
 20
6.94443769665953
 30
0.0
 10
7.155564337791773
 20
6.95721148178426
 30
0.0
 10
7.157230891687218
 20
6.964069675640908
 30
0.0
 10
7.157230891687217
 20
6.970822804227605
 30
0.0
  0
SPLINE
  5
250
330
1F
100
AcDbEntity
  8
0
  6
Continuous
 62
   144
370
    18
100
AcDbSpline
210
0.0
220
0.0
230
1.0
 70
     8
 71
     3
 72
    10
 73
     6
 74
     0
 42
0.000000001
 43
0.00000001
 40
0.0
 40
0.0
 40
0.0
 40
0.0
 40
0.4467079329924773
 40
0.8934963019443111
 40
1.0
 40
1.0
 40
1.0
 40
1.0
 10
7.132230891687216
 20
6.94420811202606
 30
0.0
 10
7.137335490601394
 20
6.94843557252057
 30
0.0
 10
7.147545607583586
 20
6.956891254722488
 30
0.0
 10
7.155110466003494
 20
6.969622305082961
 30
0.0
 10
7.15559247472101
 20
6.976775828633329
 30
0.0
 10
7.155685257021663
 20
6.978152816950481
 30
0.0
  0
SPLINE
  5
251
330
1F
100
AcDbEntity
  8
0
  6
Continuous
 62
   144
370
    18
100
AcDbSpline
210
0.0
220
0.0
230
1.0
 70
     8
 71
     3
 72
    10
 73
     6
 74
     0
 42
0.000000001
 43
0.00000001
 40
0.0
 40
0.0
 40
0.0
 40
0.0
 40
0.2008589438099412
 40
0.6249398825600432
 40
1.0
 40
1.0
 40
1.0
 40
1.0
 10
7.033725183297934
 20
6.979596863724606
 30
0.0
 10
7.034016843788065
 20
6.976894887633907
 30
0.0
 10
7.034924297889894
 20
6.968488129195515
 30
0.0
 10
7.043082367932394
 20
6.955563664500899
 30
0.0
 10
7.052711609046166
 20
6.947835271443422
 30
0.0
 10
7.057230891687216
 20
6.944208112026061
 30
0.0
  0
SPLINE
  5
252
330
1F
100
AcDbEntity
  8
0
  6
Continuous
 62
   144
370
    18
100
AcDbSpline
210
0.0
220
0.0
230
1.0
 70
     8
 71
     3
 72
    16
 73
    12
 74
     0
 42
0.000000001
 43
0.00000001
 40
0.0
 40
0.0
 40
0.0
 40
0.0
 40
0.2499999999999973
 40
0.2499999999999973
 40
0.3749999999999981
 40
0.3749999999999981
 40
0.4999999999999988
 40
0.4999999999999988
 40
0.7499999999999993
 40
0.7499999999999993
 40
1.0
 40
1.0
 40
1.0
 40
1.0
 10
7.057230891687212
 20
6.944208112026073
 30
0.0
 10
7.062225444042185
 20
6.943045088321102
 30
0.0
 10
7.067959322418812
 20
6.94203316431717
 30
0.0
 10
7.077548661255749
 20
6.940949904620105
 30
0.0
 10
7.080843968349249
 20
6.940668689396006
 30
0.0
 10
7.087641780126368
 20
6.940283994363804
 30
0.0
 10
7.091189695502216
 20
6.940181800563429
 30
0.0
 10
7.101673412007859
 20
6.940179186875615
 30
0.0
 10
7.10868110725194
 20
6.940587072588115
 30
0.0
 10
7.121419061394088
 20
6.942021491674617
 30
0.0
 10
7.12723115716409
 20
6.943043881609471
 30
0.0
 10
7.132230891687223
 20
6.944208112026073
 30
0.0
  0
SPLINE
  5
253
330
1F
100
AcDbEntity
  8
0
  6
Continuous
 62
   144
370
    18
100
AcDbSpline
210
0.0
220
0.0
230
1.0
 70
     8
 71
     3
 72
    13
 73
     9
 74
     0
 42
0.000000001
 43
0.00000001
 40
0.0
 40
0.0
 40
0.0
 40
0.0
 40
0.1707548133114936
 40
0.3414677412040915
 40
0.5132716581145236
 40
0.6858379257058733
 40
0.857202814780402
 40
1.0
 40
1.0
 40
1.0
 40
1.0
 10
6.817191480071492
 20
7.114462416645443
 30
0.0
 10
6.812789018087775
 20
7.117583513513029
 30
0.0
 10
6.803985174025271
 20
7.123824941656608
 30
0.0
 10
6.79298656039175
 20
7.139072569199997
 30
0.0
 10
6.784865341553538
 20
7.156563918902306
 30
0.0
 10
6.780424499915931
 20
7.174518166286807
 30
0.0
 10
6.779509418597842
 20
7.190252774263582
 30
0.0
 10
6.781894411650654
 20
7.197400079311197
 30
0.0
 10
6.78297847087542
 20
7.200648768845088
 30
0.0
  0
SPLINE
  5
254
330
1F
100
AcDbEntity
  8
0
  6
Continuous
 62
   144
370
    18
100
AcDbSpline
210
0.0
220
0.0
230
1.0
 70
     8
 71
     3
 72
     9
 73
     5
 74
     0
 42
0.000000001
 43
0.00000001
 40
0.0
 40
0.0
 40
0.0
 40
0.0
 40
0.4904728978733527
 40
1.0
 40
1.0
 40
1.0
 40
1.0
 10
6.835222395648361
 20
7.110030292110637
 30
0.0
 10
6.832363024863121
 20
7.109901338165894
 30
0.0
 10
6.826533200630963
 20
7.109638420591239
 30
0.0
 10
6.820344692623183
 20
7.112834120785961
 30
0.0
 10
6.817191480071492
 20
7.114462416645443
 30
0.0
  0
LWPOLYLINE
  5
255
330
1F
100
AcDbEntity
  8
0
  6
Continuous
 62
     7
370
    25
100
AcDbPolyline
 90
       31
 70
   128
 43
0.0
 10
6.6298081831
 20
7.7145980842
 10
6.6401248849
 20
7.7097752492
 10
6.6519530989
 20
7.7062960655
 10
6.6647758751
 20
7.70431259
 10
6.6780327969
 20
7.7039115103
 10
6.691144473
 20
7.7051103553
 10
6.7035378604
 20
7.7078567298
 10
6.7146713085
 20
7.7120306041
 10
6.7240582322
 20
7.7174495598
 10
6.7312883779
 20
7.7238767626
 10
6.7360457536
 20
7.7310313128
 10
6.7381224391
 20
7.7386005223
 10
6.7374276733
 20
7.7462535804
 10
6.7339918207
 20
7.7536560115
 10
6.7279650447
 20
7.7604842941
 10
6.7196107443
 20
7.7664399993
 10
6.7092940424
 20
7.7712628343
 10
6.6974658285
 20
7.7747420181
 10
6.6846430522
 20
7.7767254935
 10
6.6713861304
 20
7.7771265733
 10
6.6582744543
 20
7.7759277283
 10
6.6458810669
 20
7.7731813538
 10
6.6347476188
 20
7.7690074795
 10
6.6253606951
 20
7.7635885237
 10
6.6181305494
 20
7.757161321
 10
6.6133731737
 20
7.7500067707
 10
6.6112964882
 20
7.7424375612
 10
6.611991254
 20
7.7347845032
 10
6.6154271066
 20
7.727382072
 10
6.6214538826
 20
7.7205537894
 10
6.6298081831
 20
7.7145980842
  0
LWPOLYLINE
  5
256
330
1F
100
AcDbEntity
  8
0
  6
Continuous
 62
   144
370
    18
100
AcDbPolyline
 90
       14
 70
   128
 43
0.0
 10
6.6156660474
 20
7.6558084728
 10
6.6275205731
 20
7.6501257259
 10
6.6409820598
 20
7.6457972233
 10
6.6555920927
 20
7.6429703669
 10
6.6708531449
 20
7.6417414219
 10
6.6862455193
 20
7.6421522385
 10
6.7012450472
 20
7.6441888269
 10
6.7153409376
 20
7.6477818336
 10
6.7280531719
 20
7.6528089029
 10
6.7389488502
 20
7.6590988441
 10
6.7476569333
 20
7.6664374608
 10
6.7538808777
 20
7.6745748451
 10
6.7574087346
 20
7.6832338883
 10
6.7582094637
 20
7.6898935114
  0
ARC
  5
257
330
1F
100
AcDbEntity
  8
0
  6
Continuous
 62
   144
370
    18
100
AcDbCircle
 10
6.632589674
 20
7.6937679798
 30
0.0
 40
0.0415611996167671
100
AcDbArc
 50
185.3490633312
 51
245.9710776264
  0
LINE
  5
258
330
1F
100
AcDbEntity
  8
0
  6
Continuous
 62
     7
370
    25
100
AcDbLine
 10
6.7065292688
 20
7.7548061837
 30
0.0
 11
6.6817805315
 21
7.7405190418
 31
0.0
  0
LINE
  5
259
330
1F
100
AcDbEntity
  8
0
  6
Continuous
 62
     7
370
    25
100
AcDbLine
 10
6.699458201
 20
7.7588882243
 30
0.0
 11
6.7065292688
 21
7.7548061837
 31
0.0
  0
LINE
  5
25A
330
1F
100
AcDbEntity
  8
0
  6
Continuous
 62
     7
370
    25
100
AcDbLine
 10
6.699458201
 20
7.7588882243
 30
0.0
 11
6.6747094637
 21
7.7446010823
 31
0.0
  0
LINE
  5
25B
330
1F
100
AcDbEntity
  8
0
  6
Continuous
 62
     7
370
    25
100
AcDbLine
 10
6.6499607263
 20
7.7588882243
 30
0.0
 11
6.6747094637
 21
7.7446010823
 31
0.0
  0
LINE
  5
25C
330
1F
100
AcDbEntity
  8
0
  6
Continuous
 62
     7
370
    25
100
AcDbLine
 10
6.6428896585
 20
7.7548061837
 30
0.0
 11
6.6676383959
 21
7.7405190418
 31
0.0
  0
LINE
  5
25D
330
1F
100
AcDbEntity
  8
0
  6
Continuous
 62
     7
370
    25
100
AcDbLine
 10
6.6676383959
 20
7.7405190418
 30
0.0
 11
6.6428896585
 21
7.7262318998
 31
0.0
  0
LINE
  5
25E
330
1F
100
AcDbEntity
  8
0
  6
Continuous
 62
     7
370
    25
100
AcDbLine
 10
6.6747094637
 20
7.7364370012
 30
0.0
 11
6.6499607263
 21
7.7221498593
 31
0.0
  0
LINE
  5
25F
330
1F
100
AcDbEntity
  8
0
  6
Continuous
 62
     7
370
    25
100
AcDbLine
 10
6.6747094637
 20
7.7364370012
 30
0.0
 11
6.699458201
 21
7.7221498593
 31
0.0
  0
LINE
  5
260
330
1F
100
AcDbEntity
  8
0
  6
Continuous
 62
     7
370
    25
100
AcDbLine
 10
6.7065292688
 20
7.7262318998
 30
0.0
 11
6.699458201
 21
7.7221498593
 31
0.0
  0
LINE
  5
261
330
1F
100
AcDbEntity
  8
0
  6
Continuous
 62
     7
370
    25
100
AcDbLine
 10
6.6817805315
 20
7.7405190418
 30
0.0
 11
6.7065292688
 21
7.7262318998
 31
0.0
  0
LINE
  5
262
330
1F
100
AcDbEntity
  8
0
  6
Continuous
 62
   144
370
    18
100
AcDbLine
 10
6.6428896585
 20
7.7262318998
 30
0.0
 11
6.6499607263
 21
7.7221498593
 31
0.0
  0
LINE
  5
263
330
1F
100
AcDbEntity
  8
0
  6
Continuous
 62
   144
370
    18
100
AcDbLine
 10
6.6499607263
 20
7.7588882243
 30
0.0
 11
6.6428896585
 21
7.7548061837
 31
0.0
  0
LINE
  5
264
330
1F
100
AcDbEntity
  8
0
  6
Continuous
 62
     7
370
    25
100
AcDbLine
 10
6.6676383959
 20
7.7405190418
 30
0.0
 11
6.6676383959
 21
7.7323549607
 31
0.0
  0
LINE
  5
265
330
1F
100
AcDbEntity
  8
0
  6
Continuous
 62
     7
370
    25
100
AcDbLine
 10
6.6817805315
 20
7.7405190418
 30
0.0
 11
6.6817805315
 21
7.7323549607
 31
0.0
  0
LINE
  5
266
330
1F
100
AcDbEntity
  8
0
  6
Continuous
 62
     7
370
    25
100
AcDbLine
 10
6.6747094637
 20
7.7446010823
 30
0.0
 11
6.6747094637
 21
7.7364370012
 31
0.0
  0
LINE
  5
267
330
1F
100
AcDbEntity
  8
0
  6
Continuous
 62
     7
370
    25
100
AcDbLine
 10
6.699458201
 20
7.7588882243
 30
0.0
 11
6.699458201
 21
7.7507241432
 31
0.0
  0
LINE
  5
268
330
1F
100
AcDbEntity
  8
0
  6
Continuous
 62
   144
370
    18
100
AcDbLine
 10
6.6499607263
 20
7.7588882243
 30
0.0
 11
6.6499607263
 21
7.7507241432
 31
0.0
  0
LWPOLYLINE
  5
269
330
1F
100
AcDbEntity
  8
0
  6
Continuous
 62
     7
370
    25
100
AcDbPolyline
 90
       31
 70
   128
 43
0.0
 10
7.4698510391
 20
7.7145980842
 10
7.480167741
 20
7.7097752492
 10
7.4919959549
 20
7.7062960655
 10
7.5048187312
 20
7.70431259
 10
7.5180756529
 20
7.7039115103
 10
7.5311873291
 20
7.7051103553
 10
7.5435807164
 20
7.7078567298
 10
7.5547141645
 20
7.7120306041
 10
7.5641010883
 20
7.7174495598
 10
7.571331234
 20
7.7238767626
 10
7.5760886097
 20
7.7310313128
 10
7.5781652952
 20
7.7386005223
 10
7.5774705293
 20
7.7462535804
 10
7.5740346768
 20
7.7536560115
 10
7.5680079008
 20
7.7604842941
 10
7.5596536003
 20
7.7664399993
 10
7.5493368984
 20
7.7712628343
 10
7.5375086845
 20
7.7747420181
 10
7.5246859082
 20
7.7767254935
 10
7.5114289865
 20
7.7771265733
 10
7.4983173103
 20
7.7759277283
 10
7.485923923
 20
7.7731813538
 10
7.4747904749
 20
7.7690074795
 10
7.4654035512
 20
7.7635885237
 10
7.4581734054
 20
7.757161321
 10
7.4534160297
 20
7.7500067707
 10
7.4513393443
 20
7.7424375612
 10
7.4520341101
 20
7.7347845032
 10
7.4554699626
 20
7.727382072
 10
7.4614967386
 20
7.7205537894
 10
7.4698510391
 20
7.7145980842
  0
LWPOLYLINE
  5
26A
330
1F
100
AcDbEntity
  8
0
  6
Continuous
 62
   144
370
    18
100
AcDbPolyline
 90
       14
 70
   128
 43
0.0
 10
7.4557089035
 20
7.6558084728
 10
7.4675634291
 20
7.6501257259
 10
7.4810249158
 20
7.6457972233
 10
7.4956349488
 20
7.6429703669
 10
7.5108960009
 20
7.6417414219
 10
7.5262883754
 20
7.6421522385
 10
7.5412879032
 20
7.6441888269
 10
7.5553837937
 20
7.6477818336
 10
7.568096028
 20
7.6528089029
 10
7.5789917063
 20
7.6590988441
 10
7.5876997893
 20
7.6664374608
 10
7.5939237338
 20
7.6745748451
 10
7.5974515907
 20
7.6832338883
 10
7.5982523197
 20
7.6898935114
  0
ARC
  5
26B
330
1F
100
AcDbEntity
  8
0
  6
Continuous
 62
   144
370
    18
100
AcDbCircle
 10
7.4726325301
 20
7.6937679798
 30
0.0
 40
0.0415611996167666
100
AcDbArc
 50
185.3490633312
 51
245.9710776264
  0
LINE
  5
26C
330
1F
100
AcDbEntity
  8
0
  6
Continuous
 62
     7
370
    25
100
AcDbLine
 10
7.5465721249
 20
7.7548061837
 30
0.0
 11
7.5218233875
 21
7.7405190418
 31
0.0
  0
LINE
  5
26D
330
1F
100
AcDbEntity
  8
0
  6
Continuous
 62
     7
370
    25
100
AcDbLine
 10
7.5395010571
 20
7.7588882243
 30
0.0
 11
7.5147523197
 21
7.7446010823
 31
0.0
  0
LINE
  5
26E
330
1F
100
AcDbEntity
  8
0
  6
Continuous
 62
     7
370
    25
100
AcDbLine
 10
7.4900035824
 20
7.7588882243
 30
0.0
 11
7.5147523197
 21
7.7446010823
 31
0.0
  0
LINE
  5
26F
330
1F
100
AcDbEntity
  8
0
  6
Continuous
 62
     7
370
    25
100
AcDbLine
 10
7.4900035824
 20
7.7588882243
 30
0.0
 11
7.4829325146
 21
7.7548061837
 31
0.0
  0
LINE
  5
270
330
1F
100
AcDbEntity
  8
0
  6
Continuous
 62
     7
370
    25
100
AcDbLine
 10
7.4829325146
 20
7.7548061837
 30
0.0
 11
7.5076812519
 21
7.7405190418
 31
0.0
  0
LINE
  5
271
330
1F
100
AcDbEntity
  8
0
  6
Continuous
 62
     7
370
    25
100
AcDbLine
 10
7.5076812519
 20
7.7405190418
 30
0.0
 11
7.4829325146
 21
7.7262318998
 31
0.0
  0
LINE
  5
272
330
1F
100
AcDbEntity
  8
0
  6
Continuous
 62
     7
370
    25
100
AcDbLine
 10
7.4829325146
 20
7.7262318998
 30
0.0
 11
7.4900035824
 21
7.7221498593
 31
0.0
  0
LINE
  5
273
330
1F
100
AcDbEntity
  8
0
  6
Continuous
 62
     7
370
    25
100
AcDbLine
 10
7.5147523197
 20
7.7364370012
 30
0.0
 11
7.4900035824
 21
7.7221498593
 31
0.0
  0
LINE
  5
274
330
1F
100
AcDbEntity
  8
0
  6
Continuous
 62
     7
370
    25
100
AcDbLine
 10
7.5147523197
 20
7.7364370012
 30
0.0
 11
7.5395010571
 21
7.7221498593
 31
0.0
  0
LINE
  5
275
330
1F
100
AcDbEntity
  8
0
  6
Continuous
 62
     7
370
    25
100
AcDbLine
 10
7.5218233875
 20
7.7405190418
 30
0.0
 11
7.5465721249
 21
7.7262318998
 31
0.0
  0
LINE
  5
276
330
1F
100
AcDbEntity
  8
0
  6
Continuous
 62
   144
370
    18
100
AcDbLine
 10
7.5465721249
 20
7.7262318998
 30
0.0
 11
7.5395010571
 21
7.7221498593
 31
0.0
  0
LINE
  5
277
330
1F
100
AcDbEntity
  8
0
  6
Continuous
 62
   144
370
    18
100
AcDbLine
 10
7.5395010571
 20
7.7588882243
 30
0.0
 11
7.5465721249
 21
7.7548061837
 31
0.0
  0
LINE
  5
278
330
1F
100
AcDbEntity
  8
0
  6
Continuous
 62
     7
370
    25
100
AcDbLine
 10
7.5076812519
 20
7.7405190418
 30
0.0
 11
7.5076812519
 21
7.7323549607
 31
0.0
  0
LINE
  5
279
330
1F
100
AcDbEntity
  8
0
  6
Continuous
 62
     7
370
    25
100
AcDbLine
 10
7.5218233875
 20
7.7405190418
 30
0.0
 11
7.5218233875
 21
7.7323549607
 31
0.0
  0
LINE
  5
27A
330
1F
100
AcDbEntity
  8
0
  6
Continuous
 62
     7
370
    25
100
AcDbLine
 10
7.4900035824
 20
7.7588882243
 30
0.0
 11
7.4900035824
 21
7.7507241432
 31
0.0
  0
LINE
  5
27B
330
1F
100
AcDbEntity
  8
0
  6
Continuous
 62
     7
370
    25
100
AcDbLine
 10
7.5147523197
 20
7.7446010823
 30
0.0
 11
7.5147523197
 21
7.7364370012
 31
0.0
  0
LINE
  5
27C
330
1F
100
AcDbEntity
  8
0
  6
Continuous
 62
   144
370
    18
100
AcDbLine
 10
7.5395010571
 20
7.7588882243
 30
0.0
 11
7.5395010571
 21
7.7507241432
 31
0.0
  0
LINE
  5
27D
330
1F
100
AcDbEntity
  8
0
  6
Continuous
 62
     7
370
    25
100
AcDbLine
 10
7.2822308917
 20
5.7513343668
 30
0.0
 11
7.4235604406
 21
5.6697465549
 31
0.0
  0
LINE
  5
27E
330
1F
100
AcDbEntity
  8
0
  6
Continuous
 62
     7
370
    25
100
AcDbLine
 10
7.434767634
 20
5.6456010257
 30
0.0
 11
7.4235604406
 21
5.6697465549
 31
0.0
  0
LINE
  5
27F
330
1F
100
AcDbEntity
  8
0
  6
Continuous
 62
     7
370
    25
100
AcDbLine
 10
7.434767634
 20
5.6456010257
 30
0.0
 11
7.3543153079
 21
5.4722691383
 31
0.0
  0
LINE
  5
280
330
1F
100
AcDbEntity
  8
0
  6
Continuous
 62
     7
370
    25
100
AcDbLine
 10
7.3236966861
 20
5.4545933841
 30
0.0
 11
7.3543153079
 21
5.4722691383
 31
0.0
  0
LINE
  5
281
330
1F
100
AcDbEntity
  8
0
  6
Continuous
 62
     7
370
    25
100
AcDbLine
 10
7.0234445175
 20
5.4081492449
 30
0.0
 11
7.3236966861
 21
5.4545933841
 31
0.0
  0
LINE
  5
282
330
1F
100
AcDbEntity
  8
0
  6
Continuous
 62
     7
370
    25
100
AcDbLine
 10
6.9816187024
 20
5.4146190199
 30
0.0
 11
7.0234445175
 21
5.4081492449
 31
0.0
  0
LINE
  5
283
330
1F
100
AcDbEntity
  8
0
  6
Continuous
 62
     7
370
    25
100
AcDbLine
 10
6.7659013428
 20
5.5391500009
 30
0.0
 11
6.9816187024
 21
5.4146190199
 31
0.0
  0
LINE
  5
284
330
1F
100
AcDbEntity
  8
0
  6
Continuous
 62
     7
370
    25
100
AcDbLine
 10
6.7546941494
 20
5.56329553
 30
0.0
 11
6.7659013428
 21
5.5391500009
 31
0.0
  0
LINE
  5
285
330
1F
100
AcDbEntity
  8
0
  6
Continuous
 62
     7
370
    25
100
AcDbLine
 10
6.7546941494
 20
5.56329553
 30
0.0
 11
6.8351464755
 21
5.7366274175
 31
0.0
  0
LINE
  5
286
330
1F
100
AcDbEntity
  8
0
  6
Continuous
 62
     7
370
    25
100
AcDbLine
 10
6.8657650973
 20
5.7543031716
 30
0.0
 11
6.8351464755
 21
5.7366274175
 31
0.0
  0
LINE
  5
287
330
1F
100
AcDbEntity
  8
0
  6
Continuous
 62
     7
370
    25
100
AcDbLine
 10
6.9072308917
 20
5.7607172573
 30
0.0
 11
6.8657650973
 21
5.7543031716
 31
0.0
  0
LWPOLYLINE
  5
288
330
1F
100
AcDbEntity
  8
0
  6
Continuous
 62
     7
370
    25
100
AcDbPolyline
 90
       51
 70
   128
 43
0.0
 10
6.9072308917
 20
5.7321629915
 10
6.8896699251
 20
5.7228274541
 10
6.8705578602
 20
5.7106542377
 10
6.8536047041
 20
5.6974581998
 10
6.838973725
 20
5.6833664255
 10
6.8268058273
 20
5.6685146264
 10
6.8172181943
 20
5.6530458333
 10
6.8103031604
 20
5.6371090191
 10
6.806127321
 20
5.6208576642
 10
6.8047308917
 20
5.6044482779
 10
6.806127321
 20
5.5880388916
 10
6.8103031604
 20
5.5717875366
 10
6.8172181943
 20
5.5558507225
 10
6.8268058273
 20
5.5403819294
 10
6.838973725
 20
5.5255301302
 10
6.8536047041
 20
5.5114383559
 10
6.8705578602
 20
5.4982423181
 10
6.8896699251
 20
5.4860691017
 10
6.9107568393
 20
5.4750359414
 10
6.9336155241
 20
5.4652490927
 10
6.958025838
 20
5.4568028083
 10
6.9837526963
 20
5.4497784304
 10
7.0105483353
 20
5.4442436077
 10
7.0381546983
 20
5.4402516436
 10
7.066305921
 20
5.4378409828
 10
7.0947308917
 20
5.4370348414
 10
7.1231558624
 20
5.4378409828
 10
7.1513070851
 20
5.4402516436
 10
7.1789134481
 20
5.4442436077
 10
7.2057090871
 20
5.4497784304
 10
7.2314359454
 20
5.4568028083
 10
7.2558462593
 20
5.4652490927
 10
7.2787049441
 20
5.4750359414
 10
7.2997918582
 20
5.4860691017
 10
7.3189039232
 20
5.4982423181
 10
7.3358570793
 20
5.5114383559
 10
7.3504880583
 20
5.5255301302
 10
7.3626559561
 20
5.5403819294
 10
7.372243589
 20
5.5558507225
 10
7.379158623
 20
5.5717875366
 10
7.3833344624
 20
5.5880388916
 10
7.3847308917
 20
5.6044482779
 10
7.3833344624
 20
5.6208576642
 10
7.379158623
 20
5.6371090191
 10
7.372243589
 20
5.6530458333
 10
7.3626559561
 20
5.6685146264
 10
7.3504880583
 20
5.6833664255
 10
7.3358570793
 20
5.6974581998
 10
7.3189039232
 20
5.7106542377
 10
7.2997918582
 20
5.7228274541
 10
7.2822308917
 20
5.7321629915
  0
LINE
  5
289
330
1F
100
AcDbEntity
  8
0
  6
Continuous
 62
     7
370
    25
100
AcDbLine
 10
7.0234445175
 20
5.4081492449
 30
0.0
 11
7.0234445175
 21
5.1795178176
 31
0.0
  0
LINE
  5
28A
330
1F
100
AcDbEntity
  8
0
  6
Continuous
 62
     7
370
    25
100
AcDbLine
 10
7.3236966861
 20
5.2259619568
 30
0.0
 11
7.3236966861
 21
5.4545933841
 31
0.0
  0
LINE
  5
28B
330
1F
100
AcDbEntity
  8
0
  6
Continuous
 62
     7
370
    25
100
AcDbLine
 10
7.0234445175
 20
5.1795178176
 30
0.0
 11
7.3236966861
 21
5.2259619568
 31
0.0
  0
ARC
  5
28C
330
1F
100
AcDbEntity
  8
0
  6
Continuous
 62
     7
370
    25
100
AcDbCircle
 10
6.9761988256
 20
5.5266051401
 30
0.0
 40
0.0756934488459846
100
AcDbArc
 50
155.664480669
 51
232.3315861904
  0
ARC
  5
28D
330
1F
100
AcDbEntity
  8
0
  6
Continuous
 62
     7
370
    25
100
AcDbCircle
 10
7.2132629578
 20
5.5266051401
 30
0.0
 40
0.0756934488459862
100
AcDbArc
 50
307.6684138096
 51
24.335519331
  0
LINE
  5
28E
330
1F
100
AcDbEntity
  8
0
  6
Continuous
 62
     7
370
    25
100
AcDbLine
 10
6.9816187024
 20
5.1859875926
 30
0.0
 11
6.9816187024
 21
5.4146190199
 31
0.0
  0
LINE
  5
28F
330
1F
100
AcDbEntity
  8
0
  6
Continuous
 62
     7
370
    25
100
AcDbLine
 10
7.0234445175
 20
5.1795178176
 30
0.0
 11
6.9816187024
 21
5.1859875926
 31
0.0
  0
LINE
  5
290
330
1F
100
AcDbEntity
  8
0
  6
Continuous
 62
     7
370
    25
100
AcDbLine
 10
6.7659013428
 20
5.5391500009
 30
0.0
 11
6.7659013428
 21
5.3105185736
 31
0.0
  0
LINE
  5
291
330
1F
100
AcDbEntity
  8
0
  6
Continuous
 62
     7
370
    25
100
AcDbLine
 10
6.7659013428
 20
5.3105185736
 30
0.0
 11
6.9816187024
 21
5.1859875926
 31
0.0
  0
LINE
  5
292
330
1F
100
AcDbEntity
  8
0
  6
Continuous
 62
     7
370
    25
100
AcDbLine
 10
6.7659013428
 20
5.3105185736
 30
0.0
 11
6.7546941494
 21
5.3346641027
 31
0.0
  0
LINE
  5
293
330
1F
100
AcDbEntity
  8
0
  6
Continuous
 62
     7
370
    25
100
AcDbLine
 10
7.3543153079
 20
5.2436377109
 30
0.0
 11
7.3236966861
 21
5.2259619568
 31
0.0
  0
LINE
  5
294
330
1F
100
AcDbEntity
  8
0
  6
Continuous
 62
     7
370
    25
100
AcDbLine
 10
7.434767634
 20
5.4169695984
 30
0.0
 11
7.3543153079
 21
5.2436377109
 31
0.0
  0
LINE
  5
295
330
1F
100
AcDbEntity
  8
0
  6
Continuous
 62
     7
370
    25
100
AcDbLine
 10
7.3543153079
 20
5.4722691383
 30
0.0
 11
7.3543153079
 21
5.2436377109
 31
0.0
  0
LINE
  5
296
330
1F
100
AcDbEntity
  8
0
  6
Continuous
 62
     7
370
    25
100
AcDbLine
 10
7.434767634
 20
5.4169695984
 30
0.0
 11
7.434767634
 21
5.6456010257
 31
0.0
  0
LWPOLYLINE
  5
297
330
1F
100
AcDbEntity
  8
0
  6
Continuous
 62
     7
370
    25
100
AcDbPolyline
 90
       34
 70
   128
 43
0.0
 10
6.8147308917
 20
5.0247043014
 10
6.8147526498
 20
5.0226892394
 10
6.8164914729
 20
5.0066063009
 10
6.8209955644
 20
4.9907032285
 10
6.8282201605
 20
4.975138074
 10
6.83809346
 20
4.9600655309
 10
6.8505173377
 20
4.945635397
 10
6.8653683193
 20
4.9319910854
 10
6.8824988092
 20
4.9192681994
 10
6.9017385569
 20
4.9075931847
 10
6.9228963491
 20
4.897082073
 10
6.9457619103
 20
4.8878393282
 10
6.970107992
 20
4.8799568091
 10
6.9956926322
 20
4.8735128556
 10
7.0222615591
 20
4.8685715106
 10
7.0495507187
 20
4.8651818834
 10
7.0772888992
 20
4.8633776616
 10
7.1052004261
 20
4.8631767765
 10
7.133007902
 20
4.8645812245
 10
7.1604349638
 20
4.8675770476
 10
7.187209029
 20
4.8721344719
 10
7.213064005
 20
4.8782082038
 10
7.2377429333
 20
4.8857378796
 10
7.2610005436
 20
4.8946486662
 10
7.2826056915
 20
4.9048520042
 10
7.3023436552
 20
4.9162464881
 10
7.32001827
 20
4.9287188745
 10
7.3354538776
 20
4.9421452072
 10
7.3484970721
 20
4.9563920492
 10
7.3590182242
 20
4.9713178091
 10
7.36691277
 20
4.986774148
 10
7.3721022501
 20
5.0026074537
 10
7.374535089
 20
5.0186603679
 10
7.3747308917
 20
5.0247043014
  0
LINE
  5
298
330
1F
100
AcDbEntity
  8
0
  6
Continuous
 62
     7
370
    25
100
AcDbLine
 10
6.7546941494
 20
5.3346641027
 30
0.0
 11
6.7546941494
 21
5.56329553
 31
0.0
  0
ARC
  5
299
330
1F
100
AcDbEntity
  8
0
  6
Continuous
 62
     7
370
    25
100
AcDbCircle
 10
6.9971395834
 20
7.8083194025
 30
0.0
 40
0.3945834205717468
100
AcDbArc
 50
231.5858652983
 51
248.4195112344
  0
ARC
  5
29A
330
1F
100
AcDbEntity
  8
0
  6
Continuous
 62
     7
370
    25
100
AcDbCircle
 10
7.1923222
 20
7.8083194025
 30
0.0
 40
0.3945834205717945
100
AcDbArc
 50
291.5804887656
 51
308.4141347017
  0
ARC
  5
29B
330
1F
100
AcDbEntity
  8
0
  6
Continuous
 62
     7
370
    25
100
AcDbCircle
 10
7.0947308917
 20
7.304267035
 30
0.0
 40
0.1668102181169015
100
AcDbArc
 50
242.4805390039
 51
297.5194609961
  0
LINE
  5
29C
330
1F
100
AcDbEntity
  8
0
  6
Continuous
 62
     7
370
    25
100
AcDbLine
 10
6.883685002
 20
7.2336706917
 30
0.0
 11
7.0176562525
 21
7.1563307349
 31
0.0
  0
LINE
  5
29D
330
1F
100
AcDbEntity
  8
0
  6
Continuous
 62
     7
370
    25
100
AcDbLine
 10
6.883685002
 20
7.2336706917
 30
0.0
 11
6.883685002
 21
7.4231092216
 31
0.0
  0
LINE
  5
29E
330
1F
100
AcDbEntity
  8
0
  6
Continuous
 62
     7
370
    25
100
AcDbLine
 10
7.1718055308
 20
7.1563307349
 30
0.0
 11
7.3057767814
 21
7.2336706917
 31
0.0
  0
LINE
  5
29F
330
1F
100
AcDbEntity
  8
0
  6
Continuous
 62
     7
370
    25
100
AcDbLine
 10
7.3057767814
 20
7.4231092216
 30
0.0
 11
7.3057767814
 21
7.2336706917
 31
0.0
  0
LINE
  5
2A0
330
1F
100
AcDbEntity
  8
0
  6
Continuous
 62
     7
370
    25
100
AcDbLine
 10
7.4578557083
 20
7.3214639874
 30
0.0
 11
7.5918269589
 21
7.3988039442
 31
0.0
  0
ARC
  5
2A1
330
1F
100
AcDbEntity
  8
0
  6
Continuous
 62
     7
370
    25
100
AcDbCircle
 10
7.5705847087
 20
7.4477462234
 30
0.0
 40
0.0533533493879729
100
AcDbArc
 50
293.462125065
 51
355.2177339774
  0
ARC
  5
2A2
330
1F
100
AcDbEntity
  8
0
  6
Continuous
 62
     7
370
    25
100
AcDbCircle
 10
6.6201948935
 20
7.4486917805
 30
0.0
 40
0.0547517390421597
100
AcDbArc
 50
185.6533765496
 51
245.666764408
  0
LINE
  5
2A3
330
1F
100
AcDbEntity
  8
0
  6
Continuous
 62
     7
370
    25
100
AcDbLine
 10
6.5976348245
 20
7.3988039442
 30
0.0
 11
6.7316060751
 21
7.3214639874
 31
0.0
  0
ARC
  5
2A4
330
1F
100
AcDbEntity
  8
0
  6
Continuous
 62
     7
370
    25
100
AcDbCircle
 10
6.9990254058
 20
7.6090829135
 30
0.0
 40
0.3927311358754252
100
AcDbArc
 50
227.0842545584
 51
252.9211219743
  0
ARC
  5
2A5
330
1F
100
AcDbEntity
  8
0
  6
Continuous
 62
     7
370
    25
100
AcDbCircle
 10
7.1904363776
 20
7.6090829135
 30
0.0
 40
0.3927311358753945
100
AcDbArc
 50
287.0788780257
 51
312.9157454416
  0
SPLINE
  5
2A6
330
1F
100
AcDbEntity
  8
0
  6
Continuous
 62
     7
370
    25
100
AcDbSpline
210
0.0
220
0.0
230
1.0
 70
     8
 71
     3
 72
     9
 73
     5
 74
     0
 42
0.000000001
 43
0.00000001
 40
0.0
 40
0.0
 40
0.0
 40
0.0
 40
0.7928508447737983
 40
1.0
 40
1.0
 40
1.0
 40
1.0
 10
6.82001990719624
 20
7.11650350327504
 30
0.0
 10
6.82459638043629
 20
7.114121989407878
 30
0.0
 10
6.830368554698594
 20
7.111118254363814
 30
0.0
 10
6.835521004004882
 20
7.111848742183737
 30
0.0
 10
6.836588329526025
 20
7.112000062118538
 30
0.0
  0
SPLINE
  5
2A7
330
1F
100
AcDbEntity
  8
0
  6
Continuous
 62
     7
370
    25
100
AcDbSpline
210
0.0
220
0.0
230
1.0
 70
     8
 71
     3
 72
    13
 73
     9
 74
     0
 42
0.000000001
 43
0.00000001
 40
0.0
 40
0.0
 40
0.0
 40
0.0
 40
0.1701511936590174
 40
0.3460303573046684
 40
0.5218109608299528
 40
0.6991706848439533
 40
0.8773405448019845
 40
1.0
 40
1.0
 40
1.0
 40
1.0
 10
6.785191192686229
 20
7.200045194756542
 30
0.0
 10
6.784302570141235
 20
7.195919399277952
 30
0.0
 10
6.782495410460828
 20
7.187528917536857
 30
0.0
 10
6.784547601060541
 20
7.170692878524454
 30
0.0
 10
6.790031753612791
 20
7.152908001318329
 30
0.0
 10
6.799004593834521
 20
7.136116459726666
 30
0.0
 10
6.809521461643189
 20
7.123533073929604
 30
0.0
 10
6.816979133267603
 20
7.118539550903987
 30
0.0
 10
6.82001990719624
 20
7.11650350327504
 30
0.0
  0
SPLINE
  5
2A8
330
1F
100
AcDbEntity
  8
0
  6
Continuous
 62
     7
370
    25
100
AcDbSpline
210
0.0
220
0.0
230
1.0
 70
     8
 71
     3
 72
     9
 73
     5
 74
     0
 42
0.000000001
 43
0.00000001
 40
0.0
 40
0.0
 40
0.0
 40
0.0
 40
0.7739464374381244
 40
1.0
 40
1.0
 40
1.0
 40
1.0
 10
7.044730891687215
 20
6.988172959618968
 30
0.0
 10
7.044983161196339
 20
6.992824946691737
 30
0.0
 10
7.045309113351323
 20
6.998835681863758
 30
0.0
 10
7.049031642834935
 20
7.00366322783684
 30
0.0
 10
7.049873133886447
 20
7.004754511802488
 30
0.0
  0
SPLINE
  5
2A9
330
1F
100
AcDbEntity
  8
0
  6
Continuous
 62
     7
370
    25
100
AcDbSpline
210
0.0
220
0.0
230
1.0
 70
     8
 71
     3
 72
     9
 73
     5
 74
     0
 42
0.000000001
 43
0.00000001
 40
0.0
 40
0.0
 40
0.0
 40
0.0
 40
0.7165000039747311
 40
1.0
 40
1.0
 40
1.0
 40
1.0
 10
7.140424709703907
 20
7.003699716870341
 30
0.0
 10
7.142132380935335
 20
7.00013521422962
 30
0.0
 10
7.144515732256976
 20
6.995160332693057
 30
0.0
 10
7.144683367185612
 20
6.989716333397594
 30
0.0
 10
7.144730891687215
 20
6.988172959618968
 30
0.0
  0
LINE
  5
2AA
330
1F
100
AcDbEntity
  8
0
  6
Continuous
 62
   144
370
    18
100
AcDbLine
 10
7.0378712187
 20
6.9662679479
 30
0.0
 11
7.0447308917
 21
6.9657180873
 31
0.0
  0
LINE
  5
2AB
330
1F
100
AcDbEntity
  8
0
  6
Continuous
 62
   144
370
    18
100
AcDbLine
 10
7.0447308917
 20
6.9657180873
 30
0.0
 11
7.0447308917
 21
6.9881729596
 31
0.0
  0
LINE
  5
2AC
330
1F
100
AcDbEntity
  8
0
  6
Continuous
 62
   144
370
    18
100
AcDbLine
 10
7.1447308917
 20
6.9881729596
 30
0.0
 11
7.1447308917
 21
6.9657180873
 31
0.0
  0
LINE
  5
2AD
330
1F
100
AcDbEntity
  8
0
  6
Continuous
 62
   144
370
    18
100
AcDbLine
 10
7.1447308917
 20
6.9657180873
 30
0.0
 11
7.1514525122
 21
6.9662561715
 31
0.0
  0
LINE
  5
2AE
330
1F
100
AcDbEntity
  8
0
  6
Continuous
 62
     7
370
    25
100
AcDbLine
 10
6.7316060751
 20
7.5109025174
 30
0.0
 11
6.7316060751
 21
7.3214639874
 31
0.0
  0
LINE
  5
2AF
330
1F
100
AcDbEntity
  8
0
  6
Continuous
 62
     7
370
    25
100
AcDbLine
 10
7.4578557083
 20
7.3214639874
 30
0.0
 11
7.4578557083
 21
7.5109025174
 31
0.0
  0
LWPOLYLINE
  5
2B0
330
1F
100
AcDbEntity
  8
0
  6
Continuous
 62
     7
370
    25
100
AcDbPolyline
 90
       28
 70
   128
 43
0.0
 10
6.849151743
 20
4.9470577484
 10
6.8544358629
 20
4.934257219
 10
6.8631293521
 20
4.9197378509
 10
6.8744469793
 20
4.9058341872
 10
6.8882605113
 20
4.8927037619
 10
6.9044134352
 20
4.880495348
 10
6.9227227319
 20
4.8693472717
 10
6.9429809498
 20
4.8593858451
 10
6.9649585552
 20
4.8507239351
 10
6.9884065329
 20
4.8434596848
 10
7.0130592082
 20
4.8376754009
 10
7.0386372563
 20
4.8334366216
 10
7.0648508677
 20
4.8307913742
 10
7.0914030317
 20
4.8297696302
 10
7.1179929016
 20
4.8303829664
 10
7.1443192037
 20
4.8326244335
 10
7.1700836504
 20
4.8364686348
 10
7.1949943203
 20
4.8418720139
 10
7.2187689654
 20
4.8487733484
 10
7.2411382096
 20
4.8570944434
 10
7.2618486004
 20
4.8667410176
 10
7.2806654808
 20
4.8776037714
 10
7.297375648
 20
4.8895596255
 10
7.3117897691
 20
4.9024731153
 10
7.3237445264
 20
4.9161979258
 10
7.3331044677
 20
4.9305785494
 10
7.3397635412
 20
4.9454520479
 10
7.3403100403
 20
4.9470577484
  0
ARC
  5
2B1
330
1F
100
AcDbEntity
  8
0
  6
Continuous
 62
     7
370
    25
100
AcDbCircle
 10
7.0947308917
 20
5.1974380067
 30
0.0
 40
0.3705529611640992
100
AcDbArc
 50
242.492097841
 51
297.507902159
  0
LWPOLYLINE
  5
2B2
330
1F
100
AcDbEntity
  8
0
  6
Continuous
 62
     7
370
    25
100
AcDbPolyline
 90
       30
 70
   128
 43
0.0
 10
6.8707308917
 20
4.8956908532
 10
6.8721393567
 20
4.8812124527
 10
6.8763470394
 20
4.8669161266
 10
6.8833010257
 20
4.8529816593
 10
6.8929138653
 20
4.8395842849
 10
6.9050646711
 20
4.8268924832
 10
6.9196006396
 20
4.8150658609
 10
6.9363389727
 20
4.8042531446
 10
6.9550691761
 20
4.7945903106
 10
6.9755557065
 20
4.7861988746
 10
6.9975409341
 20
4.7791843637
 10
7.0207483818
 20
4.7736349896
 10
7.0448862025
 20
4.7696205387
 10
7.069650849
 20
4.7671914952
 10
7.0947308917
 20
4.7663784057
 10
7.1198109343
 20
4.7671914952
 10
7.1445755809
 20
4.7696205387
 10
7.1687134016
 20
4.7736349896
 10
7.1919208492
 20
4.7791843637
 10
7.2139060768
 20
4.7861988746
 10
7.2343926073
 20
4.7945903106
 10
7.2531228107
 20
4.8042531446
 10
7.2698611438
 20
4.8150658609
 10
7.2843971123
 20
4.8268924832
 10
7.2965479181
 20
4.8395842849
 10
7.3061607577
 20
4.8529816593
 10
7.313114744
 20
4.8669161266
 10
7.3173224267
 20
4.8812124527
 10
7.3187308917
 20
4.8956908532
 10
7.3187308917
 20
4.8956908532
  0
ARC
  5
2B3
330
1F
100
AcDbEntity
  8
0
  6
Continuous
 62
     7
370
    25
100
AcDbCircle
 10
7.0947744596
 20
6.0331196252
 30
0.0
 40
0.2988336585195459
100
AcDbArc
 50
247.849587815
 51
291.8481945542
  0
LWPOLYLINE
  5
2B4
330
1F
100
AcDbEntity
  8
0
  6
Continuous
 62
     7
370
    25
100
AcDbPolyline
 90
       58
 70
   128
 43
0.0
 10
6.9282072447
 20
7.9432409238
 10
6.9475369006
 20
7.9332490638
 10
6.9686532922
 20
7.9245454045
 10
6.991300095
 20
7.9172355964
 10
7.0152024076
 20
7.9114083706
 10
7.0400700883
 20
7.9071344619
 10
7.065601277
 20
7.9044657496
 10
7.0914860598
 20
7.9034346283
 10
7.1174102305
 20
7.9040536144
 10
7.1430591048
 20
7.9063151943
 10
7.16812134
 20
7.9101919155
 10
7.1922927145
 20
7.9156367198
 10
7.2152798207
 20
7.9225835147
 10
7.2368036263
 20
7.9309479754
 10
7.2566028612
 20
7.9406285689
 10
7.2744371897
 20
7.9515077857
 10
7.2900901273
 20
7.9634535669
 10
7.3033716683
 20
7.9763209069
 10
7.3141205929
 20
7.9899536137
 10
7.3222064238
 20
8.0041862046
 10
7.3275310098
 20
8.0188459153
 10
7.3300297178
 20
8.0337547968
 10
7.3296722167
 20
8.0487318753
 10
7.3264628463
 20
8.0635953496
 10
7.3204405638
 20
8.078164797
 10
7.3116784717
 20
8.0922633644
 10
7.3002829298
 20
8.1057199141
 10
7.2863922646
 20
8.1183711019
 10
7.27017509
 20
8.1300633595
 10
7.2518282605
 20
8.1406547588
 10
7.2315744817
 20
8.1500167344
 10
7.2096596071
 20
8.1580356447
 10
7.1863496536
 20
8.164614151
 10
7.1619275725
 20
8.1696723991
 10
7.1366898147
 20
8.1731489888
 10
7.1109427324
 20
8.1750017189
 10
7.0849988603
 20
8.1752080999
 10
7.0591731218
 20
8.1737656265
 10
7.0337790066
 20
8.1706918084
 10
7.0091247646
 20
8.1660239576
 10
6.9855096651
 20
8.1598187355
 10
6.9632203633
 20
8.1521514651
 10
6.9425274212
 20
8.1431152166
 10
6.923682023
 20
8.1328196779
 10
6.9069129264
 20
8.1213898228
 10
6.8924236854
 20
8.1089643944
 10
6.8803901799
 20
8.0956942204
 10
6.8709584803
 20
8.0817403829
 10
6.8642430746
 20
8.0672722625
 10
6.8603254788
 20
8.0524654826
 10
6.8592532472
 20
8.0374997774
 10
6.8610393952
 20
8.0225568103
 10
6.8656622413
 20
8.0078179688
 10
6.8730656706
 20
7.9934621623
 10
6.8831598155
 20
7.979663651
 10
6.8958221465
 20
7.96658993
 10
6.9108989603
 20
7.9543996966
 10
6.9282072447
 20
7.9432409238
  0
ARC
  5
2B5
330
1F
100
AcDbEntity
  8
0
  6
Continuous
 62
     7
370
    25
100
AcDbCircle
 10
7.1424644611
 20
7.9566870522
 30
0.0
 40
0.1966062626428632
100
AcDbArc
 50
46.1876504322
 51
73.8177261005
  0
LINE
  5
2B6
330
1F
100
AcDbEntity
  8
0
  6
Continuous
 62
     7
370
    25
100
AcDbLine
 10
7.1787799099
 20
8.1348369108
 30
0.0
 11
7.1972574465
 21
8.1455037656
 31
0.0
  0
ARC
  5
2B7
330
1F
100
AcDbEntity
  8
0
  6
Continuous
 62
     7
370
    25
100
AcDbCircle
 10
7.0952913815
 20
7.8478544595
 30
0.0
 40
0.2988800122379633
100
AcDbArc
 50
73.7793048241
 51
112.1845534275
  0
LINE
  5
2B8
330
1F
100
AcDbEntity
  8
0
  6
Continuous
 62
     7
370
    25
100
AcDbLine
 10
6.9824369297
 20
8.1246091061
 30
0.0
 11
6.9646160546
 21
8.1348968783
 31
0.0
  0
ARC
  5
2B9
330
1F
100
AcDbEntity
  8
0
  6
Continuous
 62
     7
370
    25
100
AcDbCircle
 10
7.0454613852
 20
7.954026443
 30
0.0
 40
0.1981163341061555
100
AcDbArc
 50
114.0836521616
 51
125.9109713057
  0
LINE
  5
2BA
330
1F
100
AcDbEntity
  8
0
  6
Continuous
 62
     7
370
    25
100
AcDbLine
 10
6.9470815906
 20
8.1041989033
 30
0.0
 11
6.9292607156
 21
8.1144866755
 31
0.0
  0
ARC
  5
2BB
330
1F
100
AcDbEntity
  8
0
  6
Continuous
 62
     7
370
    25
100
AcDbCircle
 10
6.9955857099
 20
8.0317947446
 30
0.0
 40
0.0871493647936393
100
AcDbArc
 50
123.8184437671
 51
170.7950001067
  0
LINE
  5
2BC
330
1F
100
AcDbEntity
  8
0
  6
Continuous
 62
     7
370
    25
100
AcDbLine
 10
6.9095586277
 20
8.0457357957
 30
0.0
 11
6.8846027969
 21
8.0465933182
 31
0.0
  0
ARC
  5
2BD
330
1F
100
AcDbEntity
  8
0
  6
Continuous
 62
     7
370
    25
100
AcDbCircle
 10
6.9563293516
 20
8.0394082005
 30
0.0
 40
0.072085536384645
100
AcDbArc
 50
174.279550627
 51
200.6957892703
  0
LINE
  5
2BE
330
1F
100
AcDbEntity
  8
0
  6
Continuous
 62
     7
370
    25
100
AcDbLine
 10
6.9133415036
 20
8.0169541394
 30
0.0
 11
6.8888954944
 21
8.0139327325
 31
0.0
  0
ARC
  5
2BF
330
1F
100
AcDbEntity
  8
0
  6
Continuous
 62
     7
370
    25
100
AcDbCircle
 10
7.0704929754
 20
8.1183786732
 30
0.0
 40
0.1870388225689815
100
AcDbArc
 50
212.8379339844
 51
275.8859330767
  0
LINE
  5
2C0
330
1F
100
AcDbEntity
  8
0
  6
Continuous
 62
     7
370
    25
100
AcDbLine
 10
7.0896734925
 20
7.9323259148
 30
0.0
 11
7.0889919023
 21
7.9178990867
 31
0.0
  0
ARC
  5
2C1
330
1F
100
AcDbEntity
  8
0
  6
Continuous
 62
     7
370
    25
100
AcDbCircle
 10
7.0948485338
 20
8.2769897142
 30
0.0
 40
0.3591383839808564
100
AcDbArc
 50
269.0656104734
 51
278.0917515216
  0
LINE
  5
2C2
330
1F
100
AcDbEntity
  8
0
  6
Continuous
 62
     7
370
    25
100
AcDbLine
 10
7.1393826324
 20
7.9354347799
 30
0.0
 11
7.1454003872
 21
7.9214269364
 31
0.0
  0
ARC
  5
2C3
330
1F
100
AcDbEntity
  8
0
  6
Continuous
 62
     7
370
    25
100
AcDbCircle
 10
7.1042051468
 20
8.1943420339
 30
0.0
 40
0.2612860915741717
100
AcDbArc
 50
277.7373444288
 51
293.1733215111
  0
LINE
  5
2C4
330
1F
100
AcDbEntity
  8
0
  6
Continuous
 62
     7
370
    25
100
AcDbLine
 10
7.2070248537
 20
7.9541368517
 30
0.0
 11
7.2248457287
 21
7.9438490795
 31
0.0
  0
ARC
  5
2C5
330
1F
100
AcDbEntity
  8
0
  6
Continuous
 62
     7
370
    25
100
AcDbCircle
 10
7.1440003981
 20
8.1247195148
 30
0.0
 40
0.1981163341062299
100
AcDbArc
 50
294.0836521616
 51
305.9109713057
  0
LINE
  5
2C6
330
1F
100
AcDbEntity
  8
0
  6
Continuous
 62
     7
370
    25
100
AcDbLine
 10
7.2423801927
 20
7.9745470545
 30
0.0
 11
7.2602010678
 21
7.9642592823
 31
0.0
  0
ARC
  5
2C7
330
1F
100
AcDbEntity
  8
0
  6
Continuous
 62
     7
370
    25
100
AcDbCircle
 10
7.2057494148
 20
8.0383306071
 30
0.0
 40
0.0735537591065973
100
AcDbArc
 50
299.8686726535
 51
42.3634723274
  0
LINE
  5
2C8
330
1F
100
AcDbEntity
  8
0
  6
Continuous
 62
     7
370
    25
100
AcDbLine
 10
7.2600971898
 20
8.0878934444
 30
0.0
 11
7.2785747264
 21
8.0985602992
 31
0.0
  0
LWPOLYLINE
  5
2C9
330
1F
100
AcDbEntity
  8
0
  6
Continuous
 62
     7
370
    25
100
AcDbPolyline
 90
       23
 70
   128
 43
0.0
 10
6.9282072447
 20
7.5937614563
 10
6.9475369006
 20
7.5837695964
 10
6.9686532922
 20
7.575065937
 10
6.991300095
 20
7.5677561289
 10
7.0152024076
 20
7.5619289031
 10
7.0400700883
 20
7.5576549944
 10
7.065601277
 20
7.5549862821
 10
7.0914860598
 20
7.5539551608
 10
7.1174102305
 20
7.5545741469
 10
7.1430591048
 20
7.5568357269
 10
7.16812134
 20
7.560712448
 10
7.1922927145
 20
7.5661572523
 10
7.2152798207
 20
7.5731040472
 10
7.2368036263
 20
7.581468508
 10
7.2566028612
 20
7.5911491014
 10
7.2744371897
 20
7.6020283182
 10
7.2900901273
 20
7.6139740994
 10
7.3033716683
 20
7.6268414394
 10
7.3141205929
 20
7.6404741462
 10
7.3222064238
 20
7.6547067371
 10
7.3275310098
 20
7.6693664478
 10
7.3300297178
 20
7.6842753293
 10
7.3302308917
 20
7.6898935114
  0
ARC
  5
2CA
330
1F
100
AcDbEntity
  8
0
  6
Continuous
 62
     7
370
    25
100
AcDbCircle
 10
6.9748852002
 20
7.7000655374
 30
0.0
 40
0.1161007717114655
100
AcDbArc
 50
185.0263436272
 51
246.2937973304
  0
SPLINE
  5
2CB
330
1F
100
AcDbEntity
  8
0
  6
Continuous
 62
     7
370
    25
100
AcDbSpline
210
0.0
220
0.0
230
1.0
 70
     8
 71
     3
 72
    15
 73
    11
 74
     0
 42
0.000000001
 43
0.00000001
 40
0.0
 40
0.0
 40
0.0
 40
0.0
 40
0.142446345193357
 40
0.2848690127369711
 40
0.4278625215864764
 40
0.570739468626759
 40
0.7123013108478594
 40
0.8535137553537975
 40
0.9965461139479264
 40
1.0
 40
1.0
 40
1.0
 40
1.0
 10
6.947700340116716
 20
7.847845070575948
 30
0.0
 10
6.947357314499679
 20
7.851618079720784
 30
0.0
 10
6.946671320283849
 20
7.859163470855092
 30
0.0
 10
6.941419097024505
 20
7.871288953392448
 30
0.0
 10
6.933932538409789
 20
7.882477467495381
 30
0.0
 10
6.925032969870709
 20
7.891704587137943
 30
0.0
 10
6.915958457039468
 20
7.898137654745666
 30
0.0
 10
6.908033236854532
 20
7.900591913982606
 30
0.0
 10
6.903128952215356
 20
7.900788917495309
 30
0.0
 10
6.901639185524507
 20
7.899071463492185
 30
0.0
 10
6.901604059466038
 20
7.89903096897039
 30
0.0
  0
SPLINE
  5
2CC
330
1F
100
AcDbEntity
  8
0
  6
Continuous
 62
     7
370
    25
100
AcDbSpline
210
0.0
220
0.0
230
1.0
 70
     8
 71
     3
 72
    10
 73
     6
 74
     0
 42
0.000000001
 43
0.00000001
 40
0.0
 40
0.0
 40
0.0
 40
0.0
 40
0.2622710819777167
 40
0.6916748749187139
 40
0.9999999999999999
 40
0.9999999999999999
 40
0.9999999999999999
 40
0.9999999999999999
 10
6.938549732855177
 20
7.829804070590105
 30
0.0
 10
6.940009880381137
 20
7.830601894446546
 30
0.0
 10
6.94386065702706
 20
7.832705956823341
 30
0.0
 10
6.947055445281741
 20
7.839367991453777
 30
0.0
 10
6.947510256934719
 20
7.845346445865194
 30
0.0
 10
6.947700340116179
 20
7.847845070575654
 30
0.0
  0
SPLINE
  5
2CD
330
1F
100
AcDbEntity
  8
0
  6
Continuous
 62
     7
370
    25
100
AcDbSpline
210
0.0
220
0.0
230
1.0
 70
     8
 71
     3
 72
    18
 73
    14
 74
     0
 42
0.000000001
 43
0.00000001
 40
0.0
 40
0.0
 40
0.0
 40
0.0
 40
0.0223697361465736
 40
0.1293897525445377
 40
0.2354247077364231
 40
0.3411979513484605
 40
0.4483343766418857
 40
0.5569450492709765
 40
0.6648514787119084
 40
0.7703148194959591
 40
0.8747208179183127
 40
0.9807657691126782
 40
1.0
 40
1.0
 40
1.0
 40
1.0
 10
7.324490037980156
 20
7.950100468606909
 30
0.0
 10
7.324353121134343
 20
7.950237315603162
 30
0.0
 10
7.323561174520272
 20
7.951028858197385
 30
0.0
 10
7.321086226129126
 20
7.948189608590305
 30
0.0
 10
7.317081979864812
 20
7.941725525069283
 30
0.0
 10
7.312435026707101
 20
7.931704592036026
 30
0.0
 10
7.307906508566776
 20
7.919582664768756
 30
0.0
 10
7.304306096939139
 20
7.906431172235904
 30
0.0
 10
7.302478203253462
 20
7.893853751597773
 30
0.0
 10
7.302813859375414
 20
7.883221984623623
 30
0.0
 10
7.30520050086151
 20
7.876098319812371
 30
0.0
 10
7.307904415530277
 20
7.872643910412411
 30
0.0
 10
7.309677142909853
 20
7.873054683092136
 30
0.0
 10
7.309949311415047
 20
7.873117749408766
 30
0.0
  0
LINE
  5
2CE
330
1F
100
AcDbEntity
  8
0
  6
Continuous
 62
     7
370
    25
100
AcDbLine
 10
7.1718055308
 20
7.3963947952
 30
0.0
 11
7.1718055308
 21
7.3457692649
 31
0.0
  0
ARC
  5
2CF
330
1F
100
AcDbEntity
  8
0
  6
Continuous
 62
     7
370
    25
100
AcDbCircle
 10
7.0947308917
 20
7.4937055649
 30
0.0
 40
0.1668102181169011
100
AcDbArc
 50
242.4805390039
 51
297.5194609961
  0
LINE
  5
2D0
330
1F
100
AcDbEntity
  8
0
  6
Continuous
 62
     7
370
    25
100
AcDbLine
 10
7.0176562525
 20
7.3457692649
 30
0.0
 11
7.0176562525
 21
7.3963947952
 31
0.0
  0
ARC
  5
2D1
330
1F
100
AcDbEntity
  8
0
  6
Continuous
 62
     7
370
    25
100
AcDbCircle
 10
7.0947308917
 20
7.5443310953
 30
0.0
 40
0.1668102181169098
100
AcDbArc
 50
242.4805390039
 51
297.5194609961
  0
LINE
  5
2D2
330
1F
100
AcDbEntity
  8
0
  6
Continuous
 62
     7
370
    25
100
AcDbLine
 10
7.6031406674
 20
7.7343877535
 30
0.0
 11
7.5955666136
 21
7.7387601617
 31
0.0
  0
LINE
  5
2D3
330
1F
100
AcDbEntity
  8
0
  6
Continuous
 62
     7
370
    25
100
AcDbLine
 10
7.5233784013
 20
7.7804335296
 30
0.0
 11
7.3625878708
 21
7.8732559271
 31
0.0
  0
ARC
  5
2D4
330
1F
100
AcDbEntity
  8
0
  6
Continuous
 62
     7
370
    25
100
AcDbCircle
 10
7.5857818572
 20
7.6898935114
 30
0.0
 40
0.0477605053434186
100
AcDbArc
 50
291.3125518932
 51
68.6874481068
  0
LINE
  5
2D5
330
1F
100
AcDbEntity
  8
0
  6
Continuous
 62
     7
370
    25
100
AcDbLine
 10
7.1718055308
 20
7.3963947952
 30
0.0
 11
7.6031406674
 21
7.6453992693
 31
0.0
  0
LINE
  5
2D6
330
1F
100
AcDbEntity
  8
0
  6
Continuous
 62
     7
370
    25
100
AcDbLine
 10
6.586321116
 20
7.6453992693
 30
0.0
 11
7.0176562525
 21
7.3963947952
 31
0.0
  0
ARC
  5
2D7
330
1F
100
AcDbEntity
  8
0
  6
Continuous
 62
     7
370
    25
100
AcDbCircle
 10
6.6036799262
 20
7.6898935114
 30
0.0
 40
0.0477605053434191
100
AcDbArc
 50
111.3125518932
 51
248.6874481068
  0
LINE
  5
2D8
330
1F
100
AcDbEntity
  8
0
  6
Continuous
 62
     7
370
    25
100
AcDbLine
 10
6.8592308917
 20
7.8919352135
 30
0.0
 11
6.6659473857
 21
7.7803550206
 31
0.0
  0
LINE
  5
2D9
330
1F
100
AcDbEntity
  8
0
  6
Continuous
 62
     7
370
    25
100
AcDbLine
 10
6.5941618143
 20
7.7389140923
 30
0.0
 11
6.586321116
 21
7.7343877535
 31
0.0
  0
LINE
  5
2DA
330
1F
100
AcDbEntity
  8
0
  6
Continuous
 62
     7
370
    25
100
AcDbLine
 10
7.1718055308
 20
7.3457692649
 30
0.0
 11
7.6031406674
 21
7.594773739
 31
0.0
  0
ARC
  5
2DB
330
1F
100
AcDbEntity
  8
0
  6
Continuous
 62
     7
370
    25
100
AcDbCircle
 10
7.5805805983
 20
7.6446615753
 30
0.0
 40
0.0547517390421632
100
AcDbArc
 50
294.333235592
 51
354.3466234504
  0
ARC
  5
2DC
330
1F
100
AcDbEntity
  8
0
  6
Continuous
 62
     7
370
    25
100
AcDbCircle
 10
6.6075633661
 20
7.6437160183
 30
0.0
 40
0.0533533493879708
100
AcDbArc
 50
184.7822660226
 51
246.537874935
  0
LINE
  5
2DD
330
1F
100
AcDbEntity
  8
0
  6
Continuous
 62
     7
370
    25
100
AcDbLine
 10
6.586321116
 20
7.594773739
 30
0.0
 11
7.0176562525
 21
7.3457692649
 31
0.0
  0
LINE
  5
2DE
330
1F
100
AcDbEntity
  8
0
  6
Continuous
 62
     7
370
    25
100
AcDbLine
 10
7.0896734925
 20
7.9178889929
 30
0.0
 11
7.0896734925
 21
7.9323259148
 31
0.0
  0
LINE
  5
2DF
330
1F
100
AcDbEntity
  8
0
  6
Continuous
 62
     7
370
    25
100
AcDbLine
 10
7.6031406674
 20
7.594773739
 30
0.0
 11
7.6031406674
 21
7.6453992693
 31
0.0
  0
LINE
  5
2E0
330
1F
100
AcDbEntity
  8
0
  6
Continuous
 62
     7
370
    25
100
AcDbLine
 10
6.586321116
 20
7.6453992693
 30
0.0
 11
6.586321116
 21
7.594773739
 31
0.0
  0
LINE
  5
2E1
330
1F
100
AcDbEntity
  8
0
  6
Continuous
 62
     7
370
    25
100
AcDbLine
 10
7.1393826324
 20
7.920619309
 30
0.0
 11
7.1393826324
 21
7.9354347799
 31
0.0
  0
LWPOLYLINE
  5
2E2
330
1F
100
AcDbEntity
  8
0
  6
Continuous
 62
     7
370
    25
100
AcDbPolyline
 90
       24
 70
   128
 43
0.0
 10
6.9148535028
 20
7.828882995
 10
6.913817756
 20
7.8381827718
 10
6.9107873323
 20
7.8479886746
 10
6.9059869842
 20
7.8575734442
 10
6.8997727317
 20
7.8662262223
 10
6.8926054574
 20
7.8733052718
 10
6.8850167253
 20
7.878285572
 10
6.877569357
 20
7.8807977569
 10
6.8708156896
 20
7.8806555092
 10
6.8652566117
 20
7.8778693787
 10
6.8613044149
 20
7.8726460001
 10
6.8592522153
 20
7.8653727673
 10
6.8592522153
 20
7.8565891028
 10
6.8613044149
 20
7.8469464509
 10
6.8652566117
 20
7.8371599628
 10
6.8708156896
 20
7.8279554577
 10
6.877569357
 20
7.8200155916
 10
6.8850167253
 20
7.813929228
 10
6.8926054574
 20
7.8101477646
 10
6.8997727317
 20
7.8089516554
 10
6.9059869842
 20
7.8104296103
 10
6.9107873323
 20
7.814472016
 10
6.913817756
 20
7.820779066
 10
6.9148535028
 20
7.828882995
  0
LINE
  5
2E3
330
1F
100
AcDbEntity
  8
0
  6
Continuous
 62
     7
370
    25
100
AcDbLine
 10
7.2423801927
 20
7.9527607085
 30
0.0
 11
7.2423801927
 21
7.9745470545
 31
0.0
  0
LINE
  5
2E4
330
1F
100
AcDbEntity
  8
0
  6
Continuous
 62
     7
370
    25
100
AcDbLine
 10
7.2600971898
 20
7.9908525135
 30
0.0
 11
7.2600971898
 21
8.0878934444
 31
0.0
  0
LWPOLYLINE
  5
2E5
330
1F
100
AcDbEntity
  8
0
  6
Continuous
 62
     7
370
    25
100
AcDbPolyline
 90
       24
 70
   128
 43
0.0
 10
7.3724321342
 20
7.9266962492
 10
7.3720530246
 20
7.9345813229
 10
7.3709438125
 20
7.9402480384
 10
7.3691867632
 20
7.9432761211
 10
7.3669121889
 20
7.9434409922
 10
7.3642887844
 20
7.9407304238
 10
7.3615111157
 20
7.9353454465
 10
7.3587851897
 20
7.9276854393
 10
7.3563131758
 20
7.9183185099
 10
7.3542784121
 20
7.9079393607
 10
7.3528318077
 20
7.8973177657
 10
7.3520806505
 20
7.8872414799
 10
7.3520806505
 20
7.8784578155
 10
7.3528318077
 20
7.8716182165
 10
7.3542784121
 20
7.8672299448
 10
7.3563131758
 20
7.8656184584
 10
7.3587851897
 20
7.8669032739
 10
7.3615111157
 20
7.8709891024
 10
7.3642887844
 20
7.8775729167
 10
7.3669121889
 20
7.8861664253
 10
7.3691867632
 20
7.8961322872
 10
7.3709438125
 20
7.9067313798
 10
7.3720530246
 20
7.917177617
 10
7.3724321342
 20
7.9266962492
  0
LINE
  5
2E6
330
1F
100
AcDbEntity
  8
0
  6
Continuous
 62
     7
370
    25
100
AcDbLine
 10
6.8846027969
 20
8.0321526396
 30
0.0
 11
6.8846027969
 21
8.0465933182
 31
0.0
  0
LINE
  5
2E7
330
1F
100
AcDbEntity
  8
0
  6
Continuous
 62
     7
370
    25
100
AcDbLine
 10
6.9095586277
 20
8.0164865945
 30
0.0
 11
6.9095586277
 21
8.0457357957
 31
0.0
  0
LINE
  5
2E8
330
1F
100
AcDbEntity
  8
0
  6
Continuous
 62
     7
370
    25
100
AcDbLine
 10
6.9470815906
 20
7.9745470545
 30
0.0
 11
6.9470815906
 21
8.1041989033
 31
0.0
  0
LINE
  5
2E9
330
1F
100
AcDbEntity
  8
0
  6
Continuous
 62
     7
370
    25
100
AcDbLine
 10
6.9824369297
 20
7.9541368517
 30
0.0
 11
6.9824369297
 21
8.1246091061
 31
0.0
  0
LINE
  5
2EA
330
1F
100
AcDbEntity
  8
0
  6
Continuous
 62
     7
370
    25
100
AcDbLine
 10
7.1787799099
 20
8.0091675549
 30
0.0
 11
7.1787799099
 21
8.1348369108
 31
0.0
  0
LINE
  5
2EB
330
1F
100
AcDbEntity
  8
0
  6
Continuous
 62
     7
370
    25
100
AcDbLine
 10
7.1972574465
 20
8.0027958658
 30
0.0
 11
7.1972574465
 21
8.1455037656
 31
0.0
  0
LINE
  5
2EC
330
1F
100
AcDbEntity
  8
0
  6
Continuous
 62
     7
370
    25
100
AcDbLine
 10
6.9646160546
 20
7.9630478164
 30
0.0
 11
6.9646160546
 21
8.1348968783
 31
0.0
  0
SPLINE
  5
2ED
330
1F
100
AcDbEntity
  8
0
  6
Continuous
 62
     7
370
    25
100
AcDbSpline
210
0.0
220
0.0
230
1.0
 70
    11
 71
     3
 72
    22
 73
    18
 74
     0
 42
0.000000001
 43
0.00000001
 40
0.0
 40
0.0
 40
0.0
 40
0.0
 40
0.1250000000000001
 40
0.1250000000000001
 40
0.2500000000000002
 40
0.2500000000000002
 40
0.3750000000000003
 40
0.3750000000000003
 40
0.5000000000000002
 40
0.5000000000000002
 40
0.6250000000000002
 40
0.6250000000000002
 40
0.7500000000000002
 40
0.7500000000000002
 40
0.8750000000000001
 40
0.8750000000000001
 40
1.0
 40
1.0
 40
1.0
 40
1.0
 10
7.108873029083567
 20
7.956913077933388
 30
0.0
 10
7.105135961338335
 20
7.959072603117332
 30
0.0
 10
7.099940886821048
 20
7.960294795925157
 30
0.0
 10
7.089510580521388
 20
7.960295125188554
 30
0.0
 10
7.084287549995635
 20
7.959045122882412
 30
0.0
 10
7.0769008006693
 20
7.954790233629103
 30
0.0
 10
7.074732104468425
 20
7.951797835108748
 30
0.0
 10
7.074729679960959
 20
7.94570578084466
 30
0.0
 10
7.076897344067056
 20
7.942714893694322
 30
0.0
 10
7.084272832648414
 20
7.938459171278446
 30
0.0
 10
7.089493496008476
 20
7.937205225875289
 30
0.0
 10
7.099932065589734
 20
7.937201680081157
 30
0.0
 10
7.105122373879428
 20
7.938421620324663
 30
0.0
 10
7.112600452696203
 20
7.942737748625899
 30
0.0
 10
7.114726819863844
 20
7.945726687870279
 30
0.0
 10
7.114734951369377
 20
7.951753628804459
 30
0.0
 10
7.112610096828799
 20
7.954753552749445
 30
0.0
 10
7.108873029083567
 20
7.956913077933388
 30
0.0
  0
SPLINE
  5
2EE
330
1F
100
AcDbEntity
  8
0
  6
Continuous
 62
     7
370
    25
100
AcDbSpline
210
0.0
220
0.0
230
1.0
 70
    11
 71
     3
 72
    22
 73
    18
 74
     0
 42
0.000000001
 43
0.00000001
 40
0.0
 40
0.0
 40
0.0
 40
0.0
 40
0.1249999999999999
 40
0.1249999999999999
 40
0.2499999999999999
 40
0.2499999999999999
 40
0.3749999999999998
 40
0.3749999999999998
 40
0.4999999999999998
 40
0.4999999999999998
 40
0.6249999999999998
 40
0.6249999999999998
 40
0.7499999999999998
 40
0.7499999999999998
 40
0.8749999999999998
 40
0.8749999999999998
 40
1.0
 40
1.0
 40
1.0
 40
1.0
 10
7.165441569814291
 20
7.98957090257819
 30
0.0
 10
7.169178639945591
 20
7.987413530398463
 30
0.0
 10
7.174373709864427
 20
7.986194962962481
 30
0.0
 10
7.184804006826412
 20
7.986195433935632
 30
0.0
 10
7.190027028309707
 20
7.987436859690939
 30
0.0
 10
7.197413789994284
 20
7.991698297818128
 30
0.0
 10
7.19958248910288
 20
7.994688232771872
 30
0.0
 10
7.199584920695171
 20
8.000781333282465
 30
0.0
 10
7.197417258016838
 20
8.003764745433303
 30
0.0
 10
7.190041775846598
 20
8.008024732501358
 30
0.0
 10
7.184821118040525
 20
8.009279922898932
 30
0.0
 10
7.174382537668316
 20
8.009286464257128
 30
0.0
 10
7.169192212128889
 20
8.008060705571095
 30
0.0
 10
7.161714149840487
 20
8.003750458927103
 30
0.0
 10
7.159587775834461
 20
8.000761732078251
 30
0.0
 10
7.159579647157523
 20
7.994737932040767
 30
0.0
 10
7.161704499682991
 20
7.991728274757919
 30
0.0
 10
7.165441569814291
 20
7.98957090257819
 30
0.0
  0
SPLINE
  5
2EF
330
1F
100
AcDbEntity
  8
0
  6
Continuous
 62
     7
370
    25
100
AcDbSpline
210
0.0
220
0.0
230
1.0
 70
    11
 71
     3
 72
    22
 73
    18
 74
     0
 42
0.000000001
 43
0.00000001
 40
0.0
 40
0.0
 40
0.0
 40
0.0
 40
0.1250000000000002
 40
0.1250000000000002
 40
0.2500000000000003
 40
0.2500000000000003
 40
0.3750000000000004
 40
0.3750000000000004
 40
0.5000000000000003
 40
0.5000000000000003
 40
0.6250000000000003
 40
0.6250000000000003
 40
0.7500000000000002
 40
0.7500000000000002
 40
0.8750000000000002
 40
0.8750000000000002
 40
1.0
 40
1.0
 40
1.0
 40
1.0
 10
7.108873029083568
 20
8.054882051352113
 30
0.0
 10
7.105135961338336
 20
8.057041576536056
 30
0.0
 10
7.099940886821049
 20
8.05826376934388
 30
0.0
 10
7.089510580521389
 20
8.058264098607278
 30
0.0
 10
7.084287549995635
 20
8.05701409630114
 30
0.0
 10
7.076900800669302
 20
8.052759207047826
 30
0.0
 10
7.074732104468426
 20
8.049766808527473
 30
0.0
 10
7.074729679960959
 20
8.043674754263382
 30
0.0
 10
7.076897344067056
 20
8.040683867113044
 30
0.0
 10
7.084272832648414
 20
8.036428144697172
 30
0.0
 10
7.089493496008476
 20
8.035174199294016
 30
0.0
 10
7.099932065589734
 20
8.03517065349988
 30
0.0
 10
7.105122373879428
 20
8.036390593743386
 30
0.0
 10
7.112600452696204
 20
8.040706722044622
 30
0.0
 10
7.114726819863844
 20
8.043695661289007
 30
0.0
 10
7.114734951369378
 20
8.049722602223186
 30
0.0
 10
7.1126100968288
 20
8.052722526168168
 30
0.0
 10
7.108873029083568
 20
8.054882051352113
 30
0.0
  0
SPLINE
  5
2F0
330
1F
100
AcDbEntity
  8
0
  6
Continuous
 62
     7
370
    25
100
AcDbSpline
210
0.0
220
0.0
230
1.0
 70
    11
 71
     3
 72
    22
 73
    18
 74
     0
 42
0.000000001
 43
0.00000001
 40
0.0
 40
0.0
 40
0.0
 40
0.0
 40
0.1250000000000001
 40
0.1250000000000001
 40
0.2500000000000001
 40
0.2500000000000001
 40
0.3750000000000002
 40
0.3750000000000002
 40
0.5000000000000002
 40
0.5000000000000002
 40
0.6250000000000002
 40
0.6250000000000002
 40
0.7500000000000002
 40
0.7500000000000002
 40
0.8750000000000001
 40
0.8750000000000001
 40
1.0
 40
1.0
 40
1.0
 40
1.0
 10
6.995735942329519
 20
7.98957090257819
 30
0.0
 10
6.999473012460819
 20
7.987413530398462
 30
0.0
 10
7.004668082379657
 20
7.98619496296248
 30
0.0
 10
7.01509837934164
 20
7.986195433935632
 30
0.0
 10
7.020321400824936
 20
7.987436859690934
 30
0.0
 10
7.027708162509512
 20
7.991698297818136
 30
0.0
 10
7.029876861618108
 20
7.994688232771871
 30
0.0
 10
7.0298792932104
 20
8.000781333282466
 30
0.0
 10
7.027711630532066
 20
8.003764745433303
 30
0.0
 10
7.020336148361826
 20
8.008024732501353
 30
0.0
 10
7.015115490555754
 20
8.009279922898932
 30
0.0
 10
7.004676910183544
 20
8.00928646425713
 30
0.0
 10
6.999486584644117
 20
8.008060705571094
 30
0.0
 10
6.992008522355715
 20
8.003750458927104
 30
0.0
 10
6.989882148349689
 20
8.00076173207825
 30
0.0
 10
6.989874019672751
 20
7.994737932040766
 30
0.0
 10
6.99199887219822
 20
7.99172827475792
 30
0.0
 10
6.995735942329519
 20
7.98957090257819
 30
0.0
  0
LINE
  5
2F1
330
1F
100
AcDbEntity
  8
0
  6
Continuous
 62
     7
370
    25
100
AcDbLine
 10
7.5146713443
 20
6.1531637035
 30
0.0
 11
7.5147308917
 21
6.1490809994
 31
0.0
  0
LINE
  5
2F2
330
1F
100
AcDbEntity
  8
0
  6
Continuous
 62
     7
370
    25
100
AcDbLine
 10
6.6747308917
 20
6.1490809994
 30
0.0
 11
6.6747904391
 21
6.1531637035
 31
0.0
  0
LWPOLYLINE
  5
2F3
330
1F
100
AcDbEntity
  8
0
  6
Continuous
 62
     7
370
    25
100
AcDbPolyline
 90
        3
 70
   128
 43
0.0
 10
6.6768520783
 20
5.9696009475
 10
6.6752769808
 20
5.981578131
 10
6.6747308917
 20
5.9939382451
  0
LWPOLYLINE
  5
2F4
330
1F
100
AcDbEntity
  8
0
  6
Continuous
 62
     7
370
    25
100
AcDbPolyline
 90
        3
 70
   128
 43
0.0
 10
7.5147308917
 20
5.9939382451
 10
7.5136607798
 20
5.9766412869
 10
7.5119516024
 20
5.9660911964
  0
ARC
  5
2F5
330
1F
100
AcDbEntity
  8
0
  6
Continuous
 62
   144
370
    18
100
AcDbCircle
 10
7.0946810659
 20
6.0336418967
 30
0.0
 40
0.2993468251862163
100
AcDbArc
 50
248.4728876382
 51
291.8841198355
  0
LWPOLYLINE
  5
2F6
330
1F
100
AcDbEntity
  8
0
  6
Continuous
 62
     7
370
    25
100
AcDbPolyline
 90
       31
 70
   128
 43
0.0
 10
7.1396321723
 20
7.5239667901
 10
7.1293154704
 20
7.5287896251
 10
7.1174872565
 20
7.5322688088
 10
7.1046644802
 20
7.5342522843
 10
7.0914075585
 20
7.5346533641
 10
7.0782958823
 20
7.5334545191
 10
7.065902495
 20
7.5307081445
 10
7.0547690469
 20
7.5265342703
 10
7.0453821231
 20
7.5211153145
 10
7.0381519774
 20
7.5146881118
 10
7.0333946017
 20
7.5075335615
 10
7.0313179162
 20
7.499964352
 10
7.0320126821
 20
7.492311294
 10
7.0354485346
 20
7.4849088628
 10
7.0414753106
 20
7.4780805802
 10
7.0498296111
 20
7.472124875
 10
7.060146313
 20
7.46730204
 10
7.0719745269
 20
7.4638228563
 10
7.0847973032
 20
7.4618393808
 10
7.0980542249
 20
7.461438301
 10
7.1111659011
 20
7.4626371461
 10
7.1235592884
 20
7.4653835206
 10
7.1346927365
 20
7.4695573949
 10
7.1440796602
 20
7.4749763506
 10
7.151309806
 20
7.4814035534
 10
7.1560671817
 20
7.4885581036
 10
7.1581438671
 20
7.4961273131
 10
7.1574491013
 20
7.5037803712
 10
7.1540132488
 20
7.5111828023
 10
7.1479864728
 20
7.5180110849
 10
7.1396321723
 20
7.5239667901
  0
LWPOLYLINE
  5
2F7
330
1F
100
AcDbEntity
  8
0
  6
Continuous
 62
   144
370
    18
100
AcDbPolyline
 90
       19
 70
   128
 43
0.0
 10
7.0112308917
 20
7.4474203022
 10
7.0113199883
 20
7.4451940968
 10
7.0134488141
 20
7.4363840789
 10
7.0183456037
 20
7.4279498864
 10
7.0258436026
 20
7.4201787355
 10
7.0356874755
 20
7.4133352636
 10
7.0475420011
 20
7.4076525167
 10
7.0610034878
 20
7.4033240141
 10
7.0756135208
 20
7.4004971576
 10
7.0908745729
 20
7.3992682126
 10
7.1062669473
 20
7.3996790293
 10
7.1212664752
 20
7.4017156177
 10
7.1353623656
 20
7.4053086244
 10
7.1480746
 20
7.4103356937
 10
7.1589702783
 20
7.4166256349
 10
7.1676783613
 20
7.4239642516
 10
7.1739023058
 20
7.4321016359
 10
7.1774301627
 20
7.4407606791
 10
7.1782308917
 20
7.4474203022
  0
LINE
  5
2F8
330
1F
100
AcDbEntity
  8
0
  6
Continuous
 62
     7
370
    25
100
AcDbLine
 10
7.0629110865
 20
7.4837586906
 30
0.0
 11
7.0876598239
 21
7.4980458326
 31
0.0
  0
LINE
  5
2F9
330
1F
100
AcDbEntity
  8
0
  6
Continuous
 62
     7
370
    25
100
AcDbLine
 10
7.0699821543
 20
7.47967665
 30
0.0
 11
7.0947308917
 21
7.493963792
 31
0.0
  0
LINE
  5
2FA
330
1F
100
AcDbEntity
  8
0
  6
Continuous
 62
     7
370
    25
100
AcDbLine
 10
7.119479629
 20
7.47967665
 30
0.0
 11
7.0947308917
 21
7.493963792
 31
0.0
  0
LINE
  5
2FB
330
1F
100
AcDbEntity
  8
0
  6
Continuous
 62
     7
370
    25
100
AcDbLine
 10
7.1265506968
 20
7.4837586906
 30
0.0
 11
7.1018019595
 21
7.4980458326
 31
0.0
  0
LINE
  5
2FC
330
1F
100
AcDbEntity
  8
0
  6
Continuous
 62
     7
370
    25
100
AcDbLine
 10
7.1018019595
 20
7.4980458326
 30
0.0
 11
7.1265506968
 21
7.5123329745
 31
0.0
  0
LINE
  5
2FD
330
1F
100
AcDbEntity
  8
0
  6
Continuous
 62
     7
370
    25
100
AcDbLine
 10
7.1265506968
 20
7.5123329745
 30
0.0
 11
7.119479629
 21
7.5164150151
 31
0.0
  0
LINE
  5
2FE
330
1F
100
AcDbEntity
  8
0
  6
Continuous
 62
     7
370
    25
100
AcDbLine
 10
7.0947308917
 20
7.5021278731
 30
0.0
 11
7.119479629
 21
7.5164150151
 31
0.0
  0
LINE
  5
2FF
330
1F
100
AcDbEntity
  8
0
  6
Continuous
 62
     7
370
    25
100
AcDbLine
 10
7.0947308917
 20
7.5021278731
 30
0.0
 11
7.0699821543
 21
7.5164150151
 31
0.0
  0
LINE
  5
300
330
1F
100
AcDbEntity
  8
0
  6
Continuous
 62
     7
370
    25
100
AcDbLine
 10
7.0629110865
 20
7.5123329745
 30
0.0
 11
7.0699821543
 21
7.5164150151
 31
0.0
  0
LINE
  5
301
330
1F
100
AcDbEntity
  8
0
  6
Continuous
 62
     7
370
    25
100
AcDbLine
 10
7.0876598239
 20
7.4980458326
 30
0.0
 11
7.0629110865
 21
7.5123329745
 31
0.0
  0
LINE
  5
302
330
1F
100
AcDbEntity
  8
0
  6
Continuous
 62
   144
370
    18
100
AcDbLine
 10
7.119479629
 20
7.47967665
 30
0.0
 11
7.1265506968
 21
7.4837586906
 31
0.0
  0
LINE
  5
303
330
1F
100
AcDbEntity
  8
0
  6
Continuous
 62
   144
370
    18
100
AcDbLine
 10
7.0699821543
 20
7.47967665
 30
0.0
 11
7.0629110865
 21
7.4837586906
 31
0.0
  0
LINE
  5
304
330
1F
100
AcDbEntity
  8
0
  6
Continuous
 62
     7
370
    25
100
AcDbLine
 10
7.0876598239
 20
7.4980458326
 30
0.0
 11
7.0876598239
 21
7.4898817514
 31
0.0
  0
LINE
  5
305
330
1F
100
AcDbEntity
  8
0
  6
Continuous
 62
     7
370
    25
100
AcDbLine
 10
7.1018019595
 20
7.4980458326
 30
0.0
 11
7.1018019595
 21
7.4898817514
 31
0.0
  0
LINE
  5
306
330
1F
100
AcDbEntity
  8
0
  6
Continuous
 62
     7
370
    25
100
AcDbLine
 10
7.0699821543
 20
7.5164150151
 30
0.0
 11
7.0699821543
 21
7.508250934
 31
0.0
  0
LINE
  5
307
330
1F
100
AcDbEntity
  8
0
  6
Continuous
 62
     7
370
    25
100
AcDbLine
 10
7.0947308917
 20
7.5021278731
 30
0.0
 11
7.0947308917
 21
7.493963792
 31
0.0
  0
LINE
  5
308
330
1F
100
AcDbEntity
  8
0
  6
Continuous
 62
     7
370
    25
100
AcDbLine
 10
7.119479629
 20
7.5164150151
 30
0.0
 11
7.119479629
 21
7.508250934
 31
0.0
  0
ARC
  5
309
330
1F
100
AcDbEntity
  8
0
  6
Continuous
 62
     8
370
    25
100
AcDbCircle
 10
6.6315865001
 20
7.7273559784
 30
0.0
 40
0.0405121128784311
100
AcDbArc
 50
184.6863965829
 51
246.8599448201
  0
LWPOLYLINE
  5
30A
330
1F
100
AcDbEntity
  8
0
  6
Continuous
 62
     8
370
    25
100
AcDbPolyline
 90
       14
 70
   128
 43
0.0
 10
6.7582071953
 20
7.7238329162
 10
6.7574087346
 20
7.7175286024
 10
6.7538808777
 20
7.7088695592
 10
6.7476569333
 20
7.7007321749
 10
6.7389488502
 20
7.6933935582
 10
6.7280531719
 20
7.687103617
 10
6.7153409376
 20
7.6820765477
 10
6.7012450472
 20
7.678483541
 10
6.6862455193
 20
7.6764469526
 10
6.6708531449
 20
7.6760361359
 10
6.6555920927
 20
7.677265081
 10
6.6409820598
 20
7.6800919374
 10
6.6275205731
 20
7.68442044
 10
6.6156660474
 20
7.6901031869
  0
ARC
  5
30B
330
1F
100
AcDbEntity
  8
0
  6
Continuous
 62
     8
370
    25
100
AcDbCircle
 10
7.4716293562
 20
7.7273559784
 30
0.0
 40
0.0405121128784311
100
AcDbArc
 50
184.6863965829
 51
246.8599448201
  0
LWPOLYLINE
  5
30C
330
1F
100
AcDbEntity
  8
0
  6
Continuous
 62
     8
370
    25
100
AcDbPolyline
 90
       14
 70
   128
 43
0.0
 10
7.5982500513
 20
7.7238329162
 10
7.5974515907
 20
7.7175286024
 10
7.5939237338
 20
7.7088695592
 10
7.5876997893
 20
7.7007321749
 10
7.5789917063
 20
7.6933935582
 10
7.568096028
 20
7.687103617
 10
7.5553837937
 20
7.6820765477
 10
7.5412879032
 20
7.678483541
 10
7.5262883754
 20
7.6764469526
 10
7.5108960009
 20
7.6760361359
 10
7.4956349488
 20
7.677265081
 10
7.4810249158
 20
7.6800919374
 10
7.4675634291
 20
7.68442044
 10
7.4557089035
 20
7.6901031869
  0
LINE
  5
30D
330
1F
100
AcDbEntity
  8
0
  6
Continuous
 62
     8
370
    25
100
AcDbLine
 10
7.1718055308
 20
7.1563307349
 30
0.0
 11
7.1718055308
 21
7.3457692649
 31
0.0
  0
LINE
  5
30E
330
1F
100
AcDbEntity
  8
0
  6
Continuous
 62
     8
370
    25
100
AcDbLine
 10
7.0176562525
 20
7.1563307349
 30
0.0
 11
7.0176562525
 21
7.3457692649
 31
0.0
  0
LINE
  5
30F
330
1F
100
AcDbEntity
  8
0
  6
Continuous
 62
     8
370
    25
100
AcDbLine
 10
6.5976348245
 20
7.3988039442
 30
0.0
 11
6.5976348245
 21
7.5882424741
 31
0.0
  0
LINE
  5
310
330
1F
100
AcDbEntity
  8
0
  6
Continuous
 62
     8
370
    25
100
AcDbLine
 10
7.5918269589
 20
7.3988039442
 30
0.0
 11
7.5918269589
 21
7.5882424741
 31
0.0
  0
LWPOLYLINE
  5
311
330
1F
100
AcDbEntity
  8
0
  6
Continuous
 62
     8
370
    25
100
AcDbPolyline
 90
       41
 70
   128
 43
0.0
 10
7.5147308917
 20
6.1490809994
 10
7.5145342723
 20
6.1416628729
 10
7.5120900198
 20
6.1219339986
 10
7.5068683112
 20
6.1023857831
 10
7.498903896
 20
6.0831483166
 10
7.4882497762
 20
6.0643496212
 10
7.4749768531
 20
6.0461147991
 10
7.4591734559
 20
6.0285652002
 10
7.4409447535
 20
6.011817614
 10
7.420412055
 20
5.9959834929
 10
7.3977120021
 20
5.9811682105
 10
7.3729956599
 20
5.9674703601
 10
7.3464275116
 20
5.9549810984
 10
7.3181843638
 20
5.9437835396
 10
7.28845417
 20
5.9339522015
 10
7.2574347798
 20
5.9255525101
 10
7.225332622
 20
5.9186403638
 10
7.1923613313
 20
5.913261762
 10
7.1587403261
 20
5.9094524983
 10
7.1246933486
 20
5.9072379228
 10
7.090446976
 20
5.906632773
 10
7.0562291121
 20
5.9076410761
 10
7.0222674712
 20
5.9102561222
 10
6.9887880624
 20
5.9144605083
 10
6.9560136857
 20
5.9202262551
 10
6.924162449
 20
5.9275149925
 10
6.8934463173
 20
5.9362782152
 10
6.8640697011
 20
5.9464576052
 10
6.8362280971
 20
5.9579854205
 10
6.8101067866
 20
5.9707849453
 10
6.7858796025
 20
5.984771001
 10
6.7637077728
 20
5.9998505126
 10
6.7437388474
 20
6.0159231284
 10
6.7261057161
 20
6.032881888
 10
6.7109257245
 20
6.0506139334
 10
6.698299893
 20
6.0690012609
 10
6.6883122443
 20
6.0879215059
 10
6.6810292447
 20
6.1072487572
 10
6.6764993613
 20
6.1268543952
 10
6.6747527398
 20
6.1466079475
 10
6.6747308917
 20
6.1490809994
  0
ARC
  5
312
330
1F
100
AcDbEntity
  8
0
  6
Continuous
 62
     8
370
    25
100
AcDbCircle
 10
6.8930097475
 20
6.0240100804
 30
0.0
 40
0.2229001832692489
100
AcDbArc
 50
194.1284402502
 51
244.6984198038
  0
LWPOLYLINE
  5
313
330
1F
100
AcDbEntity
  8
0
  6
Continuous
 62
     8
370
    25
100
AcDbPolyline
 90
       29
 70
   128
 43
0.0
 10
7.5119516024
 20
5.9660911964
 10
7.5098246068
 20
5.9569863852
 10
7.5032260536
 20
5.937577392
 10
7.4939090324
 20
5.9185434711
 10
7.4819355466
 20
5.9000112898
 10
7.4673852777
 20
5.882104177
 10
7.4503550554
 20
5.8649413015
 10
7.4309582129
 20
5.8486368793
 10
7.409323833
 20
5.8332994137
 10
7.3855958891
 20
5.8190309731
 10
7.3599322866
 20
5.8059265115
 10
7.3325038125
 20
5.794073237
 10
7.3034929989
 20
5.7835500311
 10
7.2730929079
 20
5.7744269241
 10
7.2415058471
 20
5.7667646287
 10
7.2089420232
 20
5.7606141362
 10
7.1756181431
 20
5.7560163772
 10
7.1417559717
 20
5.7530019489
 10
7.1075808561
 20
5.751590912
 10
7.0733202261
 20
5.7517926566
 10
7.0392020805
 20
5.7536058401
 10
7.0054534701
 20
5.7570183961
 10
6.9722989861
 20
5.7620076147
 10
6.9399592663
 20
5.7685402933
 10
6.9086495261
 20
5.7765729581
 10
6.8785781267
 20
5.786052153
 10
6.8499451883
 20
5.7969147955
 10
6.8229412584
 20
5.8090885966
 10
6.7977460436
 20
5.8224925417
  0
LWPOLYLINE
  5
314
330
1F
100
AcDbEntity
  8
0
  6
Continuous
 62
     8
370
    25
100
AcDbPolyline
 90
       19
 70
   128
 43
0.0
 10
7.1782096529
 20
7.4828021628
 10
7.1774301627
 20
7.4750553932
 10
7.1739023058
 20
7.46639635
 10
7.1676783613
 20
7.4582589657
 10
7.1589702783
 20
7.450920349
 10
7.1480746
 20
7.4446304078
 10
7.1353623656
 20
7.4396033385
 10
7.1212664752
 20
7.4360103318
 10
7.1062669473
 20
7.4339737434
 10
7.0908745729
 20
7.4335629267
 10
7.0756135208
 20
7.4347918717
 10
7.0610034878
 20
7.4376187282
 10
7.0475420011
 20
7.4419472308
 10
7.0356874755
 20
7.4476299777
 10
7.0258436026
 20
7.4544734496
 10
7.0183456037
 20
7.4622446005
 10
7.0134488141
 20
7.470678793
 10
7.0113199883
 20
7.4794888109
 10
7.0112331601
 20
7.4820703257
  0
ENDSEC
  0
SECTION
  2
OBJECTS
  0
DICTIONARY
  5
C
330
0
100
AcDbDictionary
281
     1
  3
ACAD_GROUP
350
D
  3
ACAD_LAYOUT
350
1A
  3
ACAD_MLINESTYLE
350
17
  3
ACAD_PLOTSETTINGS
350
19
  3
ACAD_PLOTSTYLENAME
350
E
  3
ACAD_SCALELIST
350
47
  0
DICTIONARY
  5
D
102
{ACAD_REACTORS
330
C
102
}
330
C
100
AcDbDictionary
281
     1
  0
DICTIONARY
  5
1A
102
{ACAD_REACTORS
330
C
102
}
330
C
100
AcDbDictionary
281
     1
  3
Layout1
350
1E
  3
Layout2
350
26
  3
Model
350
22
  0
DICTIONARY
  5
17
102
{ACAD_REACTORS
330
C
102
}
330
C
100
AcDbDictionary
281
     1
  3
Standard
350
18
  0
DICTIONARY
  5
19
102
{ACAD_REACTORS
330
C
102
}
330
C
100
AcDbDictionary
281
     1
  0
ACDBDICTIONARYWDFLT
  5
E
102
{ACAD_REACTORS
330
C
102
}
330
C
100
AcDbDictionary
281
     1
  3
Normal
350
F
100
AcDbDictionaryWithDefault
340
F
  0
DICTIONARY
  5
47
102
{ACAD_REACTORS
330
C
102
}
330
C
100
AcDbDictionary
281
     1
  3
A0
350
48
  3
A1
350
49
  3
A2
350
4A
  3
A3
350
4B
  3
A4
350
4C
  3
A5
350
4D
  3
A6
350
4E
  3
A7
350
4F
  3
A8
350
50
  3
A9
350
51
  3
B0
350
52
  3
B1
350
53
  3
B2
350
54
  3
B3
350
55
  3
B4
350
56
  3
B5
350
57
  3
B6
350
58
  3
B7
350
59
  3
B8
350
5A
  3
B9
350
5B
  3
C0
350
5C
  3
C1
350
5D
  3
C2
350
5E
  3
C3
350
5F
  3
C4
350
60
  3
C5
350
61
  3
C6
350
62
  3
C7
350
63
  3
C8
350
64
  3
C9
350
65
  3
D0
350
66
  3
D1
350
67
  3
D2
350
68
  0
LAYOUT
  5
1E
102
{ACAD_REACTORS
330
1A
102
}
330
1A
100
AcDbPlotSettings
  1

  2
none_device
  4

  6

 40
0.0
 41
0.0
 42
0.0
 43
0.0
 44
0.0
 45
0.0
 46
0.0
 47
0.0
 48
0.0
 49
0.0
140
0.0
141
0.0
142
1.0
143
1.0
 70
   688
 72
     0
 73
     0
 74
     5
  7

 75
    16
147
1.0
148
0.0
149
0.0
100
AcDbLayout
  1
Layout1
 70
     1
 71
     1
 10
0.0
 20
0.0
 11
12.0
 21
9.0
 12
0.0
 22
0.0
 32
0.0
 14
1.0000000000E+20
 24
1.0000000000E+20
 34
1.0000000000E+20
 15
-1.0000000000E+20
 25
-1.0000000000E+20
 35
-1.0000000000E+20
146
0.0
 13
0.0
 23
0.0
 33
0.0
 16
1.0
 26
0.0
 36
0.0
 17
0.0
 27
1.0
 37
0.0
 76
     0
330
1B
  0
LAYOUT
  5
26
102
{ACAD_REACTORS
330
1A
102
}
330
1A
100
AcDbPlotSettings
  1

  2
none_device
  4

  6

 40
0.0
 41
0.0
 42
0.0
 43
0.0
 44
0.0
 45
0.0
 46
0.0
 47
0.0
 48
0.0
 49
0.0
140
0.0
141
0.0
142
1.0
143
1.0
 70
   688
 72
     0
 73
     0
 74
     5
  7

 75
    16
147
1.0
148
0.0
149
0.0
100
AcDbLayout
  1
Layout2
 70
     1
 71
     2
 10
0.0
 20
0.0
 11
0.0
 21
0.0
 12
0.0
 22
0.0
 32
0.0
 14
0.0
 24
0.0
 34
0.0
 15
0.0
 25
0.0
 35
0.0
146
0.0
 13
0.0
 23
0.0
 33
0.0
 16
1.0
 26
0.0
 36
0.0
 17
0.0
 27
1.0
 37
0.0
 76
     0
330
23
  0
LAYOUT
  5
22
102
{ACAD_REACTORS
330
1A
102
}
330
1A
100
AcDbPlotSettings
  1

  2
none_device
  4
Letter_(8.50_x_11.00_Inches)
  6

 40
6.35
 41
6.35
 42
6.35000508
 43
6.35000508
 44
215.9
 45
279.4
 46
0.0
 47
0.0
 48
0.0
 49
0.0
140
0.0
141
0.0
142
1.0
143
1.0
 70
  1712
 72
     0
 73
     0
 74
     0
  7

 75
     0
147
1.0
148
0.0
149
0.0
100
AcDbLayout
  1
Model
 70
     1
 71
     0
 10
0.0
 20
0.0
 11
8.5
 21
11.0
 12
0.0
 22
0.0
 32
0.0
 14
0.0
 24
0.0
 34
0.0
 15
8.5
 25
11.0
 35
0.0
146
0.0
 13
0.0
 23
0.0
 33
0.0
 16
1.0
 26
0.0
 36
0.0
 17
0.0
 27
1.0
 37
0.0
 76
     0
330
1F
331
29
  0
MLINESTYLE
  5
18
102
{ACAD_REACTORS
330
17
102
}
330
17
100
AcDbMlineStyle
  2
Standard
 70
     0
  3

 62
   256
 51
90.0
 52
90.0
 71
     2
 49
0.5
 62
   256
  6
BYLAYER
 49
-0.5
 62
   256
  6
BYLAYER
  0
ACDBPLACEHOLDER
  5
F
102
{ACAD_REACTORS
330
E
102
}
330
E
  0
SCALE
  5
48
102
{ACAD_REACTORS
330
47
102
}
330
47
100
AcDbScale
 70
     0
300
1:1
140
1.0
141
1.0
290
     1
  0
SCALE
  5
49
102
{ACAD_REACTORS
330
47
102
}
330
47
100
AcDbScale
 70
     0
300
1:2
140
1.0
141
2.0
290
     0
  0
SCALE
  5
4A
102
{ACAD_REACTORS
330
47
102
}
330
47
100
AcDbScale
 70
     0
300
1:4
140
1.0
141
4.0
290
     0
  0
SCALE
  5
4B
102
{ACAD_REACTORS
330
47
102
}
330
47
100
AcDbScale
 70
     0
300
1:5
140
1.0
141
5.0
290
     0
  0
SCALE
  5
4C
102
{ACAD_REACTORS
330
47
102
}
330
47
100
AcDbScale
 70
     0
300
1:8
140
1.0
141
8.0
290
     0
  0
SCALE
  5
4D
102
{ACAD_REACTORS
330
47
102
}
330
47
100
AcDbScale
 70
     0
300
1:10
140
1.0
141
10.0
290
     0
  0
SCALE
  5
4E
102
{ACAD_REACTORS
330
47
102
}
330
47
100
AcDbScale
 70
     0
300
1:16
140
1.0
141
16.0
290
     0
  0
SCALE
  5
4F
102
{ACAD_REACTORS
330
47
102
}
330
47
100
AcDbScale
 70
     0
300
1:20
140
1.0
141
20.0
290
     0
  0
SCALE
  5
50
102
{ACAD_REACTORS
330
47
102
}
330
47
100
AcDbScale
 70
     0
300
1:30
140
1.0
141
30.0
290
     0
  0
SCALE
  5
51
102
{ACAD_REACTORS
330
47
102
}
330
47
100
AcDbScale
 70
     0
300
1:40
140
1.0
141
40.0
290
     0
  0
SCALE
  5
52
102
{ACAD_REACTORS
330
47
102
}
330
47
100
AcDbScale
 70
     0
300
1:50
140
1.0
141
50.0
290
     0
  0
SCALE
  5
53
102
{ACAD_REACTORS
330
47
102
}
330
47
100
AcDbScale
 70
     0
300
1:100
140
1.0
141
100.0
290
     0
  0
SCALE
  5
54
102
{ACAD_REACTORS
330
47
102
}
330
47
100
AcDbScale
 70
     0
300
2:1
140
2.0
141
1.0
290
     0
  0
SCALE
  5
55
102
{ACAD_REACTORS
330
47
102
}
330
47
100
AcDbScale
 70
     0
300
4:1
140
4.0
141
1.0
290
     0
  0
SCALE
  5
56
102
{ACAD_REACTORS
330
47
102
}
330
47
100
AcDbScale
 70
     0
300
8:1
140
8.0
141
1.0
290
     0
  0
SCALE
  5
57
102
{ACAD_REACTORS
330
47
102
}
330
47
100
AcDbScale
 70
     0
300
10:1
140
10.0
141
1.0
290
     0
  0
SCALE
  5
58
102
{ACAD_REACTORS
330
47
102
}
330
47
100
AcDbScale
 70
     0
300
100:1
140
100.0
141
1.0
290
     0
  0
SCALE
  5
59
102
{ACAD_REACTORS
330
47
102
}
330
47
100
AcDbScale
 70
     0
300
1/128" = 1'-0"
140
0.0078125
141
12.0
290
     0
  0
SCALE
  5
5A
102
{ACAD_REACTORS
330
47
102
}
330
47
100
AcDbScale
 70
     0
300
1/64" = 1'-0"
140
0.015625
141
12.0
290
     0
  0
SCALE
  5
5B
102
{ACAD_REACTORS
330
47
102
}
330
47
100
AcDbScale
 70
     0
300
1/32" = 1'-0"
140
0.03125
141
12.0
290
     0
  0
SCALE
  5
5C
102
{ACAD_REACTORS
330
47
102
}
330
47
100
AcDbScale
 70
     0
300
1/16" = 1'-0"
140
0.0625
141
12.0
290
     0
  0
SCALE
  5
5D
102
{ACAD_REACTORS
330
47
102
}
330
47
100
AcDbScale
 70
     0
300
3/32" = 1'-0"
140
0.09375
141
12.0
290
     0
  0
SCALE
  5
5E
102
{ACAD_REACTORS
330
47
102
}
330
47
100
AcDbScale
 70
     0
300
1/8" = 1'-0"
140
0.125
141
12.0
290
     0
  0
SCALE
  5
5F
102
{ACAD_REACTORS
330
47
102
}
330
47
100
AcDbScale
 70
     0
300
3/16" = 1'-0"
140
0.1875
141
12.0
290
     0
  0
SCALE
  5
60
102
{ACAD_REACTORS
330
47
102
}
330
47
100
AcDbScale
 70
     0
300
1/4" = 1'-0"
140
0.25
141
12.0
290
     0
  0
SCALE
  5
61
102
{ACAD_REACTORS
330
47
102
}
330
47
100
AcDbScale
 70
     0
300
3/8" = 1'-0"
140
0.375
141
12.0
290
     0
  0
SCALE
  5
62
102
{ACAD_REACTORS
330
47
102
}
330
47
100
AcDbScale
 70
     0
300
1/2" = 1'-0"
140
0.5
141
12.0
290
     0
  0
SCALE
  5
63
102
{ACAD_REACTORS
330
47
102
}
330
47
100
AcDbScale
 70
     0
300
3/4" = 1'-0"
140
0.75
141
12.0
290
     0
  0
SCALE
  5
64
102
{ACAD_REACTORS
330
47
102
}
330
47
100
AcDbScale
 70
     0
300
1" = 1'-0"
140
1.0
141
12.0
290
     0
  0
SCALE
  5
65
102
{ACAD_REACTORS
330
47
102
}
330
47
100
AcDbScale
 70
     0
300
1-1/2" = 1'-0"
140
1.5
141
12.0
290
     0
  0
SCALE
  5
66
102
{ACAD_REACTORS
330
47
102
}
330
47
100
AcDbScale
 70
     0
300
3" = 1'-0"
140
3.0
141
12.0
290
     0
  0
SCALE
  5
67
102
{ACAD_REACTORS
330
47
102
}
330
47
100
AcDbScale
 70
     0
300
6" = 1'-0"
140
6.0
141
12.0
290
     0
  0
SCALE
  5
68
102
{ACAD_REACTORS
330
47
102
}
330
47
100
AcDbScale
 70
     0
300
1'-0" = 1'-0"
140
12.0
141
12.0
290
     0
  0
ENDSEC
  0
EOF
