  0
SECTION
  2
HEADER
  9
$ACADVER
  1
AC1015
  9
$ACADMAINTVER
 70
     6
  9
$DWGCODEPAGE
  3
ANSI_1252
  9
$INSBASE
 10
0.0
 20
0.0
 30
0.0
  9
$EXTMIN
 10
0.0
 20
0.0
 30
0.0
  9
$EXTMAX
 10
8.5
 20
11.0
 30
0.0
  9
$LIMMIN
 10
0.0
 20
0.0
  9
$LIMMAX
 10
8.5
 20
11.0
  9
$ORTHOMODE
 70
     0
  9
$REGENMODE
 70
     1
  9
$FILLMODE
 70
     1
  9
$QTEXTMODE
 70
     0
  9
$MIRRTEXT
 70
     1
  9
$LTSCALE
 40
1.0
  9
$ATTMODE
 70
     1
  9
$TEXTSIZE
 40
0.09
  9
$TRACEWID
 40
0.05
  9
$TEXTSTYLE
  7
Standard
  9
$CLAYER
  8
0
  9
$CELTYPE
  6
ByLayer
  9
$CECOLOR
 62
   256
  9
$CELTSCALE
 40
1.0
  9
$DISPSILH
 70
     0
  9
$DIMSCALE
 40
1.0
  9
$DIMASZ
 40
0.13
  9
$DIMEXO
 40
0.05
  9
$DIMDLI
 40
0.38
  9
$DIMRND
 40
0.0
  9
$DIMDLE
 40
0.0
  9
$DIMEXE
 40
0.125
  9
$DIMTP
 40
0.0
  9
$DIMTM
 40
0.0
  9
$DIMTXT
 40
0.09
  9
$DIMCEN
 40
0.09
  9
$DIMTSZ
 40
0.0
  9
$DIMTOL
 70
     0
  9
$DIMLIM
 70
     0
  9
$DIMTIH
 70
     1
  9
$DIMTOH
 70
     1
  9
$DIMSE1
 70
     0
  9
$DIMSE2
 70
     0
  9
$DIMTAD
 70
     1
  9
$DIMZIN
 70
     1
  9
$DIMBLK
  1

  9
$DIMASO
 70
     1
  9
$DIMSHO
 70
     1
  9
$DIMPOST
  1

  9
$DIMAPOST
  1

  9
$DIMALT
 70
     0
  9
$DIMALTD
 70
     2
  9
$DIMALTF
 40
25.4
  9
$DIMLFAC
 40
1.0
  9
$DIMTOFL
 70
     0
  9
$DIMTVP
 40
0.0
  9
$DIMTIX
 70
     0
  9
$DIMSOXD
 70
     0
  9
$DIMSAH
 70
     0
  9
$DIMBLK1
  1

  9
$DIMBLK2
  1

  9
$DIMSTYLE
  2
Standard
  9
$DIMCLRD
 70
     0
  9
$DIMCLRE
 70
     0
  9
$DIMCLRT
 70
     0
  9
$DIMTFAC
 40
1.0
  9
$DIMGAP
 40
0.06
  9
$DIMJUST
 70
     0
  9
$DIMSD1
 70
     0
  9
$DIMSD2
 70
     0
  9
$DIMTOLJ
 70
     1
  9
$DIMTZIN
 70
     1
  9
$DIMALTZ
 70
     0
  9
$DIMALTTZ
 70
     0
  9
$DIMUPT
 70
     0
  9
$DIMDEC
 70
     3
  9
$DIMTDEC
 70
     3
  9
$DIMALTU
 70
     2
  9
$DIMALTTD
 70
     2
  9
$DIMTXSTY
  7
Standard
  9
$DIMAUNIT
 70
     0
  9
$DIMADEC
 70
     3
  9
$DIMALTRND
 40
0.0
  9
$DIMAZIN
 70
     0
  9
$DIMDSEP
 70
    46
  9
$DIMATFIT
 70
     3
  9
$DIMFRAC
 70
     0
  9
$DIMLDRBLK
  1

  9
$DIMLUNIT
 70
     2
  9
$DIMLWD
 70
    -2
  9
$DIMLWE
 70
    -2
  9
$DIMTMOVE
 70
     0
  9
$LUNITS
 70
     2
  9
$LUPREC
 70
     3
  9
$SKETCHINC
 40
0.1
  9
$FILLETRAD
 40
0.5
  9
$AUNITS
 70
     0
  9
$AUPREC
 70
     2
  9
$MENU
  1
.
  9
$ELEVATION
 40
0.0
  9
$PELEVATION
 40
0.0
  9
$THICKNESS
 40
0.0
  9
$LIMCHECK
 70
     0
  9
$CHAMFERA
 40
0.0
  9
$CHAMFERB
 40
0.0
  9
$CHAMFERC
 40
0.0
  9
$CHAMFERD
 40
0.0
  9
$SKPOLY
 70
     0
  9
$TDCREATE
 40
2457952.378870127
  9
$TDUCREATE
 40
2457952.545536794
  9
$TDUPDATE
 40
2457952.378870903
  9
$TDUUPDATE
 40
2457952.54553757
  9
$TDINDWG
 40
0.0000000116
  9
$TDUSRTIMER
 40
0.0000000116
  9
$USRTIMER
 70
     1
  9
$ANGBASE
 50
0.0
  9
$ANGDIR
 70
     0
  9
$PDMODE
 70
     0
  9
$PDSIZE
 40
-1.0
  9
$PLINEWID
 40
0.0
  9
$SPLFRAME
 70
     0
  9
$SPLINETYPE
 70
     6
  9
$SPLINESEGS
 70
     8
  9
$HANDSEED
  5
335
  9
$SURFTAB1
 70
     6
  9
$SURFTAB2
 70
     6
  9
$SURFTYPE
 70
     6
  9
$SURFU
 70
     6
  9
$SURFV
 70
     6
  9
$UCSBASE
  2

  9
$UCSNAME
  2

  9
$UCSORG
 10
0.0
 20
0.0
 30
0.0
  9
$UCSXDIR
 10
1.0
 20
0.0
 30
0.0
  9
$UCSYDIR
 10
0.0
 20
1.0
 30
0.0
  9
$UCSORTHOREF
  2

  9
$UCSORTHOVIEW
 70
     0
  9
$UCSORGTOP
 10
0.0
 20
0.0
 30
0.0
  9
$UCSORGBOTTOM
 10
0.0
 20
0.0
 30
0.0
  9
$UCSORGLEFT
 10
0.0
 20
0.0
 30
0.0
  9
$UCSORGRIGHT
 10
0.0
 20
0.0
 30
0.0
  9
$UCSORGFRONT
 10
0.0
 20
0.0
 30
0.0
  9
$UCSORGBACK
 10
0.0
 20
0.0
 30
0.0
  9
$PUCSBASE
  2

  9
$PUCSNAME
  2

  9
$PUCSORG
 10
0.0
 20
0.0
 30
0.0
  9
$PUCSXDIR
 10
1.0
 20
0.0
 30
0.0
  9
$PUCSYDIR
 10
0.0
 20
1.0
 30
0.0
  9
$PUCSORTHOREF
  2

  9
$PUCSORTHOVIEW
 70
     0
  9
$PUCSORGTOP
 10
0.0
 20
0.0
 30
0.0
  9
$PUCSORGBOTTOM
 10
0.0
 20
0.0
 30
0.0
  9
$PUCSORGLEFT
 10
0.0
 20
0.0
 30
0.0
  9
$PUCSORGRIGHT
 10
0.0
 20
0.0
 30
0.0
  9
$PUCSORGFRONT
 10
0.0
 20
0.0
 30
0.0
  9
$PUCSORGBACK
 10
0.0
 20
0.0
 30
0.0
  9
$USERI1
 70
     0
  9
$USERI2
 70
     0
  9
$USERI3
 70
     0
  9
$USERI4
 70
     0
  9
$USERI5
 70
     0
  9
$USERR1
 40
0.0
  9
$USERR2
 40
0.0
  9
$USERR3
 40
0.0
  9
$USERR4
 40
0.0
  9
$USERR5
 40
0.0
  9
$WORLDVIEW
 70
     1
  9
$SHADEDGE
 70
     3
  9
$SHADEDIF
 70
    70
  9
$TILEMODE
 70
     1
  9
$MAXACTVP
 70
    64
  9
$PINSBASE
 10
0.0
 20
0.0
 30
0.0
  9
$PLIMCHECK
 70
     0
  9
$PEXTMIN
 10
1.0000000000E+20
 20
1.0000000000E+20
 30
1.0000000000E+20
  9
$PEXTMAX
 10
-1.0000000000E+20
 20
-1.0000000000E+20
 30
-1.0000000000E+20
  9
$PLIMMIN
 10
0.0
 20
0.0
  9
$PLIMMAX
 10
12.0
 20
9.0
  9
$UNITMODE
 70
     0
  9
$VISRETAIN
 70
     1
  9
$PLINEGEN
 70
     0
  9
$PSLTSCALE
 70
     1
  9
$TREEDEPTH
 70
  3020
  9
$CMLSTYLE
  2
Standard
  9
$CMLJUST
 70
     0
  9
$CMLSCALE
 40
1.0
  9
$PROXYGRAPHICS
 70
     1
  9
$MEASUREMENT
 70
     0
  9
$CELWEIGHT
370
    -1
  9
$ENDCAPS
280
     0
  9
$JOINSTYLE
280
     0
  9
$LWDISPLAY
290
     1
  9
$INSUNITS
 70
     1
  9
$HYPERLINKBASE
  1

  9
$STYLESHEET
  1

  9
$XEDIT
290
     1
  9
$CEPSNTYPE
380
     0
  9
$PSTYLEMODE
290
     1
  9
$FINGERPRINTGUID
  2
{4F6F7CAE-BE9A-4F50-B8F0-D2A1CF18480F}
  9
$VERSIONGUID
  2
{FAEB1C32-E019-11D5-929B-00C0DF256EC4}
  9
$EXTNAMES
290
     1
  9
$PSVPSCALE
 40
0.0
  9
$OLESTARTUP
290
     0
  0
ENDSEC
  0
SECTION
  2
CLASSES
  0
CLASS
  1
ACDBDICTIONARYWDFLT
  2
AcDbDictionaryWithDefault
  3
ObjectDBX Classes
 90
        0
280
     0
281
     0
  0
CLASS
  1
VISUALSTYLE
  2
AcDbVisualStyle
  3
ObjectDBX Classes
 90
     4095
280
     0
281
     0
  0
CLASS
  1
MATERIAL
  2
AcDbMaterial
  3
ObjectDBX Classes
 90
     1153
280
     0
281
     0
  0
CLASS
  1
SCALE
  2
AcDbScale
  3
ObjectDBX Classes
 90
     1153
280
     0
281
     0
  0
CLASS
  1
SUN
  2
AcDbSun
  3
SCENEOE
 90
     1153
280
     0
281
     0
  0
CLASS
  1
ACDBPLACEHOLDER
  2
AcDbPlaceHolder
  3
ObjectDBX Classes
 90
        0
280
     0
281
     0
  0
CLASS
  1
LAYOUT
  2
AcDbLayout
  3
ObjectDBX Classes
 90
        0
280
     0
281
     0
  0
ENDSEC
  0
SECTION
  2
TABLES
  0
TABLE
  2
VPORT
  5
8
330
0
100
AcDbSymbolTable
 70
     1
  0
VPORT
  5
29
330
8
100
AcDbSymbolTableRecord
100
AcDbViewportTableRecord
  2
*Active
 70
     0
 10
0.0
 20
0.0
 11
1.0
 21
1.0
 12
4.25
 22
5.5
 13
0.0
 23
0.0
 14
0.5
 24
0.5
 15
0.5
 25
0.5
 16
0.0
 26
0.0
 36
1.0
 17
0.0
 27
0.0
 37
0.0
 40
11.0
 41
0.7727272727
 42
50.0
 43
0.0
 44
0.0
 50
0.0
 51
0.0
 71
     0
 72
  2000
 73
     1
 74
     3
 75
     0
 76
     0
 77
     0
 78
     0
281
     0
 65
     1
110
0.0
120
0.0
130
0.0
111
1.0
121
0.0
131
0.0
112
0.0
122
1.0
132
0.0
 79
     0
146
0.0
  0
ENDTAB
  0
TABLE
  2
LTYPE
  5
5
330
0
100
AcDbSymbolTable
 70
     6
  0
LTYPE
  5
14
330
5
100
AcDbSymbolTableRecord
100
AcDbLinetypeTableRecord
  2
ByBlock
 70
     0
  3

 72
    65
 73
     0
 40
0.0
  0
LTYPE
  5
15
330
5
100
AcDbSymbolTableRecord
100
AcDbLinetypeTableRecord
  2
ByLayer
 70
     0
  3

 72
    65
 73
     0
 40
0.0
  0
LTYPE
  5
16
330
5
100
AcDbSymbolTableRecord
100
AcDbLinetypeTableRecord
  2
Continuous
 70
     0
  3
Solid line
 72
    65
 73
     0
 40
0.0
  0
LTYPE
  5
6A
330
5
100
AcDbSymbolTableRecord
100
AcDbLinetypeTableRecord
  2
HIDDEN
 70
     0
  3
Hidden __ __ __ __ __ __ __ __ __ __ __ __ __ __
 72
    65
 73
     2
 40
0.075
 49
0.05
 74
     0
 49
-0.025
 74
     0
  0
LTYPE
  5
6B
330
5
100
AcDbSymbolTableRecord
100
AcDbLinetypeTableRecord
  2
PHANTOM
 70
     0
  3
Phantom ______  __  __  ______  __  __  ______
 72
    65
 73
     6
 40
0.5
 49
0.25
 74
     0
 49
-0.05
 74
     0
 49
0.05
 74
     0
 49
-0.05
 74
     0
 49
0.05
 74
     0
 49
-0.05
 74
     0
  0
LTYPE
  5
6C
330
5
100
AcDbSymbolTableRecord
100
AcDbLinetypeTableRecord
  2
CENTER
 70
     0
  3
Center ____ _ ____ _ ____ _ ____ _ ____ _ ____
 72
    65
 73
     4
 40
0.4
 49
0.25
 74
     0
 49
-0.05
 74
     0
 49
0.05
 74
     0
 49
-0.05
 74
     0
  0
LTYPE
  5
6D
330
5
100
AcDbSymbolTableRecord
100
AcDbLinetypeTableRecord
  2
CENTERX2
 70
     0
  3
Center (2x) ________  __  ________  __  _____
 72
    65
 73
     4
 40
0.8
 49
0.5
 74
     0
 49
-0.1
 74
     0
 49
0.1
 74
     0
 49
-0.1
 74
     0
  0
LTYPE
  5
6E
330
5
100
AcDbSymbolTableRecord
100
AcDbLinetypeTableRecord
  2
DOT2
 70
     0
  3
Dot (.5x) ........................................
 72
    65
 73
     2
 40
0.025
 49
0.0
 74
     0
 49
-0.025
 74
     0
  0
ENDTAB
  0
TABLE
  2
LAYER
  5
2
330
0
100
AcDbSymbolTable
 70
     4
  0
LAYER
  5
10
330
2
100
AcDbSymbolTableRecord
100
AcDbLayerTableRecord
  2
0
 70
     0
 62
     7
  6
Continuous
370
    -3
390
F
  0
LAYER
  5
6F
330
2
100
AcDbSymbolTableRecord
100
AcDbLayerTableRecord
  2
SLD-0
 70
     0
 62
   179
  6
Continuous
370
    -3
390
F
  0
LAYER
  5
70
330
2
100
AcDbSymbolTableRecord
100
AcDbLayerTableRecord
  2
3
 70
     0
 62
     7
  6
Continuous
370
    -3
390
F
  0
LAYER
  5
71
330
2
100
AcDbSymbolTableRecord
100
AcDbLayerTableRecord
  2
1
 70
     0
 62
   179
  6
Continuous
370
    -3
390
F
  0
ENDTAB
  0
TABLE
  2
STYLE
  5
3
330
0
100
AcDbSymbolTable
 70
     1
  0
STYLE
  5
11
330
3
100
AcDbSymbolTableRecord
100
AcDbTextStyleTableRecord
  2
Standard
 70
     0
 40
0.0
 41
1.0
 50
0.0
 71
     0
 42
0.09
  3
txt
  4

  0
ENDTAB
  0
TABLE
  2
VIEW
  5
6
330
0
100
AcDbSymbolTable
 70
     0
  0
ENDTAB
  0
TABLE
  2
UCS
  5
7
330
0
100
AcDbSymbolTable
 70
     0
  0
ENDTAB
  0
TABLE
  2
APPID
  5
9
330
0
100
AcDbSymbolTable
 70
     1
  0
APPID
  5
12
330
9
100
AcDbSymbolTableRecord
100
AcDbRegAppTableRecord
  2
ACAD
 70
     0
  0
ENDTAB
  0
TABLE
  2
DIMSTYLE
  5
A
330
0
100
AcDbSymbolTable
 70
     1
100
AcDbDimStyleTable
  0
DIMSTYLE
105
27
330
A
100
AcDbSymbolTableRecord
100
AcDbDimStyleTableRecord
  2
Standard
 70
     0
178
     0
340
11
  0
ENDTAB
  0
TABLE
  2
BLOCK_RECORD
  5
1
330
0
100
AcDbSymbolTable
 70
     1
  0
BLOCK_RECORD
  5
1F
330
1
100
AcDbSymbolTableRecord
100
AcDbBlockTableRecord
  2
*Model_Space
340
22
  0
BLOCK_RECORD
  5
1B
330
1
100
AcDbSymbolTableRecord
100
AcDbBlockTableRecord
  2
*Paper_Space
340
1E
  0
BLOCK_RECORD
  5
23
330
1
100
AcDbSymbolTableRecord
100
AcDbBlockTableRecord
  2
*Paper_Space0
340
26
  0
ENDTAB
  0
ENDSEC
  0
SECTION
  2
BLOCKS
  0
BLOCK
  5
20
330
1F
100
AcDbEntity
  8
0
100
AcDbBlockBegin
  2
*Model_Space
 70
     0
 10
0.0
 20
0.0
 30
0.0
  3
*Model_Space
  1
*Model_Space
  0
ENDBLK
  5
21
330
1F
100
AcDbEntity
  8
0
100
AcDbBlockEnd
  0
BLOCK
  5
1C
330
1B
100
AcDbEntity
 67
     1
  8
0
100
AcDbBlockBegin
  2
*Paper_Space
 70
     0
 10
0.0
 20
0.0
 30
0.0
  3
*Paper_Space
  1
*Paper_Space
  0
ENDBLK
  5
1D
330
1B
100
AcDbEntity
 67
     1
  8
0
100
AcDbBlockEnd
  0
BLOCK
  5
24
330
23
100
AcDbEntity
  8
0
100
AcDbBlockBegin
  2
*Paper_Space0
 70
     0
 10
0.0
 20
0.0
 30
0.0
  3
*Paper_Space0
  1
*Paper_Space0
  0
ENDBLK
  5
25
330
23
100
AcDbEntity
  8
0
100
AcDbBlockEnd
  0
ENDSEC
  0
SECTION
  2
ENTITIES
  0
LINE
  5
72
330
1F
100
AcDbEntity
  8
0
  6
Continuous
 62
     7
370
    15
100
AcDbLine
 10
2.895897278
 20
4.1922769372
 30
0.0
 11
2.895897278
 21
5.7672769372
 31
0.0
  0
LINE
  5
73
330
1F
100
AcDbEntity
  8
0
  6
Continuous
 62
     7
370
    15
100
AcDbLine
 10
2.055897278
 20
5.7672769372
 30
0.0
 11
2.055897278
 21
4.1922769372
 31
0.0
  0
LINE
  5
74
330
1F
100
AcDbEntity
  8
0
  6
Continuous
 62
     7
370
    15
100
AcDbLine
 10
2.788397278
 20
3.3572769372
 30
0.0
 11
2.788397278
 21
3.4822769372
 31
0.0
  0
LINE
  5
75
330
1F
100
AcDbEntity
  8
0
  6
Continuous
 62
     7
370
    15
100
AcDbLine
 10
2.163397278
 20
3.4822769372
 30
0.0
 11
2.163397278
 21
3.3572769372
 31
0.0
  0
LINE
  5
76
330
1F
100
AcDbEntity
  8
0
  6
Continuous
 62
     7
370
    15
100
AcDbLine
 10
2.788397278
 20
3.4822769372
 30
0.0
 11
2.663397278
 21
3.6072769372
 31
0.0
  0
LINE
  5
77
330
1F
100
AcDbEntity
  8
0
  6
Continuous
 62
     7
370
    15
100
AcDbLine
 10
2.288397278
 20
3.6072769372
 30
0.0
 11
2.163397278
 21
3.4822769372
 31
0.0
  0
LINE
  5
78
330
1F
100
AcDbEntity
  8
0
  6
Continuous
 62
     7
370
    15
100
AcDbLine
 10
2.663397278
 20
3.6072769372
 30
0.0
 11
2.663397278
 21
3.8072769372
 31
0.0
  0
LINE
  5
79
330
1F
100
AcDbEntity
  8
0
  6
Continuous
 62
     7
370
    15
100
AcDbLine
 10
2.288397278
 20
3.8072769372
 30
0.0
 11
2.288397278
 21
3.6072769372
 31
0.0
  0
LINE
  5
7A
330
1F
100
AcDbEntity
  8
0
  6
Continuous
 62
     7
370
    15
100
AcDbLine
 10
2.262397278
 20
6.0692769372
 30
0.0
 11
2.262397278
 21
6.1112769372
 31
0.0
  0
LINE
  5
7B
330
1F
100
AcDbEntity
  8
0
  6
Continuous
 62
     7
370
    15
100
AcDbLine
 10
2.095397278
 20
6.1112769372
 30
0.0
 11
2.095397278
 21
6.0692769372
 31
0.0
  0
ARC
  5
7C
330
1F
100
AcDbEntity
  8
0
  6
Continuous
 62
     7
370
    15
100
AcDbCircle
 10
2.115397278
 20
6.1112769372
 30
0.0
 40
0.0200000000000005
100
AcDbArc
 50
90.0
 51
180.0
  0
ARC
  5
7D
330
1F
100
AcDbEntity
  8
0
  6
Continuous
 62
     7
370
    15
100
AcDbCircle
 10
2.242397278
 20
6.1112769372
 30
0.0
 40
0.0200000000000005
100
AcDbArc
 50
0.0
 51
90.0
  0
LINE
  5
7E
330
1F
100
AcDbEntity
  8
0
  6
Continuous
 62
     7
370
    15
100
AcDbLine
 10
2.055897278
 20
6.0072769372
 30
0.0
 11
2.055897278
 21
5.7672769372
 31
0.0
  0
LINE
  5
7F
330
1F
100
AcDbEntity
  8
0
  6
Continuous
 62
     7
370
    15
100
AcDbLine
 10
2.895897278
 20
5.7672769372
 30
0.0
 11
2.895897278
 21
6.0072769372
 31
0.0
  0
LINE
  5
80
330
1F
100
AcDbEntity
  8
0
  6
Continuous
 62
     7
370
    15
100
AcDbLine
 10
2.711397278
 20
6.1312769372
 30
0.0
 11
2.711397278
 21
6.4972769372
 31
0.0
  0
LINE
  5
81
330
1F
100
AcDbEntity
  8
0
  6
Continuous
 62
     7
370
    15
100
AcDbLine
 10
2.240397278
 20
6.4972769372
 30
0.0
 11
2.240397278
 21
6.1312769372
 31
0.0
  0
LINE
  5
82
330
1F
100
AcDbEntity
  8
0
  6
Continuous
 62
     7
370
    15
100
AcDbLine
 10
2.7255099253
 20
6.4322769372
 30
0.0
 11
2.711397278
 21
6.4322769372
 31
0.0
  0
LINE
  5
83
330
1F
100
AcDbEntity
  8
0
  6
Continuous
 62
     7
370
    15
100
AcDbLine
 10
2.711397278
 20
6.3532769372
 30
0.0
 11
2.7255099253
 21
6.3532769372
 31
0.0
  0
LINE
  5
84
330
1F
100
AcDbEntity
  8
0
  6
Continuous
 62
     7
370
    15
100
AcDbLine
 10
2.2396696738
 20
6.3532769372
 30
0.0
 11
2.240397278
 21
6.3532769372
 31
0.0
  0
LINE
  5
85
330
1F
100
AcDbEntity
  8
0
  6
Continuous
 62
     7
370
    15
100
AcDbLine
 10
2.240397278
 20
6.4322769372
 30
0.0
 11
2.2396696738
 21
6.4322769372
 31
0.0
  0
ARC
  5
86
330
1F
100
AcDbEntity
  8
0
  6
Continuous
 62
     7
370
    15
100
AcDbCircle
 10
2.065897278
 20
3.9922769372
 30
0.0
 40
0.0100000000000002
100
AcDbArc
 50
180.0
 51
270.0
  0
ARC
  5
87
330
1F
100
AcDbEntity
  8
0
  6
Continuous
 62
     7
370
    15
100
AcDbCircle
 10
2.885897278
 20
3.9922769372
 30
0.0
 40
0.0100000000000002
100
AcDbArc
 50
270.0
 51
0.0
  0
ARC
  5
88
330
1F
100
AcDbEntity
  8
0
  6
Continuous
 62
     7
370
    15
100
AcDbCircle
 10
2.065897278
 20
4.1822769372
 30
0.0
 40
0.0099999999999998
100
AcDbArc
 50
90.0
 51
180.0
  0
ARC
  5
89
330
1F
100
AcDbEntity
  8
0
  6
Continuous
 62
     7
370
    15
100
AcDbCircle
 10
2.885897278
 20
4.1822769372
 30
0.0
 40
0.0100000000000002
100
AcDbArc
 50
0.0
 51
90.0
  0
LINE
  5
8A
330
1F
100
AcDbEntity
  8
0
  6
Continuous
 62
     7
370
    15
100
AcDbLine
 10
2.895897278
 20
3.9922769372
 30
0.0
 11
2.895897278
 21
4.1822769372
 31
0.0
  0
LINE
  5
8B
330
1F
100
AcDbEntity
  8
0
  6
Continuous
 62
     7
370
    15
100
AcDbLine
 10
2.055897278
 20
4.1822769372
 30
0.0
 11
2.055897278
 21
3.9922769372
 31
0.0
  0
ARC
  5
8C
330
1F
100
AcDbEntity
  8
0
  6
Continuous
 62
     7
370
    15
100
AcDbCircle
 10
2.268397278
 20
3.9622769372
 30
0.0
 40
0.02
100
AcDbArc
 50
0.0
 51
90.0
  0
ARC
  5
8D
330
1F
100
AcDbEntity
  8
0
  6
Continuous
 62
     7
370
    15
100
AcDbCircle
 10
2.683397278
 20
3.9622769372
 30
0.0
 40
0.02
100
AcDbArc
 50
90.0
 51
180.0
  0
LINE
  5
8E
330
1F
100
AcDbEntity
  8
0
  6
Continuous
 62
     7
370
    15
100
AcDbLine
 10
2.663397278
 20
3.8072769372
 30
0.0
 11
2.663397278
 21
3.9622769372
 31
0.0
  0
LINE
  5
8F
330
1F
100
AcDbEntity
  8
0
  6
Continuous
 62
     7
370
    15
100
AcDbLine
 10
2.288397278
 20
3.9622769372
 30
0.0
 11
2.288397278
 21
3.8072769372
 31
0.0
  0
LINE
  5
90
330
1F
100
AcDbEntity
  8
0
  6
Continuous
 62
     7
370
    15
100
AcDbLine
 10
2.856397278
 20
6.0692769372
 30
0.0
 11
2.856397278
 21
6.1112769372
 31
0.0
  0
LINE
  5
91
330
1F
100
AcDbEntity
  8
0
  6
Continuous
 62
     7
370
    15
100
AcDbLine
 10
2.689397278
 20
6.1112769372
 30
0.0
 11
2.689397278
 21
6.0692769372
 31
0.0
  0
ARC
  5
92
330
1F
100
AcDbEntity
  8
0
  6
Continuous
 62
     7
370
    15
100
AcDbCircle
 10
2.709397278
 20
6.1112769372
 30
0.0
 40
0.0200000000000005
100
AcDbArc
 50
90.0
 51
180.0
  0
ARC
  5
93
330
1F
100
AcDbEntity
  8
0
  6
Continuous
 62
     7
370
    15
100
AcDbCircle
 10
2.836397278
 20
6.1112769372
 30
0.0
 40
0.0200000000000005
100
AcDbArc
 50
0.0
 51
90.0
  0
SPLINE
  5
94
330
1F
100
AcDbEntity
  8
0
  6
Continuous
 62
     7
370
    15
100
AcDbSpline
210
0.0
220
0.0
230
1.0
 70
    11
 71
     3
 72
    54
 73
    50
 74
     0
 42
0.000000001
 43
0.00000001
 40
0.0
 40
0.0
 40
0.0
 40
0.0
 40
0.0312500000000036
 40
0.0312500000000036
 40
0.0625000000000073
 40
0.0625000000000073
 40
0.0937500000000109
 40
0.0937500000000109
 40
0.1250000000000145
 40
0.1250000000000145
 40
0.1875000000000186
 40
0.1875000000000186
 40
0.2500000000000226
 40
0.2500000000000226
 40
0.2812500000000246
 40
0.2812500000000246
 40
0.3125000000000265
 40
0.3125000000000265
 40
0.3750000000000306
 40
0.3750000000000306
 40
0.406250000000031
 40
0.406250000000031
 40
0.4375000000000313
 40
0.4375000000000313
 40
0.4687500000000317
 40
0.4687500000000317
 40
0.5000000000000321
 40
0.5000000000000321
 40
0.5625000000000329
 40
0.5625000000000329
 40
0.6250000000000335
 40
0.6250000000000335
 40
0.656250000000034
 40
0.656250000000034
 40
0.6875000000000344
 40
0.6875000000000344
 40
0.7500000000000311
 40
0.7500000000000311
 40
0.7812500000000271
 40
0.7812500000000271
 40
0.8125000000000231
 40
0.8125000000000231
 40
0.8437500000000191
 40
0.8437500000000191
 40
0.875000000000015
 40
0.875000000000015
 40
0.9375000000000071
 40
0.9375000000000071
 40
1.0
 40
1.0
 40
1.0
 40
1.0
 10
2.475897278049883
 20
5.560776937220763
 30
0.0
 10
2.472160083518323
 20
5.560776937220763
 30
0.0
 10
2.468486180471219
 20
5.561144072235016
 30
0.0
 10
2.461259524181551
 20
5.562581790630608
 30
0.0
 10
2.457669000289485
 20
5.563670131723682
 30
0.0
 10
2.45082882641017
 20
5.566507532673345
 30
0.0
 10
2.447585296417853
 20
5.568243231228993
 30
0.0
 10
2.441446837565132
 20
5.572343210715763
 30
0.0
 10
2.43854373996955
 20
5.574726816555186
 30
0.0
 10
2.430736102692954
 20
5.582536232802504
 30
0.0
 10
2.426527997154983
 20
5.5888328842159
 30
0.0
 10
2.42088967720578
 20
5.602425880127116
 30
0.0
 10
2.419401416422336
 20
5.60986671185535
 30
0.0
 10
2.419395222136413
 20
5.620934618563151
 30
0.0
 10
2.419762937150207
 20
5.624682662066275
 30
0.0
 10
2.42120599160386
 20
5.63193204471295
 30
0.0
 10
2.422273652706515
 20
5.635455992653908
 30
0.0
 10
2.426522396349589
 20
5.645724363514034
 30
0.0
 10
2.430664062092291
 20
5.651942876918932
 30
0.0
 10
2.438564382105515
 20
5.659849054629494
 30
0.0
 10
2.441413244196184
 20
5.662183865446661
 30
0.0
 10
2.447526976532221
 20
5.666275986041185
 30
0.0
 10
2.450831491088699
 20
5.668047577872788
 30
0.0
 10
2.457669742191727
 20
5.670883919646007
 30
0.0
 10
2.4611913534934
 20
5.67195457139792
 30
0.0
 10
2.46843909831128
 20
5.673404323150081
 30
0.0
 10
2.472186660715398
 20
5.673775536561521
 30
0.0
 10
2.483254346050572
 20
5.67377972639364
 30
0.0
 10
2.490696520216849
 20
5.672298887870872
 30
0.0
 10
2.504299892760245
 20
5.666670500563311
 30
0.0
 10
2.510597800789896
 20
5.662469594360715
 30
0.0
 10
2.518417618017081
 20
5.65466455313197
 30
0.0
 10
2.520804286558086
 20
5.651761887159052
 30
0.0
 10
2.524906078665907
 20
5.645631630793096
 30
0.0
 10
2.526644557074421
 20
5.642390379997074
 30
0.0
 10
2.530911266978598
 20
5.632129424152063
 30
0.0
 10
2.532390646412357
 20
5.624798133697981
 30
0.0
 10
2.532400560704552
 20
5.613591314397764
 30
0.0
 10
2.532036979167573
 20
5.60991752756441
 30
0.0
 10
2.530605632239874
 20
5.602688485147422
 30
0.0
 10
2.529519797831394
 20
5.599095189200384
 30
0.0
 10
2.526689420977367
 20
5.592254770935064
 30
0.0
 10
2.524956785202324
 20
5.58900950484971
 30
0.0
 10
2.520860682198768
 20
5.582865089519185
 30
0.0
 10
2.518480244499843
 20
5.579960918823661
 30
0.0
 10
2.510679337457596
 20
5.572147840330582
 30
0.0
 10
2.504385613878869
 20
5.56793316067919
 30
0.0
 10
2.490797215912612
 20
5.562282524655696
 30
0.0
 10
2.483371667113002
 20
5.560776937220763
 30
0.0
 10
2.475897278049883
 20
5.560776937220763
 30
0.0
  0
LINE
  5
95
330
1F
100
AcDbEntity
  8
0
  6
Continuous
 62
     7
370
    15
100
AcDbLine
 10
2.895897278
 20
4.1922769372
 30
0.0
 11
2.055897278
 21
4.1922769372
 31
0.0
  0
LINE
  5
96
330
1F
100
AcDbEntity
  8
0
  6
Continuous
 62
   144
370
     0
100
AcDbLine
 10
2.895897278
 20
5.7672769372
 30
0.0
 11
2.881897278
 21
5.7672769372
 31
0.0
  0
LINE
  5
97
330
1F
100
AcDbEntity
  8
0
  6
Continuous
 62
   144
370
     0
100
AcDbLine
 10
2.5834333185
 20
5.7672769372
 30
0.0
 11
2.3683612376
 21
5.7672769372
 31
0.0
  0
LINE
  5
98
330
1F
100
AcDbEntity
  8
0
  6
Continuous
 62
   144
370
     0
100
AcDbLine
 10
2.069897278
 20
5.7672769372
 30
0.0
 11
2.055897278
 21
5.7672769372
 31
0.0
  0
SPLINE
  5
99
330
1F
100
AcDbEntity
  8
0
  6
Continuous
 62
     7
370
    15
100
AcDbSpline
210
0.0
220
0.0
230
1.0
 70
    11
 71
     3
 72
    54
 73
    50
 74
     0
 42
0.000000001
 43
0.00000001
 40
0.0
 40
0.0
 40
0.0
 40
0.0
 40
0.0312499999999995
 40
0.0312499999999995
 40
0.062499999999999
 40
0.062499999999999
 40
0.0937499999999985
 40
0.0937499999999985
 40
0.1249999999999979
 40
0.1249999999999979
 40
0.1874999999999971
 40
0.1874999999999971
 40
0.2499999999999962
 40
0.2499999999999962
 40
0.2812499999999959
 40
0.2812499999999959
 40
0.3124999999999957
 40
0.3124999999999957
 40
0.374999999999996
 40
0.374999999999996
 40
0.4062499999999962
 40
0.4062499999999962
 40
0.4374999999999964
 40
0.4374999999999964
 40
0.4687499999999966
 40
0.4687499999999966
 40
0.4999999999999968
 40
0.4999999999999968
 40
0.5624999999999972
 40
0.5624999999999972
 40
0.6249999999999976
 40
0.6249999999999976
 40
0.6562499999999978
 40
0.6562499999999978
 40
0.6874999999999979
 40
0.6874999999999979
 40
0.7499999999999983
 40
0.7499999999999983
 40
0.7812499999999984
 40
0.7812499999999984
 40
0.8124999999999987
 40
0.8124999999999987
 40
0.8437499999999988
 40
0.8437499999999988
 40
0.8749999999999989
 40
0.8749999999999989
 40
0.9374999999999994
 40
0.9374999999999994
 40
1.0
 40
1.0
 40
1.0
 40
1.0
 10
2.813769634584312
 20
5.482276937220763
 30
0.0
 10
2.813769634584312
 20
5.48641214301109
 30
0.0
 10
2.813525952159395
 20
5.490477081938872
 30
0.0
 10
2.812566893494137
 20
5.498472535489816
 30
0.0
 10
2.81183954196823
 20
5.502444914619916
 30
0.0
 10
2.809927943366488
 20
5.510010808411907
 30
0.0
 10
2.80875257305278
 20
5.513598304887744
 30
0.0
 10
2.805945571651728
 20
5.520387769932994
 30
0.0
 10
2.804300534709604
 20
5.523597906315255
 30
0.0
 10
2.798839963406398
 20
5.532232118229937
 30
0.0
 10
2.794346579204197
 20
5.536886935050513
 30
0.0
 10
2.784321952522357
 20
5.543124889009892
 30
0.0
 10
2.778679833671179
 20
5.544772311729949
 30
0.0
 10
2.770020745921941
 20
5.544779234986073
 30
0.0
 10
2.767044865014041
 20
5.544372189317148
 30
0.0
 10
2.761208979160572
 20
5.542775376173825
 30
0.0
 10
2.758331395789442
 20
5.541593966756486
 30
0.0
 10
2.749840111527313
 20
5.536892168388324
 30
0.0
 10
2.744550733147795
 20
5.532308530091558
 30
0.0
 10
2.737716949830868
 20
5.523574371682689
 30
0.0
 10
2.735676696351122
 20
5.520424347811116
 30
0.0
 10
2.732077242469004
 20
5.513662420533469
 30
0.0
 10
2.730505158727198
 20
5.510006285728398
 30
0.0
 10
2.727979098439612
 20
5.502444058357804
 30
0.0
 10
2.727019073336662
 20
5.498548557304868
 30
0.0
 10
2.725717118865393
 20
5.490528713049061
 30
0.0
 10
2.725382567149942
 20
5.486382526342583
 30
0.0
 10
2.725378737779114
 20
5.474137839012309
 30
0.0
 10
2.726718094690526
 20
5.46590307097898
 30
0.0
 10
2.731732653266142
 20
5.450854770957283
 30
0.0
 10
2.735449723306708
 20
5.443891277492105
 30
0.0
 10
2.742201288028257
 20
5.435241205726544
 30
0.0
 10
2.74468994878751
 20
5.432601577954062
 30
0.0
 10
2.749880765977408
 20
5.428065944046154
 30
0.0
 10
2.752597095193786
 20
5.426142492570382
 30
0.0
 10
2.761085719121628
 20
5.421420299567791
 30
0.0
 10
2.767001459376268
 20
5.419783976774919
 30
0.0
 10
2.775766156711046
 20
5.419773451252835
 30
0.0
 10
2.778597185267376
 20
5.420175575574977
 30
0.0
 10
2.784089893275949
 20
5.421759751371837
 30
0.0
 10
2.786779424638987
 20
5.422962206555891
 30
0.0
 10
2.79182301570273
 20
5.426092644486942
 30
0.0
 10
2.794180393051259
 20
5.428009206607481
 30
0.0
 10
2.798589353419582
 20
5.432541939871148
 30
0.0
 10
2.800641134494206
 20
5.435173766186669
 30
0.0
 10
2.806103858810035
 20
5.443799404911586
 30
0.0
 10
2.808967311294086
 20
5.450760109835799
 30
0.0
 10
2.812774594956767
 20
5.465790805008459
 30
0.0
 10
2.813769634584312
 20
5.474006525640108
 30
0.0
 10
2.813769634584312
 20
5.482276937220762
 30
0.0
  0
SPLINE
  5
9A
330
1F
100
AcDbEntity
  8
0
  6
Continuous
 62
   144
370
     0
100
AcDbSpline
210
0.0
220
0.0
230
1.0
 70
     8
 71
     3
 72
    14
 73
    10
 74
     0
 42
0.000000001
 43
0.00000001
 40
0.0
 40
0.0
 40
0.0
 40
0.0
 40
0.1490294941126838
 40
0.2980858230528824
 40
0.4462126562144111
 40
0.5928733014984825
 40
0.740040033709653
 40
0.8888846184865306
 40
1.0
 40
1.0
 40
1.0
 40
1.0
 10
2.778683578015214
 20
5.432276937220763
 30
0.0
 10
2.781964955338531
 20
5.437051509711649
 30
0.0
 10
2.788528300842664
 20
5.44660151442142
 30
0.0
 10
2.793575131660125
 20
5.466465277908164
 30
0.0
 10
2.794660723695779
 20
5.487626421142279
 30
0.0
 10
2.791523674458418
 20
5.508238739045762
 30
0.0
 10
2.784345367329199
 20
5.525712715584826
 30
0.0
 10
2.77465764376687
 20
5.538134019975202
 30
0.0
 10
2.766539432952592
 20
5.541192971092194
 30
0.0
 10
2.763069444458949
 20
5.542500466724102
 30
0.0
  0
SPLINE
  5
9B
330
1F
100
AcDbEntity
  8
0
  6
Continuous
 62
   144
370
     0
100
AcDbSpline
210
0.0
220
0.0
230
1.0
 70
     8
 71
     3
 72
     9
 73
     5
 74
     0
 42
0.000000001
 43
0.00000001
 40
0.0
 40
0.0
 40
0.0
 40
0.0
 40
0.4226220959289509
 40
1.0
 40
1.0
 40
1.0
 40
1.0
 10
2.759426121431028
 20
5.422996029084041
 30
0.0
 10
2.76211403147435
 20
5.423877567377085
 30
0.0
 10
2.76847411077265
 20
5.425963445757644
 30
0.0
 10
2.774946540249578
 20
5.42996596883523
 30
0.0
 10
2.778683578015214
 20
5.432276937220763
 30
0.0
  0
LINE
  5
9C
330
1F
100
AcDbEntity
  8
0
  6
Continuous
 62
     7
370
    15
100
AcDbLine
 10
1.975897278
 20
3.3572769372
 30
0.0
 11
1.975897278
 21
3.1072769372
 31
0.0
  0
LINE
  5
9D
330
1F
100
AcDbEntity
  8
0
  6
Continuous
 62
     7
370
    15
100
AcDbLine
 10
1.975897278
 20
3.1072769372
 30
0.0
 11
1.915897278
 21
3.1072769372
 31
0.0
  0
LINE
  5
9E
330
1F
100
AcDbEntity
  8
0
  6
Continuous
 62
     7
370
    15
100
AcDbLine
 10
1.915897278
 20
3.1072769372
 30
0.0
 11
1.915897278
 21
3.3572769372
 31
0.0
  0
LINE
  5
9F
330
1F
100
AcDbEntity
  8
0
  6
Continuous
 62
     7
370
    15
100
AcDbLine
 10
1.915897278
 20
3.3572769372
 30
0.0
 11
1.975897278
 21
3.3572769372
 31
0.0
  0
LINE
  5
A0
330
1F
100
AcDbEntity
  8
0
  6
Continuous
 62
     7
370
    15
100
AcDbLine
 10
2.975897278
 20
3.3572769372
 30
0.0
 11
3.035897278
 21
3.3572769372
 31
0.0
  0
LINE
  5
A1
330
1F
100
AcDbEntity
  8
0
  6
Continuous
 62
     7
370
    15
100
AcDbLine
 10
1.975897278
 20
3.3572769372
 30
0.0
 11
2.975897278
 21
3.3572769372
 31
0.0
  0
LINE
  5
A2
330
1F
100
AcDbEntity
  8
0
  6
Continuous
 62
     7
370
    15
100
AcDbLine
 10
1.975897278
 20
3.1072769372
 30
0.0
 11
2.975897278
 21
3.1072769372
 31
0.0
  0
LINE
  5
A3
330
1F
100
AcDbEntity
  8
0
  6
Continuous
 62
     7
370
    15
100
AcDbLine
 10
3.035897278
 20
3.1072769372
 30
0.0
 11
2.975897278
 21
3.1072769372
 31
0.0
  0
LINE
  5
A4
330
1F
100
AcDbEntity
  8
0
  6
Continuous
 62
     7
370
    15
100
AcDbLine
 10
2.975897278
 20
3.1072769372
 30
0.0
 11
2.975897278
 21
3.3572769372
 31
0.0
  0
LINE
  5
A5
330
1F
100
AcDbEntity
  8
0
  6
Continuous
 62
     7
370
    15
100
AcDbLine
 10
3.035897278
 20
3.3572769372
 30
0.0
 11
3.035897278
 21
3.1072769372
 31
0.0
  0
LINE
  5
A6
330
1F
100
AcDbEntity
  8
0
  6
Continuous
 62
     7
370
    15
100
AcDbLine
 10
2.788397278
 20
3.4822769372
 30
0.0
 11
2.163397278
 21
3.4822769372
 31
0.0
  0
LINE
  5
A7
330
1F
100
AcDbEntity
  8
0
  6
Continuous
 62
     7
370
    15
100
AcDbLine
 10
2.288397278
 20
3.6072769372
 30
0.0
 11
2.663397278
 21
3.6072769372
 31
0.0
  0
LINE
  5
A8
330
1F
100
AcDbEntity
  8
0
  6
Continuous
 62
     7
370
    15
100
AcDbLine
 10
2.288397278
 20
3.8072769372
 30
0.0
 11
2.663397278
 21
3.8072769372
 31
0.0
  0
LINE
  5
A9
330
1F
100
AcDbEntity
  8
0
  6
Continuous
 62
     7
370
    15
100
AcDbLine
 10
2.178897278
 20
6.1312769372
 30
0.0
 11
2.242397278
 21
6.1312769372
 31
0.0
  0
LINE
  5
AA
330
1F
100
AcDbEntity
  8
0
  6
Continuous
 62
     7
370
    15
100
AcDbLine
 10
2.115397278
 20
6.1312769372
 30
0.0
 11
2.178897278
 21
6.1312769372
 31
0.0
  0
LINE
  5
AB
330
1F
100
AcDbEntity
  8
0
  6
Continuous
 62
     7
370
    15
100
AcDbLine
 10
2.3683612376
 20
6.0072769372
 30
0.0
 11
2.3683612376
 21
5.7672769372
 31
0.0
  0
LINE
  5
AC
330
1F
100
AcDbEntity
  8
0
  6
Continuous
 62
     7
370
    15
100
AcDbLine
 10
2.5834333185
 20
5.7672769372
 30
0.0
 11
2.5834333185
 21
6.0072769372
 31
0.0
  0
LINE
  5
AD
330
1F
100
AcDbEntity
  8
0
  6
Continuous
 62
     7
370
    15
100
AcDbLine
 10
2.5834333185
 20
5.7672769372
 30
0.0
 11
2.3683612376
 21
5.7672769372
 31
0.0
  0
LINE
  5
AE
330
1F
100
AcDbEntity
  8
0
  6
Continuous
 62
     7
370
    15
100
AcDbLine
 10
2.061897278
 20
6.0072769372
 30
0.0
 11
2.055897278
 21
6.0072769372
 31
0.0
  0
LINE
  5
AF
330
1F
100
AcDbEntity
  8
0
  6
Continuous
 62
     7
370
    15
100
AcDbLine
 10
2.895897278
 20
6.0072769372
 30
0.0
 11
2.889897278
 21
6.0072769372
 31
0.0
  0
LINE
  5
B0
330
1F
100
AcDbEntity
  8
0
  6
Continuous
 62
     7
370
    15
100
AcDbLine
 10
2.069897278
 20
5.7672769372
 30
0.0
 11
2.055897278
 21
5.7672769372
 31
0.0
  0
LINE
  5
B1
330
1F
100
AcDbEntity
  8
0
  6
Continuous
 62
     7
370
    15
100
AcDbLine
 10
2.069897278
 20
5.7672769372
 30
0.0
 11
2.178897278
 21
5.7672769372
 31
0.0
  0
LINE
  5
B2
330
1F
100
AcDbEntity
  8
0
  6
Continuous
 62
     7
370
    15
100
AcDbLine
 10
2.178897278
 20
5.7672769372
 30
0.0
 11
2.3683612376
 21
5.7672769372
 31
0.0
  0
LINE
  5
B3
330
1F
100
AcDbEntity
  8
0
  6
Continuous
 62
     7
370
    15
100
AcDbLine
 10
2.5834333185
 20
5.7672769372
 30
0.0
 11
2.772897278
 21
5.7672769372
 31
0.0
  0
LINE
  5
B4
330
1F
100
AcDbEntity
  8
0
  6
Continuous
 62
     7
370
    15
100
AcDbLine
 10
2.772897278
 20
5.7672769372
 30
0.0
 11
2.881897278
 21
5.7672769372
 31
0.0
  0
LINE
  5
B5
330
1F
100
AcDbEntity
  8
0
  6
Continuous
 62
     7
370
    15
100
AcDbLine
 10
2.895897278
 20
5.7672769372
 30
0.0
 11
2.881897278
 21
5.7672769372
 31
0.0
  0
LINE
  5
B6
330
1F
100
AcDbEntity
  8
0
  6
Continuous
 62
     7
370
    15
100
AcDbLine
 10
2.178897278
 20
5.7672769372
 30
0.0
 11
2.178897278
 21
6.0072769372
 31
0.0
  0
LINE
  5
B7
330
1F
100
AcDbEntity
  8
0
  6
Continuous
 62
     7
370
    15
100
AcDbLine
 10
2.069897278
 20
5.7672769372
 30
0.0
 11
2.069897278
 21
6.0072769372
 31
0.0
  0
LINE
  5
B8
330
1F
100
AcDbEntity
  8
0
  6
Continuous
 62
     7
370
    15
100
AcDbLine
 10
2.772897278
 20
5.7672769372
 30
0.0
 11
2.772897278
 21
6.0072769372
 31
0.0
  0
LINE
  5
B9
330
1F
100
AcDbEntity
  8
0
  6
Continuous
 62
     7
370
    15
100
AcDbLine
 10
2.881897278
 20
5.7672769372
 30
0.0
 11
2.881897278
 21
6.0072769372
 31
0.0
  0
LINE
  5
BA
330
1F
100
AcDbEntity
  8
0
  6
Continuous
 62
     7
370
    15
100
AcDbLine
 10
2.7836789833
 20
5.4547769372
 30
0.0
 11
2.7319263649
 21
5.4547769372
 31
0.0
  0
SPLINE
  5
BB
330
1F
100
AcDbEntity
  8
0
  6
Continuous
 62
     7
370
    15
100
AcDbSpline
210
0.0
220
0.0
230
1.0
 70
     8
 71
     3
 72
    13
 73
     9
 74
     0
 42
0.000000001
 43
0.00000001
 40
0.0
 40
0.0
 40
0.0
 40
0.0
 40
0.1545853630281789
 40
0.3483324995690364
 40
0.5426431492257932
 40
0.7383567538854662
 40
0.934146026600095
 40
1.0
 40
1.0
 40
1.0
 40
1.0
 10
2.745081814729881
 20
5.5312150857148
 30
0.0
 10
2.748266504552928
 20
5.531747079420655
 30
0.0
 10
2.755442675340918
 20
5.532945839081242
 30
0.0
 10
2.765809449528241
 20
5.528108130907358
 30
0.0
 10
2.77488442824694
 20
5.518433098670167
 30
0.0
 10
2.781105878390552
 20
5.504511601030197
 30
0.0
 10
2.783477284994321
 20
5.491664616778451
 30
0.0
 10
2.783638425297953
 20
5.484164635689763
 30
0.0
 10
2.78367898330748
 20
5.482276937220764
 30
0.0
  0
LINE
  5
BC
330
1F
100
AcDbEntity
  8
0
  6
Continuous
 62
   144
370
     0
100
AcDbLine
 10
2.7836789833
 20
5.4822769372
 30
0.0
 11
2.7836789833
 21
5.4547769372
 31
0.0
  0
LINE
  5
BD
330
1F
100
AcDbEntity
  8
0
  6
Continuous
 62
   144
370
     0
100
AcDbLine
 10
2.7836789833
 20
5.4547769372
 30
0.0
 11
2.7903014734
 21
5.4547769372
 31
0.0
  0
ARC
  5
BE
330
1F
100
AcDbEntity
  8
0
  6
Continuous
 62
   144
370
     0
100
AcDbCircle
 10
2.6728542184
 20
5.4829192594
 30
0.0
 40
0.0646757583039261
100
AcDbArc
 50
359.4309621834
 51
25.367503635
  0
LINE
  5
BF
330
1F
100
AcDbEntity
  8
0
  6
Continuous
 62
   144
370
     0
100
AcDbLine
 10
2.7836789833
 20
5.4822769372
 30
0.0
 11
2.7375267871
 21
5.4822769372
 31
0.0
  0
LINE
  5
C0
330
1F
100
AcDbEntity
  8
0
  6
Continuous
 62
   144
370
     0
100
AcDbLine
 10
2.7686979997
 20
5.4372769372
 30
0.0
 11
2.7415593468
 21
5.4372769372
 31
0.0
  0
LINE
  5
C1
330
1F
100
AcDbEntity
  8
0
  6
Continuous
 62
   144
370
     0
100
AcDbLine
 10
2.7686979997
 20
5.4372769372
 30
0.0
 11
2.7826753963
 21
5.4372769372
 31
0.0
  0
LINE
  5
C2
330
1F
100
AcDbEntity
  8
0
  6
Continuous
 62
   144
370
     0
100
AcDbLine
 10
2.7686979997
 20
5.4372769372
 30
0.0
 11
2.7686979997
 21
5.426652204
 31
0.0
  0
LINE
  5
C3
330
1F
100
AcDbEntity
  8
0
  6
Continuous
 62
     7
370
    15
100
AcDbLine
 10
2.889897278
 20
6.0072769372
 30
0.0
 11
2.780897278
 21
6.0072769372
 31
0.0
  0
LINE
  5
C4
330
1F
100
AcDbEntity
  8
0
  6
Continuous
 62
     7
370
    15
100
AcDbLine
 10
2.170897278
 20
6.0072769372
 30
0.0
 11
2.061897278
 21
6.0072769372
 31
0.0
  0
LINE
  5
C5
330
1F
100
AcDbEntity
  8
0
  6
Continuous
 62
     7
370
    15
100
AcDbLine
 10
2.170897278
 20
6.0072769372
 30
0.0
 11
2.780897278
 21
6.0072769372
 31
0.0
  0
LINE
  5
C6
330
1F
100
AcDbEntity
  8
0
  6
Continuous
 62
     7
370
    15
100
AcDbLine
 10
2.170897278
 20
6.0692769372
 30
0.0
 11
2.170897278
 21
6.0072769372
 31
0.0
  0
LINE
  5
C7
330
1F
100
AcDbEntity
  8
0
  6
Continuous
 62
     7
370
    15
100
AcDbLine
 10
2.061897278
 20
6.0072769372
 30
0.0
 11
2.061897278
 21
6.0692769372
 31
0.0
  0
LINE
  5
C8
330
1F
100
AcDbEntity
  8
0
  6
Continuous
 62
     7
370
    15
100
AcDbLine
 10
2.061897278
 20
6.0692769372
 30
0.0
 11
2.170897278
 21
6.0692769372
 31
0.0
  0
LINE
  5
C9
330
1F
100
AcDbEntity
  8
0
  6
Continuous
 62
     7
370
    15
100
AcDbLine
 10
2.780897278
 20
6.0692769372
 30
0.0
 11
2.889897278
 21
6.0692769372
 31
0.0
  0
LINE
  5
CA
330
1F
100
AcDbEntity
  8
0
  6
Continuous
 62
     7
370
    15
100
AcDbLine
 10
2.170897278
 20
6.0692769372
 30
0.0
 11
2.780897278
 21
6.0692769372
 31
0.0
  0
LINE
  5
CB
330
1F
100
AcDbEntity
  8
0
  6
Continuous
 62
     7
370
    15
100
AcDbLine
 10
2.780897278
 20
6.0072769372
 30
0.0
 11
2.780897278
 21
6.0692769372
 31
0.0
  0
LINE
  5
CC
330
1F
100
AcDbEntity
  8
0
  6
Continuous
 62
     7
370
    15
100
AcDbLine
 10
2.889897278
 20
6.0692769372
 30
0.0
 11
2.889897278
 21
6.0072769372
 31
0.0
  0
CIRCLE
  5
CD
330
1F
100
AcDbEntity
  8
0
  6
Continuous
 62
     7
370
    15
100
AcDbCircle
 10
2.4625122351
 20
6.3927769372
 30
0.0
 40
0.0394999999999999
  0
LINE
  5
CE
330
1F
100
AcDbEntity
  8
0
  6
Continuous
 62
     7
370
    15
100
AcDbLine
 10
2.475897278
 20
6.4972769372
 30
0.0
 11
2.711397278
 21
6.4972769372
 31
0.0
  0
LINE
  5
CF
330
1F
100
AcDbEntity
  8
0
  6
Continuous
 62
     7
370
    15
100
AcDbLine
 10
2.240397278
 20
6.4972769372
 30
0.0
 11
2.475897278
 21
6.4972769372
 31
0.0
  0
LWPOLYLINE
  5
D0
330
1F
100
AcDbEntity
  8
0
  6
Continuous
 62
     7
370
    15
100
AcDbPolyline
 90
       13
 70
   128
 43
0.0
 10
2.7255099253
 20
6.4322769372
 10
2.7306216014
 20
6.4309310074
 10
2.7353849253
 20
6.4269849407
 10
2.7394752842
 20
6.4207076551
 10
2.742613927
 20
6.4125269372
 10
2.7445869604
 20
6.4030002895
 10
2.7452599253
 20
6.3927769372
 10
2.7445869604
 20
6.3825535849
 10
2.742613927
 20
6.3730269372
 10
2.7394752842
 20
6.3648462194
 10
2.7353849253
 20
6.3585689338
 10
2.7306216014
 20
6.3546228671
 10
2.7255099253
 20
6.3532769372
  0
LWPOLYLINE
  5
D1
330
1F
100
AcDbEntity
  8
0
  6
Continuous
 62
     7
370
    15
100
AcDbPolyline
 90
        7
 70
   128
 43
0.0
 10
2.2199196738
 20
6.3927769372
 10
2.2205926387
 20
6.4030002895
 10
2.222565672
 20
6.4125269372
 10
2.2257043148
 20
6.4207076551
 10
2.2297946738
 20
6.4269849407
 10
2.2345579976
 20
6.4309310074
 10
2.2396696738
 20
6.4322769372
  0
LWPOLYLINE
  5
D2
330
1F
100
AcDbEntity
  8
0
  6
Continuous
 62
     7
370
    15
100
AcDbPolyline
 90
        7
 70
   128
 43
0.0
 10
2.2396696738
 20
6.3532769372
 10
2.2345579976
 20
6.3546228671
 10
2.2297946738
 20
6.3585689338
 10
2.2257043148
 20
6.3648462194
 10
2.222565672
 20
6.3730269372
 10
2.2205926387
 20
6.3825535849
 10
2.2199196738
 20
6.3927769372
  0
SPLINE
  5
D3
330
1F
100
AcDbEntity
  8
0
  6
Continuous
 62
     7
370
    15
100
AcDbSpline
210
0.0
220
0.0
230
1.0
 70
    24
 71
     3
 72
    10
 73
     6
 74
     0
 42
0.000000001
 43
0.00000001
 40
0.0
 40
0.0
 40
0.0
 40
0.0
 40
0.5
 40
0.5
 40
1.0
 40
1.0
 40
1.0
 40
1.0
 10
2.475897278049882
 20
3.982276937220763
 30
0.0
 10
2.367161594609881
 20
3.982276937220763
 30
0.0
 10
2.262871236880779
 20
3.982276937220763
 30
0.0
 10
2.109095758646022
 20
3.982276937220763
 30
0.0
 10
2.065897278049884
 20
3.982276937220763
 30
0.0
 10
2.065897278049881
 20
3.982276937220763
 30
0.0
  0
SPLINE
  5
D4
330
1F
100
AcDbEntity
  8
0
  6
Continuous
 62
     7
370
    15
100
AcDbSpline
210
0.0
220
0.0
230
1.0
 70
    24
 71
     3
 72
    10
 73
     6
 74
     0
 42
0.000000001
 43
0.00000001
 40
0.0
 40
0.0
 40
0.0
 40
0.0
 40
0.5
 40
0.5
 40
1.0
 40
1.0
 40
1.0
 40
1.0
 10
2.885897278049881
 20
3.982276937220763
 30
0.0
 10
2.885897278049884
 20
3.982276937220763
 30
0.0
 10
2.842698797453746
 20
3.982276937220763
 30
0.0
 10
2.688923319218993
 20
3.982276937220763
 30
0.0
 10
2.584632961489881
 20
3.982276937220763
 30
0.0
 10
2.475897278049882
 20
3.982276937220763
 30
0.0
  0
SPLINE
  5
D5
330
1F
100
AcDbEntity
  8
0
  6
Continuous
 62
   144
370
     0
100
AcDbSpline
210
0.0
220
0.0
230
1.0
 70
    24
 71
     3
 72
    10
 73
     6
 74
     0
 42
0.000000001
 43
0.00000001
 40
0.0
 40
0.0
 40
0.0
 40
0.0
 40
0.5000000000000002
 40
0.5000000000000002
 40
0.9999999999999999
 40
0.9999999999999999
 40
0.9999999999999999
 40
0.9999999999999999
 10
2.475897278049882
 20
4.192276937220763
 30
0.0
 10
2.584632961489881
 20
4.192276937220763
 30
0.0
 10
2.688923319218984
 20
4.192276937220763
 30
0.0
 10
2.842698797453741
 20
4.192276937220763
 30
0.0
 10
2.885897278049878
 20
4.192276937220763
 30
0.0
 10
2.885897278049881
 20
4.192276937220763
 30
0.0
  0
SPLINE
  5
D6
330
1F
100
AcDbEntity
  8
0
  6
Continuous
 62
   144
370
     0
100
AcDbSpline
210
0.0
220
0.0
230
1.0
 70
    24
 71
     3
 72
    10
 73
     6
 74
     0
 42
0.000000001
 43
0.00000001
 40
0.0
 40
0.0
 40
0.0
 40
0.0
 40
0.4999999999999999
 40
0.4999999999999999
 40
0.9999999999999999
 40
0.9999999999999999
 40
0.9999999999999999
 40
0.9999999999999999
 10
2.065897278049881
 20
4.192276937220763
 30
0.0
 10
2.065897278049879
 20
4.192276937220763
 30
0.0
 10
2.109095758646017
 20
4.192276937220763
 30
0.0
 10
2.26287123688077
 20
4.192276937220763
 30
0.0
 10
2.367161594609882
 20
4.192276937220763
 30
0.0
 10
2.475897278049882
 20
4.192276937220763
 30
0.0
  0
LINE
  5
D7
330
1F
100
AcDbEntity
  8
0
  6
Continuous
 62
     7
370
    15
100
AcDbLine
 10
2.709397278
 20
6.1312769372
 30
0.0
 11
2.836397278
 21
6.1312769372
 31
0.0
  0
LINE
  5
D8
330
1F
100
AcDbEntity
  8
0
  6
Continuous
 62
     8
370
    15
100
AcDbLine
 10
2.178897278
 20
6.1112769372
 30
0.0
 11
2.095397278
 21
6.1112769372
 31
0.0
  0
LINE
  5
D9
330
1F
100
AcDbEntity
  8
0
  6
Continuous
 62
     8
370
    15
100
AcDbLine
 10
2.262397278
 20
6.1112769372
 30
0.0
 11
2.178897278
 21
6.1112769372
 31
0.0
  0
LINE
  5
DA
330
1F
100
AcDbEntity
  8
0
  6
Continuous
 62
     8
370
    15
100
AcDbLine
 10
2.475897278
 20
3.9922769372
 30
0.0
 11
2.055897278
 21
3.9922769372
 31
0.0
  0
LINE
  5
DB
330
1F
100
AcDbEntity
  8
0
  6
Continuous
 62
     8
370
    15
100
AcDbLine
 10
2.895897278
 20
3.9922769372
 30
0.0
 11
2.475897278
 21
3.9922769372
 31
0.0
  0
LINE
  5
DC
330
1F
100
AcDbEntity
  8
0
  6
Continuous
 62
     8
370
    15
100
AcDbLine
 10
2.895897278
 20
4.1822769372
 30
0.0
 11
2.055897278
 21
4.1822769372
 31
0.0
  0
LINE
  5
DD
330
1F
100
AcDbEntity
  8
0
  6
Continuous
 62
     8
370
    15
100
AcDbLine
 10
2.475897278
 20
3.9622769372
 30
0.0
 11
2.288397278
 21
3.9622769372
 31
0.0
  0
LINE
  5
DE
330
1F
100
AcDbEntity
  8
0
  6
Continuous
 62
     8
370
    15
100
AcDbLine
 10
2.663397278
 20
3.9622769372
 30
0.0
 11
2.475897278
 21
3.9622769372
 31
0.0
  0
LINE
  5
DF
330
1F
100
AcDbEntity
  8
0
  6
Continuous
 62
     8
370
    15
100
AcDbLine
 10
2.856397278
 20
6.1112769372
 30
0.0
 11
2.689397278
 21
6.1112769372
 31
0.0
  0
LINE
  5
E0
330
1F
100
AcDbEntity
  8
0
  6
Continuous
 62
     7
370
    15
100
AcDbLine
 10
5.6097237982
 20
5.6730633561
 30
0.0
 11
5.6097237982
 21
5.7672769372
 31
0.0
  0
LINE
  5
E1
330
1F
100
AcDbEntity
  8
0
  6
Continuous
 62
     7
370
    15
100
AcDbLine
 10
5.6097237982
 20
4.1922769372
 30
0.0
 11
5.6097237982
 21
5.5607769372
 31
0.0
  0
LINE
  5
E2
330
1F
100
AcDbEntity
  8
0
  6
Continuous
 62
     7
370
    15
100
AcDbLine
 10
4.7697237982
 20
5.5607769372
 30
0.0
 11
4.7697237982
 21
4.1922769372
 31
0.0
  0
LINE
  5
E3
330
1F
100
AcDbEntity
  8
0
  6
Continuous
 62
     7
370
    15
100
AcDbLine
 10
4.7697237982
 20
5.7672769372
 30
0.0
 11
4.7697237982
 21
5.6730633561
 31
0.0
  0
LINE
  5
E4
330
1F
100
AcDbEntity
  8
0
  6
Continuous
 62
     7
370
    15
100
AcDbLine
 10
5.5022237982
 20
3.4822769372
 30
0.0
 11
5.3772237982
 21
3.6072769372
 31
0.0
  0
LINE
  5
E5
330
1F
100
AcDbEntity
  8
0
  6
Continuous
 62
     7
370
    15
100
AcDbLine
 10
5.0022237982
 20
3.6072769372
 30
0.0
 11
4.8772237982
 21
3.4822769372
 31
0.0
  0
LINE
  5
E6
330
1F
100
AcDbEntity
  8
0
  6
Continuous
 62
     7
370
    15
100
AcDbLine
 10
5.5022237982
 20
3.3572769372
 30
0.0
 11
5.5022237982
 21
3.4822769372
 31
0.0
  0
LINE
  5
E7
330
1F
100
AcDbEntity
  8
0
  6
Continuous
 62
     7
370
    15
100
AcDbLine
 10
4.8772237982
 20
3.4822769372
 30
0.0
 11
4.8772237982
 21
3.3572769372
 31
0.0
  0
LINE
  5
E8
330
1F
100
AcDbEntity
  8
0
  6
Continuous
 62
     7
370
    15
100
AcDbLine
 10
5.3772237982
 20
3.6072769372
 30
0.0
 11
5.3772237982
 21
3.8072769372
 31
0.0
  0
LINE
  5
E9
330
1F
100
AcDbEntity
  8
0
  6
Continuous
 62
     7
370
    15
100
AcDbLine
 10
5.0022237982
 20
3.8072769372
 30
0.0
 11
5.0022237982
 21
3.6072769372
 31
0.0
  0
ARC
  5
EA
330
1F
100
AcDbEntity
  8
0
  6
Continuous
 62
     7
370
    15
100
AcDbCircle
 10
5.4232237982
 20
6.1112769372
 30
0.0
 40
0.0200000000000005
100
AcDbArc
 50
90.0
 51
180.0
  0
ARC
  5
EB
330
1F
100
AcDbEntity
  8
0
  6
Continuous
 62
     7
370
    15
100
AcDbCircle
 10
5.5502237982
 20
6.1112769372
 30
0.0
 40
0.0200000000000005
100
AcDbArc
 50
0.0
 51
90.0
  0
LINE
  5
EC
330
1F
100
AcDbEntity
  8
0
  6
Continuous
 62
     7
370
    15
100
AcDbLine
 10
5.5702237982
 20
6.0692769372
 30
0.0
 11
5.5702237982
 21
6.1112769372
 31
0.0
  0
LINE
  5
ED
330
1F
100
AcDbEntity
  8
0
  6
Continuous
 62
     7
370
    15
100
AcDbLine
 10
5.4032237982
 20
6.1112769372
 30
0.0
 11
5.4032237982
 21
6.0692769372
 31
0.0
  0
LINE
  5
EE
330
1F
100
AcDbEntity
  8
0
  6
Continuous
 62
     7
370
    15
100
AcDbLine
 10
5.6097237982
 20
5.7672769372
 30
0.0
 11
5.6097237982
 21
6.0072769372
 31
0.0
  0
LINE
  5
EF
330
1F
100
AcDbEntity
  8
0
  6
Continuous
 62
     7
370
    15
100
AcDbLine
 10
4.7697237982
 20
6.0072769372
 30
0.0
 11
4.7697237982
 21
5.7672769372
 31
0.0
  0
LINE
  5
F0
330
1F
100
AcDbEntity
  8
0
  6
Continuous
 62
     7
370
    15
100
AcDbLine
 10
5.318382011
 20
6.4322769372
 30
0.0
 11
5.2956504373
 21
6.4322769372
 31
0.0
  0
LINE
  5
F1
330
1F
100
AcDbEntity
  8
0
  6
Continuous
 62
     7
370
    15
100
AcDbLine
 10
5.2956846737
 20
6.3532769372
 30
0.0
 11
5.318382011
 21
6.3532769372
 31
0.0
  0
LINE
  5
F2
330
1F
100
AcDbEntity
  8
0
  6
Continuous
 62
     7
370
    15
100
AcDbLine
 10
5.4252237982
 20
6.1312769372
 30
0.0
 11
5.4252237982
 21
6.4972769372
 31
0.0
  0
LINE
  5
F3
330
1F
100
AcDbEntity
  8
0
  6
Continuous
 62
     7
370
    15
100
AcDbLine
 10
4.9542237982
 20
6.3557679941
 30
0.0
 11
4.9542237982
 21
6.1312769372
 31
0.0
  0
LINE
  5
F4
330
1F
100
AcDbEntity
  8
0
  6
Continuous
 62
     7
370
    15
100
AcDbLine
 10
4.9542237982
 20
6.4972769372
 30
0.0
 11
4.9542237982
 21
6.4293798344
 31
0.0
  0
LINE
  5
F5
330
1F
100
AcDbEntity
  8
0
  6
Continuous
 62
     7
370
    15
100
AcDbLine
 10
4.9092237982
 20
6.3532769372
 30
0.0
 11
4.9542237982
 21
6.3532769372
 31
0.0
  0
LINE
  5
F6
330
1F
100
AcDbEntity
  8
0
  6
Continuous
 62
     7
370
    15
100
AcDbLine
 10
4.9542237982
 20
6.4322769372
 30
0.0
 11
4.9092237982
 21
6.4322769372
 31
0.0
  0
ARC
  5
F7
330
1F
100
AcDbEntity
  8
0
  6
Continuous
 62
     7
370
    15
100
AcDbCircle
 10
4.7797237982
 20
4.1822769372
 30
0.0
 40
0.0099999999999998
100
AcDbArc
 50
90.0
 51
180.0
  0
ARC
  5
F8
330
1F
100
AcDbEntity
  8
0
  6
Continuous
 62
     7
370
    15
100
AcDbCircle
 10
5.5997237982
 20
4.1822769372
 30
0.0
 40
0.0099999999999998
100
AcDbArc
 50
0.0
 51
90.0
  0
ARC
  5
F9
330
1F
100
AcDbEntity
  8
0
  6
Continuous
 62
     7
370
    15
100
AcDbCircle
 10
4.7797237982
 20
3.9922769372
 30
0.0
 40
0.0100000000000002
100
AcDbArc
 50
180.0
 51
270.0
  0
ARC
  5
FA
330
1F
100
AcDbEntity
  8
0
  6
Continuous
 62
     7
370
    15
100
AcDbCircle
 10
5.5997237982
 20
3.9922769372
 30
0.0
 40
0.0100000000000002
100
AcDbArc
 50
270.0
 51
0.0
  0
LINE
  5
FB
330
1F
100
AcDbEntity
  8
0
  6
Continuous
 62
     7
370
    15
100
AcDbLine
 10
5.6097237982
 20
3.9922769372
 30
0.0
 11
5.6097237982
 21
4.1822769372
 31
0.0
  0
LINE
  5
FC
330
1F
100
AcDbEntity
  8
0
  6
Continuous
 62
     7
370
    15
100
AcDbLine
 10
4.7697237982
 20
4.1822769372
 30
0.0
 11
4.7697237982
 21
3.9922769372
 31
0.0
  0
ARC
  5
FD
330
1F
100
AcDbEntity
  8
0
  6
Continuous
 62
     7
370
    15
100
AcDbCircle
 10
4.9822237982
 20
3.9622769372
 30
0.0
 40
0.0200000000000005
100
AcDbArc
 50
0.0
 51
90.0
  0
ARC
  5
FE
330
1F
100
AcDbEntity
  8
0
  6
Continuous
 62
     7
370
    15
100
AcDbCircle
 10
5.3972237982
 20
3.9622769372
 30
0.0
 40
0.02
100
AcDbArc
 50
90.0
 51
180.0
  0
LINE
  5
FF
330
1F
100
AcDbEntity
  8
0
  6
Continuous
 62
     7
370
    15
100
AcDbLine
 10
5.3772237982
 20
3.8072769372
 30
0.0
 11
5.3772237982
 21
3.9622769372
 31
0.0
  0
LINE
  5
100
330
1F
100
AcDbEntity
  8
0
  6
Continuous
 62
     7
370
    15
100
AcDbLine
 10
5.0022237982
 20
3.9622769372
 30
0.0
 11
5.0022237982
 21
3.8072769372
 31
0.0
  0
LINE
  5
101
330
1F
100
AcDbEntity
  8
0
  6
Continuous
 62
     7
370
    15
100
AcDbLine
 10
4.9762237982
 20
6.0692769372
 30
0.0
 11
4.9762237982
 21
6.1112769372
 31
0.0
  0
LINE
  5
102
330
1F
100
AcDbEntity
  8
0
  6
Continuous
 62
     7
370
    15
100
AcDbLine
 10
4.8092237982
 20
6.1112769372
 30
0.0
 11
4.8092237982
 21
6.0692769372
 31
0.0
  0
ARC
  5
103
330
1F
100
AcDbEntity
  8
0
  6
Continuous
 62
     7
370
    15
100
AcDbCircle
 10
4.8292237982
 20
6.1112769372
 30
0.0
 40
0.0200000000000005
100
AcDbArc
 50
90.0
 51
180.0
  0
ARC
  5
104
330
1F
100
AcDbEntity
  8
0
  6
Continuous
 62
     7
370
    15
100
AcDbCircle
 10
4.9562237982
 20
6.1112769372
 30
0.0
 40
0.0200000000000005
100
AcDbArc
 50
0.0
 51
90.0
  0
LINE
  5
105
330
1F
100
AcDbEntity
  8
0
  6
Continuous
 62
     7
370
    15
100
AcDbLine
 10
5.1897237982
 20
4.1922769372
 30
0.0
 11
4.7697237982
 21
4.1922769372
 31
0.0
  0
LINE
  5
106
330
1F
100
AcDbEntity
  8
0
  6
Continuous
 62
     7
370
    15
100
AcDbLine
 10
5.6097237982
 20
4.1922769372
 30
0.0
 11
5.1897237982
 21
4.1922769372
 31
0.0
  0
ARC
  5
107
330
1F
100
AcDbEntity
  8
0
  6
Continuous
 62
     7
370
    15
100
AcDbCircle
 10
4.3517526816
 20
5.6172742857
 30
0.0
 40
0.4217722189824201
100
AcDbArc
 50
352.3019605739
 51
7.6009592454
  0
LINE
  5
108
330
1F
100
AcDbEntity
  8
0
  6
Continuous
 62
   144
370
     0
100
AcDbLine
 10
5.1897237982
 20
5.7672769372
 30
0.0
 11
5.0821877577
 21
5.7672769372
 31
0.0
  0
LINE
  5
109
330
1F
100
AcDbEntity
  8
0
  6
Continuous
 62
   144
370
     0
100
AcDbLine
 10
4.7837237982
 20
5.7672769372
 30
0.0
 11
4.7697237982
 21
5.7672769372
 31
0.0
  0
LINE
  5
10A
330
1F
100
AcDbEntity
  8
0
  6
Continuous
 62
   144
370
     0
100
AcDbLine
 10
5.6097237982
 20
5.7672769372
 30
0.0
 11
5.5957237982
 21
5.7672769372
 31
0.0
  0
LINE
  5
10B
330
1F
100
AcDbEntity
  8
0
  6
Continuous
 62
   144
370
     0
100
AcDbLine
 10
5.2972598387
 20
5.7672769372
 30
0.0
 11
5.1897237982
 21
5.7672769372
 31
0.0
  0
SPLINE
  5
10C
330
1F
100
AcDbEntity
  8
0
  6
Continuous
 62
     7
370
    15
100
AcDbSpline
210
0.0
220
0.0
230
1.0
 70
    11
 71
     3
 72
    54
 73
    50
 74
     0
 42
0.000000001
 43
0.00000001
 40
0.0
 40
0.0
 40
0.0
 40
0.0
 40
0.0312499999999995
 40
0.0312499999999995
 40
0.062499999999999
 40
0.062499999999999
 40
0.0937499999999985
 40
0.0937499999999985
 40
0.1249999999999979
 40
0.1249999999999979
 40
0.1874999999999971
 40
0.1874999999999971
 40
0.2499999999999962
 40
0.2499999999999962
 40
0.2812499999999959
 40
0.2812499999999959
 40
0.3124999999999957
 40
0.3124999999999957
 40
0.374999999999996
 40
0.374999999999996
 40
0.4062499999999962
 40
0.4062499999999962
 40
0.4374999999999964
 40
0.4374999999999964
 40
0.4687499999999966
 40
0.4687499999999966
 40
0.4999999999999968
 40
0.4999999999999968
 40
0.5624999999999972
 40
0.5624999999999972
 40
0.6249999999999976
 40
0.6249999999999976
 40
0.6562499999999978
 40
0.6562499999999978
 40
0.6874999999999979
 40
0.6874999999999979
 40
0.7499999999999983
 40
0.7499999999999983
 40
0.7812499999999984
 40
0.7812499999999984
 40
0.8124999999999987
 40
0.8124999999999987
 40
0.8437499999999988
 40
0.8437499999999988
 40
0.8749999999999989
 40
0.8749999999999989
 40
0.9374999999999994
 40
0.9374999999999994
 40
1.0
 40
1.0
 40
1.0
 40
1.0
 10
4.940239789294484
 20
5.482276937220763
 30
0.0
 10
4.940239789294484
 20
5.48641214301109
 30
0.0
 10
4.939908816562013
 20
5.490477081938872
 30
0.0
 10
4.938617811277341
 20
5.498472535489816
 30
0.0
 10
4.937641855013629
 20
5.502444914619916
 30
0.0
 10
4.935114243400018
 20
5.510010808411907
 30
0.0
 10
4.93357428195666
 20
5.513598304887744
 30
0.0
 10
4.929967477826823
 20
5.520387769932994
 30
0.0
 10
4.927884762290779
 20
5.523597906315255
 30
0.0
 10
4.921132024709386
 20
5.532232118229937
 30
0.0
 10
4.915777187411845
 20
5.536886935050513
 30
0.0
 10
4.904538028665522
 20
5.543124889009892
 30
0.0
 10
4.898537631032402
 20
5.544772311729949
 30
0.0
 10
4.889877086294894
 20
5.544779234986073
 30
0.0
 10
4.886987648258448
 20
5.544372189317148
 30
0.0
 10
4.881481479421375
 20
5.542775376173825
 30
0.0
 10
4.87884543457464
 20
5.541593966756486
 30
0.0
 10
4.871269915690643
 20
5.536892168388324
 30
0.0
 10
4.866831168079216
 20
5.532308530091558
 30
0.0
 10
4.861304794701878
 20
5.523574371682689
 30
0.0
 10
4.859693715775947
 20
5.520424347811116
 30
0.0
 10
4.856891967829039
 20
5.513662420533469
 30
0.0
 10
4.855691861439161
 20
5.510006285728398
 30
0.0
 10
4.853781446734358
 20
5.502444058357804
 30
0.0
 10
4.853065957638273
 20
5.498548557304868
 30
0.0
 10
4.852098703139383
 20
5.490528713049061
 30
0.0
 10
4.851852386952634
 20
5.486382526342583
 30
0.0
 10
4.851849559355792
 20
5.474137839012309
 30
0.0
 10
4.852827969685109
 20
5.46590307097898
 30
0.0
 10
4.856619997382864
 20
5.450854770957283
 30
0.0
 10
4.859472334486689
 20
5.443891277492105
 30
0.0
 10
4.864930710897127
 20
5.435241205726544
 30
0.0
 10
4.86698231516085
 20
5.432601577954062
 30
0.0
 10
4.871377111301152
 20
5.428065944046154
 30
0.0
 10
4.873730785728539
 20
5.426142492570382
 30
0.0
 10
4.881300316611737
 20
5.421420299567791
 30
0.0
 10
4.886859764773002
 20
5.419783976774919
 30
0.0
 10
4.895622247028787
 20
5.419773451252835
 30
0.0
 10
4.898538674276322
 20
5.420175575574977
 30
0.0
 10
4.904358554794608
 20
5.421759751371837
 30
0.0
 10
4.907293912476826
 20
5.422962206555891
 30
0.0
 10
4.912947213739285
 20
5.426092644486942
 30
0.0
 10
4.915666336405894
 20
5.428009206607481
 30
0.0
 10
4.92087168615064
 20
5.432541939871148
 30
0.0
 10
4.923359737965599
 20
5.435173766186669
 30
0.0
 10
4.930114180652866
 20
5.443799404911586
 30
0.0
 10
4.933844312438838
 20
5.450760109835799
 30
0.0
 10
4.938877965800665
 20
5.465790805008459
 30
0.0
 10
4.940239789294483
 20
5.474006525640108
 30
0.0
 10
4.940239789294483
 20
5.482276937220762
 30
0.0
  0
SPLINE
  5
10D
330
1F
100
AcDbEntity
  8
0
  6
Continuous
 62
     7
370
    15
100
AcDbSpline
210
0.0
220
0.0
230
1.0
 70
     8
 71
     3
 72
    17
 73
    13
 74
     0
 42
0.000000001
 43
0.00000001
 40
0.0
 40
0.0
 40
0.0
 40
0.0
 40
0.1067140084488813
 40
0.2134050901567
 40
0.3206930859337206
 40
0.4283944923850123
 40
0.5354396561328673
 40
0.6417814714865054
 40
0.7484699157849105
 40
0.8560110578156808
 40
0.9635882079430732
 40
1.0
 40
1.0
 40
1.0
 40
1.0
 10
5.60972379818061
 20
5.560776937220763
 30
0.0
 10
5.609638221070251
 20
5.561395877748701
 30
0.0
 10
5.609467085235162
 20
5.562633625829632
 30
0.0
 10
5.608274675305643
 20
5.572275315345106
 30
0.0
 10
5.606936271764389
 20
5.586519614607384
 30
0.0
 10
5.605961132680418
 20
5.604391559477541
 30
0.0
 10
5.605808293757798
 20
5.623660384390638
 30
0.0
 10
5.606525295593721
 20
5.642111710982867
 30
0.0
 10
5.6078146386491
 20
5.657912368473084
 30
0.0
 10
5.609054210598898
 20
5.668796147604851
 30
0.0
 10
5.609757862724744
 20
5.674033671804038
 30
0.0
 10
5.60965474673346
 20
5.673259203067264
 30
0.0
 10
5.609628670855858
 20
5.673063356121171
 30
0.0
  0
SPLINE
  5
10E
330
1F
100
AcDbEntity
  8
0
  6
Continuous
 62
   144
370
     0
100
AcDbSpline
210
0.0
220
0.0
230
1.0
 70
     8
 71
     3
 72
    14
 73
    10
 74
     0
 42
0.000000001
 43
0.00000001
 40
0.0
 40
0.0
 40
0.0
 40
0.0
 40
0.1357591750017218
 40
0.2826319909008779
 40
0.4309570573520704
 40
0.5788461163509292
 40
0.7250458195745128
 40
0.8709560140826197
 40
0.9999999999999999
 40
0.9999999999999999
 40
0.9999999999999999
 40
0.9999999999999999
 10
4.902938217108525
 20
5.543112734689863
 30
0.0
 10
4.898750969513319
 20
5.541242732674768
 30
0.0
 10
4.890033694056888
 20
5.537349644841051
 30
0.0
 10
4.880080694748954
 20
5.523639582480851
 30
0.0
 10
4.873391031677442
 20
5.505467313887192
 30
0.0
 10
4.870844703138165
 20
5.484474024900322
 30
0.0
 10
4.872556708829283
 20
5.463495693455381
 30
0.0
 10
4.877895181969898
 20
5.445087312379464
 30
0.0
 10
4.884049226367916
 20
5.436368792108472
 30
0.0
 10
4.886937498215261
 20
5.432276937220763
 30
0.0
  0
SPLINE
  5
10F
330
1F
100
AcDbEntity
  8
0
  6
Continuous
 62
   144
370
     0
100
AcDbSpline
210
0.0
220
0.0
230
1.0
 70
     8
 71
     3
 72
     9
 73
     5
 74
     0
 42
0.000000001
 43
0.00000001
 40
0.0
 40
0.0
 40
0.0
 40
0.0
 40
0.793357769179389
 40
1.0
 40
1.0
 40
1.0
 40
1.0
 10
4.886937498215261
 20
5.432276937220763
 30
0.0
 10
4.892252247389109
 20
5.428938399130778
 30
0.0
 10
4.8989513047127
 20
5.424730287456976
 30
0.0
 10
4.905220853822378
 20
5.423236087536845
 30
0.0
 10
4.906516407436641
 20
5.422927322732057
 30
0.0
  0
LINE
  5
110
330
1F
100
AcDbEntity
  8
0
  6
Continuous
 62
     7
370
    15
100
AcDbLine
 10
4.6897237982
 20
3.1072769372
 30
0.0
 11
4.6297237982
 21
3.1072769372
 31
0.0
  0
LINE
  5
111
330
1F
100
AcDbEntity
  8
0
  6
Continuous
 62
     7
370
    15
100
AcDbLine
 10
4.6897237982
 20
3.1072769372
 30
0.0
 11
5.6897237982
 21
3.1072769372
 31
0.0
  0
LINE
  5
112
330
1F
100
AcDbEntity
  8
0
  6
Continuous
 62
     7
370
    15
100
AcDbLine
 10
5.7497237982
 20
3.1072769372
 30
0.0
 11
5.6897237982
 21
3.1072769372
 31
0.0
  0
LINE
  5
113
330
1F
100
AcDbEntity
  8
0
  6
Continuous
 62
     7
370
    15
100
AcDbLine
 10
4.6297237982
 20
3.3572769372
 30
0.0
 11
4.6897237982
 21
3.3572769372
 31
0.0
  0
LINE
  5
114
330
1F
100
AcDbEntity
  8
0
  6
Continuous
 62
     7
370
    15
100
AcDbLine
 10
5.6897237982
 20
3.3572769372
 30
0.0
 11
5.7497237982
 21
3.3572769372
 31
0.0
  0
LINE
  5
115
330
1F
100
AcDbEntity
  8
0
  6
Continuous
 62
     7
370
    15
100
AcDbLine
 10
4.6897237982
 20
3.3572769372
 30
0.0
 11
5.6897237982
 21
3.3572769372
 31
0.0
  0
LINE
  5
116
330
1F
100
AcDbEntity
  8
0
  6
Continuous
 62
     7
370
    15
100
AcDbLine
 10
5.7497237982
 20
3.3572769372
 30
0.0
 11
5.7497237982
 21
3.1072769372
 31
0.0
  0
LINE
  5
117
330
1F
100
AcDbEntity
  8
0
  6
Continuous
 62
     7
370
    15
100
AcDbLine
 10
5.6897237982
 20
3.1072769372
 30
0.0
 11
5.6897237982
 21
3.3572769372
 31
0.0
  0
LINE
  5
118
330
1F
100
AcDbEntity
  8
0
  6
Continuous
 62
     7
370
    15
100
AcDbLine
 10
4.6897237982
 20
3.3572769372
 30
0.0
 11
4.6897237982
 21
3.1072769372
 31
0.0
  0
LINE
  5
119
330
1F
100
AcDbEntity
  8
0
  6
Continuous
 62
     7
370
    15
100
AcDbLine
 10
4.6297237982
 20
3.1072769372
 30
0.0
 11
4.6297237982
 21
3.3572769372
 31
0.0
  0
LINE
  5
11A
330
1F
100
AcDbEntity
  8
0
  6
Continuous
 62
     7
370
    15
100
AcDbLine
 10
5.1897237982
 20
3.6072769372
 30
0.0
 11
5.3772237982
 21
3.6072769372
 31
0.0
  0
LINE
  5
11B
330
1F
100
AcDbEntity
  8
0
  6
Continuous
 62
     7
370
    15
100
AcDbLine
 10
5.0022237982
 20
3.6072769372
 30
0.0
 11
5.1897237982
 21
3.6072769372
 31
0.0
  0
LINE
  5
11C
330
1F
100
AcDbEntity
  8
0
  6
Continuous
 62
     7
370
    15
100
AcDbLine
 10
5.1897237982
 20
3.4822769372
 30
0.0
 11
4.8772237982
 21
3.4822769372
 31
0.0
  0
LINE
  5
11D
330
1F
100
AcDbEntity
  8
0
  6
Continuous
 62
     7
370
    15
100
AcDbLine
 10
5.5022237982
 20
3.4822769372
 30
0.0
 11
5.1897237982
 21
3.4822769372
 31
0.0
  0
LINE
  5
11E
330
1F
100
AcDbEntity
  8
0
  6
Continuous
 62
     7
370
    15
100
AcDbLine
 10
5.1897237982
 20
3.8072769372
 30
0.0
 11
5.3772237982
 21
3.8072769372
 31
0.0
  0
LINE
  5
11F
330
1F
100
AcDbEntity
  8
0
  6
Continuous
 62
     7
370
    15
100
AcDbLine
 10
5.0022237982
 20
3.8072769372
 30
0.0
 11
5.1897237982
 21
3.8072769372
 31
0.0
  0
LINE
  5
120
330
1F
100
AcDbEntity
  8
0
  6
Continuous
 62
     7
370
    15
100
AcDbLine
 10
5.4232237982
 20
6.1312769372
 30
0.0
 11
5.5502237905
 21
6.1312769372
 31
0.0
  0
LINE
  5
121
330
1F
100
AcDbEntity
  8
0
  6
Continuous
 62
     7
370
    15
100
AcDbLine
 10
5.2972598387
 20
5.7672769372
 30
0.0
 11
5.4867237982
 21
5.7672769372
 31
0.0
  0
LINE
  5
122
330
1F
100
AcDbEntity
  8
0
  6
Continuous
 62
     7
370
    15
100
AcDbLine
 10
5.4867237982
 20
5.7672769372
 30
0.0
 11
5.5957237982
 21
5.7672769372
 31
0.0
  0
LINE
  5
123
330
1F
100
AcDbEntity
  8
0
  6
Continuous
 62
     7
370
    15
100
AcDbLine
 10
5.6097237982
 20
5.7672769372
 30
0.0
 11
5.5957237982
 21
5.7672769372
 31
0.0
  0
LINE
  5
124
330
1F
100
AcDbEntity
  8
0
  6
Continuous
 62
     7
370
    15
100
AcDbLine
 10
4.7837237982
 20
5.7672769372
 30
0.0
 11
4.7697237982
 21
5.7672769372
 31
0.0
  0
LINE
  5
125
330
1F
100
AcDbEntity
  8
0
  6
Continuous
 62
     7
370
    15
100
AcDbLine
 10
4.7837237982
 20
5.7672769372
 30
0.0
 11
4.8927237982
 21
5.7672769372
 31
0.0
  0
LINE
  5
126
330
1F
100
AcDbEntity
  8
0
  6
Continuous
 62
     7
370
    15
100
AcDbLine
 10
4.8927237982
 20
5.7672769372
 30
0.0
 11
5.0821877577
 21
5.7672769372
 31
0.0
  0
LINE
  5
127
330
1F
100
AcDbEntity
  8
0
  6
Continuous
 62
     7
370
    15
100
AcDbLine
 10
5.2972598387
 20
5.7672769372
 30
0.0
 11
5.0821877577
 21
5.7672769372
 31
0.0
  0
LINE
  5
128
330
1F
100
AcDbEntity
  8
0
  6
Continuous
 62
     7
370
    15
100
AcDbLine
 10
5.0821877577
 20
6.0072769372
 30
0.0
 11
5.0821877577
 21
5.7672769372
 31
0.0
  0
LINE
  5
129
330
1F
100
AcDbEntity
  8
0
  6
Continuous
 62
     7
370
    15
100
AcDbLine
 10
5.2972598387
 20
5.7672769372
 30
0.0
 11
5.2972598387
 21
6.0072769372
 31
0.0
  0
LINE
  5
12A
330
1F
100
AcDbEntity
  8
0
  6
Continuous
 62
     7
370
    15
100
AcDbLine
 10
4.7757237982
 20
6.0072769372
 30
0.0
 11
4.7697237982
 21
6.0072769372
 31
0.0
  0
LINE
  5
12B
330
1F
100
AcDbEntity
  8
0
  6
Continuous
 62
     7
370
    15
100
AcDbLine
 10
5.6097237982
 20
6.0072769372
 30
0.0
 11
5.6037237982
 21
6.0072769372
 31
0.0
  0
LINE
  5
12C
330
1F
100
AcDbEntity
  8
0
  6
Continuous
 62
     7
370
    15
100
AcDbLine
 10
4.8927237982
 20
5.7672769372
 30
0.0
 11
4.8927237982
 21
6.0072769372
 31
0.0
  0
LINE
  5
12D
330
1F
100
AcDbEntity
  8
0
  6
Continuous
 62
     7
370
    15
100
AcDbLine
 10
4.7837237982
 20
5.7672769372
 30
0.0
 11
4.7837237982
 21
6.0072769372
 31
0.0
  0
LINE
  5
12E
330
1F
100
AcDbEntity
  8
0
  6
Continuous
 62
     7
370
    15
100
AcDbLine
 10
5.4867237982
 20
5.7672769372
 30
0.0
 11
5.4867237982
 21
6.0072769372
 31
0.0
  0
LINE
  5
12F
330
1F
100
AcDbEntity
  8
0
  6
Continuous
 62
     7
370
    15
100
AcDbLine
 10
5.5957237982
 20
5.7672769372
 30
0.0
 11
5.5957237982
 21
6.0072769372
 31
0.0
  0
SPLINE
  5
130
330
1F
100
AcDbEntity
  8
0
  6
Continuous
 62
     7
370
    15
100
AcDbSpline
210
0.0
220
0.0
230
1.0
 70
     8
 71
     3
 72
    13
 73
     9
 74
     0
 42
0.000000001
 43
0.00000001
 40
0.0
 40
0.0
 40
0.0
 40
0.0
 40
0.1942694626679728
 40
0.3884997939232659
 40
0.5837441902215382
 40
0.779661847599071
 40
0.9744843212119767
 40
1.0
 40
1.0
 40
1.0
 40
1.0
 10
4.881942092922992
 20
5.482276937220764
 30
0.0
 10
4.882278093846212
 20
5.487875318902788
 30
0.0
 10
4.882950028012481
 20
5.499070954593031
 30
0.0
 10
4.888267389253706
 20
5.513954043157954
 30
0.0
 10
4.896395434520694
 20
5.525467332138889
 30
0.0
 10
4.906965944033746
 20
5.531611036382573
 30
0.0
 10
4.915586787719604
 20
5.533422070607159
 30
0.0
 10
4.920023978805294
 20
5.531572709186568
 30
0.0
 10
4.92053781601973
 20
5.531358548763343
 30
0.0
  0
LINE
  5
131
330
1F
100
AcDbEntity
  8
0
  6
Continuous
 62
   144
370
     0
100
AcDbLine
 10
4.8753637422
 20
5.4547769372
 30
0.0
 11
4.8819420929
 21
5.4547769372
 31
0.0
  0
LINE
  5
132
330
1F
100
AcDbEntity
  8
0
  6
Continuous
 62
   144
370
     0
100
AcDbLine
 10
4.8819420929
 20
5.4547769372
 30
0.0
 11
4.8819420929
 21
5.4822769372
 31
0.0
  0
LINE
  5
133
330
1F
100
AcDbEntity
  8
0
  6
Continuous
 62
   144
370
     0
100
AcDbLine
 10
4.9339330211
 20
5.4547769372
 30
0.0
 11
4.8819420929
 21
5.4547769372
 31
0.0
  0
LINE
  5
134
330
1F
100
AcDbEntity
  8
0
  6
Continuous
 62
   144
370
     0
100
AcDbLine
 10
4.8819420929
 20
5.4822769372
 30
0.0
 11
4.9280942891
 21
5.4822769372
 31
0.0
  0
ARC
  5
135
330
1F
100
AcDbEntity
  8
0
  6
Continuous
 62
   144
370
     0
100
AcDbCircle
 10
4.9929785879
 20
5.4828912449
 30
0.0
 40
0.0648872067214641
100
AcDbArc
 50
155.3986089496
 51
180.5424453286
  0
LINE
  5
136
330
1F
100
AcDbEntity
  8
0
  6
Continuous
 62
     7
370
    15
100
AcDbLine
 10
5.4947237982
 20
6.0692769372
 30
0.0
 11
5.6037237982
 21
6.0692769372
 31
0.0
  0
LINE
  5
137
330
1F
100
AcDbEntity
  8
0
  6
Continuous
 62
     7
370
    15
100
AcDbLine
 10
4.8847237982
 20
6.0692769372
 30
0.0
 11
5.4947237982
 21
6.0692769372
 31
0.0
  0
LINE
  5
138
330
1F
100
AcDbEntity
  8
0
  6
Continuous
 62
     7
370
    15
100
AcDbLine
 10
4.7757237982
 20
6.0692769372
 30
0.0
 11
4.8847237982
 21
6.0692769372
 31
0.0
  0
LINE
  5
139
330
1F
100
AcDbEntity
  8
0
  6
Continuous
 62
     7
370
    15
100
AcDbLine
 10
5.6037237982
 20
6.0692769372
 30
0.0
 11
5.6037237982
 21
6.0072769372
 31
0.0
  0
LINE
  5
13A
330
1F
100
AcDbEntity
  8
0
  6
Continuous
 62
     7
370
    15
100
AcDbLine
 10
5.6037237982
 20
6.0072769372
 30
0.0
 11
5.4947237982
 21
6.0072769372
 31
0.0
  0
LINE
  5
13B
330
1F
100
AcDbEntity
  8
0
  6
Continuous
 62
     7
370
    15
100
AcDbLine
 10
5.4947237982
 20
6.0072769372
 30
0.0
 11
5.4947237982
 21
6.0692769372
 31
0.0
  0
LINE
  5
13C
330
1F
100
AcDbEntity
  8
0
  6
Continuous
 62
     7
370
    15
100
AcDbLine
 10
4.8847237982
 20
6.0072769372
 30
0.0
 11
4.7757237982
 21
6.0072769372
 31
0.0
  0
LINE
  5
13D
330
1F
100
AcDbEntity
  8
0
  6
Continuous
 62
     7
370
    15
100
AcDbLine
 10
4.8847237982
 20
6.0072769372
 30
0.0
 11
5.4947237982
 21
6.0072769372
 31
0.0
  0
LINE
  5
13E
330
1F
100
AcDbEntity
  8
0
  6
Continuous
 62
     7
370
    15
100
AcDbLine
 10
4.8847237982
 20
6.0692769372
 30
0.0
 11
4.8847237982
 21
6.0072769372
 31
0.0
  0
LINE
  5
13F
330
1F
100
AcDbEntity
  8
0
  6
Continuous
 62
     7
370
    15
100
AcDbLine
 10
4.7757237982
 20
6.0072769372
 30
0.0
 11
4.7757237982
 21
6.0692769372
 31
0.0
  0
LWPOLYLINE
  5
140
330
1F
100
AcDbEntity
  8
0
  6
Continuous
 62
     7
370
    15
100
AcDbPolyline
 90
       25
 70
   128
 43
0.0
 10
5.3525900144
 20
6.3927769372
 10
5.351424405
 20
6.4030002895
 10
5.348007011
 20
6.4125269372
 10
5.3425707222
 20
6.4207076551
 10
5.3354860127
 20
6.4269849407
 10
5.3272356937
 20
6.4309310074
 10
5.318382011
 20
6.4322769372
 10
5.3095283282
 20
6.4309310074
 10
5.3012780092
 20
6.4269849407
 10
5.2941932998
 20
6.4207076551
 10
5.288757011
 20
6.4125269372
 10
5.285339617
 20
6.4030002895
 10
5.2841740075
 20
6.3927769372
 10
5.285339617
 20
6.3825535849
 10
5.288757011
 20
6.3730269372
 10
5.2941932998
 20
6.3648462194
 10
5.3012780092
 20
6.3585689338
 10
5.3095283282
 20
6.3546228671
 10
5.318382011
 20
6.3532769372
 10
5.3272356937
 20
6.3546228671
 10
5.3354860127
 20
6.3585689338
 10
5.3425707222
 20
6.3648462194
 10
5.348007011
 20
6.3730269372
 10
5.351424405
 20
6.3825535849
 10
5.3525900144
 20
6.3927769372
  0
SPLINE
  5
141
330
1F
100
AcDbEntity
  8
0
  6
Continuous
 62
     7
370
    15
100
AcDbSpline
210
0.0
220
0.0
230
1.0
 70
     8
 71
     3
 72
    18
 73
    14
 74
     0
 42
0.000000001
 43
0.00000001
 40
0.0
 40
0.0
 40
0.0
 40
0.0
 40
0.0348942390266705
 40
0.1405595336995607
 40
0.2475866188322846
 40
0.3560864467289081
 40
0.4638827501664474
 40
0.5692384582886997
 40
0.6735379031405524
 40
0.7794746280993144
 40
0.8876405016577684
 40
0.9959528186748982
 40
1.0
 40
1.0
 40
1.0
 40
1.0
 10
5.295626594896269
 20
6.431792086145985
 30
0.0
 10
5.294348038051695
 20
6.431926197839978
 30
0.0
 10
5.289197808131386
 20
6.432466421031454
 30
0.0
 10
5.279956020362499
 20
6.428925525893332
 30
0.0
 10
5.269583750218974
 20
6.421489200364373
 30
0.0
 10
5.261922339477807
 20
6.410439204997382
 30
0.0
 10
5.258194637312702
 20
6.397460168942948
 30
0.0
 10
5.258888843971474
 20
6.384080353844129
 30
0.0
 10
5.263731918981091
 20
6.371825095552168
 30
0.0
 10
5.272122169333465
 20
6.361654957180658
 30
0.0
 10
5.283016064692051
 20
6.355326838748259
 30
0.0
 10
5.291485715672485
 20
6.352587018257714
 30
0.0
 10
5.295528100316765
 20
6.353331032781568
 30
0.0
 10
5.295673706730842
 20
6.353357832133033
 30
0.0
  0
LINE
  5
142
330
1F
100
AcDbEntity
  8
0
  6
Continuous
 62
     7
370
    15
100
AcDbLine
 10
4.9542237982
 20
6.4972769372
 30
0.0
 11
5.4252237982
 21
6.4972769372
 31
0.0
  0
SPLINE
  5
143
330
1F
100
AcDbEntity
  8
0
  6
Continuous
 62
     7
370
    15
100
AcDbSpline
210
0.0
220
0.0
230
1.0
 70
     8
 71
     3
 72
    11
 73
     7
 74
     0
 42
0.000000001
 43
0.00000001
 40
0.0
 40
0.0
 40
0.0
 40
0.0
 40
0.2756088313595697
 40
0.5511718505969251
 40
0.8278393481906392
 40
1.0
 40
1.0
 40
1.0
 40
1.0
 10
4.95567624100988
 20
6.392776937220764
 30
0.0
 10
4.955624269599329
 20
6.397214687808587
 30
0.0
 10
4.955520335416994
 20
6.406089451334531
 30
0.0
 10
4.95488111966724
 20
6.41775126440283
 30
0.0
 10
4.954291922747023
 20
6.42607100550809
 30
0.0
 10
4.954296846697821
 20
6.428462506825715
 30
0.0
 10
4.954298735417544
 20
6.429379834373449
 30
0.0
  0
SPLINE
  5
144
330
1F
100
AcDbEntity
  8
0
  6
Continuous
 62
     7
370
    15
100
AcDbSpline
210
0.0
220
0.0
230
1.0
 70
     8
 71
     3
 72
    11
 73
     7
 74
     0
 42
0.000000001
 43
0.00000001
 40
0.0
 40
0.0
 40
0.0
 40
0.0
 40
0.2525194855999089
 40
0.5261120793277516
 40
0.801944116807185
 40
1.0
 40
1.0
 40
1.0
 40
1.0
 10
4.954242715546791
 20
6.355767994071482
 30
0.0
 10
4.954291720103289
 20
6.357445522249873
 30
0.0
 10
4.954393818715814
 20
6.360940570705113
 30
0.0
 10
4.955068258500682
 20
6.370820763722732
 30
0.0
 10
4.955586727568991
 20
6.38196138779016
 30
0.0
 10
4.955649856863094
 20
6.389589046831177
 30
0.0
 10
4.955676241009122
 20
6.392776937220785
 30
0.0
  0
LINE
  5
145
330
1F
100
AcDbEntity
  8
0
  6
Continuous
 62
     7
370
    15
100
AcDbLine
 10
4.9092237982
 20
6.3927769372
 30
0.0
 11
4.9092237982
 21
6.4322769372
 31
0.0
  0
LINE
  5
146
330
1F
100
AcDbEntity
  8
0
  6
Continuous
 62
     7
370
    15
100
AcDbLine
 10
4.9092237982
 20
6.3532769372
 30
0.0
 11
4.9092237982
 21
6.3927769372
 31
0.0
  0
SPLINE
  5
147
330
1F
100
AcDbEntity
  8
0
  6
Continuous
 62
   144
370
     0
100
AcDbSpline
210
0.0
220
0.0
230
1.0
 70
    24
 71
     3
 72
    14
 73
    10
 74
     0
 42
0.000000001
 43
0.00000001
 40
0.0
 40
0.0
 40
0.0
 40
0.0
 40
0.25
 40
0.25
 40
0.5
 40
0.5
 40
0.75
 40
0.75
 40
1.0
 40
1.0
 40
1.0
 40
1.0
 10
4.779723798180599
 20
4.192276937220763
 30
0.0
 10
4.779723798180599
 20
4.192276937220763
 30
0.0
 10
4.822922278776736
 20
4.192276937220763
 30
0.0
 10
4.976697757011492
 20
4.192276937220763
 30
0.0
 10
5.080988114740599
 20
4.192276937220763
 30
0.0
 10
5.298459481620599
 20
4.192276937220763
 30
0.0
 10
5.402749839349705
 20
4.192276937220763
 30
0.0
 10
5.556525317584462
 20
4.192276937220763
 30
0.0
 10
5.599723798180599
 20
4.192276937220763
 30
0.0
 10
5.599723798180599
 20
4.192276937220763
 30
0.0
  0
SPLINE
  5
148
330
1F
100
AcDbEntity
  8
0
  6
Continuous
 62
     7
370
    15
100
AcDbSpline
210
0.0
220
0.0
230
1.0
 70
    24
 71
     3
 72
    14
 73
    10
 74
     0
 42
0.000000001
 43
0.00000001
 40
0.0
 40
0.0
 40
0.0
 40
0.0
 40
0.25
 40
0.25
 40
0.5
 40
0.5
 40
0.75
 40
0.75
 40
1.0
 40
1.0
 40
1.0
 40
1.0
 10
5.599723798180599
 20
3.982276937220763
 30
0.0
 10
5.599723798180598
 20
3.982276937220763
 30
0.0
 10
5.556525317584462
 20
3.982276937220763
 30
0.0
 10
5.402749839349705
 20
3.982276937220763
 30
0.0
 10
5.298459481620599
 20
3.982276937220763
 30
0.0
 10
5.080988114740598
 20
3.982276937220763
 30
0.0
 10
4.976697757011492
 20
3.982276937220763
 30
0.0
 10
4.822922278776736
 20
3.982276937220763
 30
0.0
 10
4.779723798180599
 20
3.982276937220763
 30
0.0
 10
4.779723798180599
 20
3.982276937220763
 30
0.0
  0
LINE
  5
149
330
1F
100
AcDbEntity
  8
0
  6
Continuous
 62
     7
370
    15
100
AcDbLine
 10
5.0022237982
 20
3.8072769372
 30
0.0
 11
5.3772237982
 21
3.8072769372
 31
0.0
  0
LINE
  5
14A
330
1F
100
AcDbEntity
  8
0
  6
Continuous
 62
     7
370
    15
100
AcDbLine
 10
4.8292238058
 20
6.1312769372
 30
0.0
 11
4.9562237982
 21
6.1312769372
 31
0.0
  0
LINE
  5
14B
330
1F
100
AcDbEntity
  8
0
  6
Continuous
 62
     8
370
    15
100
AcDbLine
 10
5.5702237982
 20
6.1112769372
 30
0.0
 11
5.4032237982
 21
6.1112769372
 31
0.0
  0
LINE
  5
14C
330
1F
100
AcDbEntity
  8
0
  6
Continuous
 62
     8
370
    15
100
AcDbLine
 10
5.6097237982
 20
4.1822769372
 30
0.0
 11
4.7697237982
 21
4.1822769372
 31
0.0
  0
LINE
  5
14D
330
1F
100
AcDbEntity
  8
0
  6
Continuous
 62
     8
370
    15
100
AcDbLine
 10
5.6097237982
 20
3.9922769372
 30
0.0
 11
4.7697237982
 21
3.9922769372
 31
0.0
  0
LINE
  5
14E
330
1F
100
AcDbEntity
  8
0
  6
Continuous
 62
     8
370
    15
100
AcDbLine
 10
5.3772237982
 20
3.9622769372
 30
0.0
 11
5.0022237982
 21
3.9622769372
 31
0.0
  0
LINE
  5
14F
330
1F
100
AcDbEntity
  8
0
  6
Continuous
 62
     8
370
    15
100
AcDbLine
 10
4.9762237982
 20
6.1112769372
 30
0.0
 11
4.8092237982
 21
6.1112769372
 31
0.0
  0
LINE
  5
150
330
1F
100
AcDbEntity
  8
0
  6
Continuous
 62
     7
370
    15
100
AcDbLine
 10
2.532397278
 20
8.5876483877
 30
0.0
 11
2.532397278
 21
8.5877434537
 31
0.0
  0
LINE
  5
151
330
1F
100
AcDbEntity
  8
0
  6
Continuous
 62
     7
370
    15
100
AcDbLine
 10
2.419397278
 20
8.5876525463
 30
0.0
 11
2.419397278
 21
8.5876483877
 31
0.0
  0
LINE
  5
152
330
1F
100
AcDbEntity
  8
0
  6
Continuous
 62
     7
370
    15
100
AcDbLine
 10
2.532397278
 20
7.7552795254
 30
0.0
 11
2.532397278
 21
7.755283684
 31
0.0
  0
LINE
  5
153
330
1F
100
AcDbEntity
  8
0
  6
Continuous
 62
     7
370
    15
100
AcDbLine
 10
2.419397278
 20
7.755283684
 30
0.0
 11
2.419397278
 21
7.755188618
 31
0.0
  0
LINE
  5
154
330
1F
100
AcDbEntity
  8
0
  6
Continuous
 62
     7
370
    15
100
AcDbLine
 10
2.397897278
 20
8.0865446392
 30
0.0
 11
2.397897278
 21
8.0404231039
 31
0.0
  0
LINE
  5
155
330
1F
100
AcDbEntity
  8
0
  6
Continuous
 62
     7
370
    15
100
AcDbLine
 10
2.553897278
 20
8.0404231039
 30
0.0
 11
2.553897278
 21
8.0865436366
 31
0.0
  0
LINE
  5
156
330
1F
100
AcDbEntity
  8
0
  6
Continuous
 62
     7
370
    15
100
AcDbLine
 10
2.2199196738
 20
8.2890998196
 30
0.0
 11
2.2601486693
 21
8.2658735982
 31
0.0
  0
LINE
  5
157
330
1F
100
AcDbEntity
  8
0
  6
Continuous
 62
     7
370
    15
100
AcDbLine
 10
2.3035028392
 20
8.3320643991
 30
0.0
 11
2.2594196738
 21
8.3575158265
 31
0.0
  0
LINE
  5
158
330
1F
100
AcDbEntity
  8
0
  6
Continuous
 62
     7
370
    15
100
AcDbLine
 10
2.7057599253
 20
8.3343322521
 30
0.0
 11
2.6655309297
 21
8.3111060306
 31
0.0
  0
LINE
  5
159
330
1F
100
AcDbEntity
  8
0
  6
Continuous
 62
     7
370
    15
100
AcDbLine
 10
2.7011767598
 20
8.2404648177
 30
0.0
 11
2.7452599253
 21
8.2659162452
 31
0.0
  0
LINE
  5
15A
330
1F
100
AcDbEntity
  8
0
  6
Continuous
 62
     7
370
    15
100
AcDbLine
 10
2.5020122351
 20
7.8909660358
 30
0.0
 11
2.5020122351
 21
7.9374184787
 31
0.0
  0
LINE
  5
15B
330
1F
100
AcDbEntity
  8
0
  6
Continuous
 62
     7
370
    15
100
AcDbLine
 10
2.4230122351
 20
7.9418688907
 30
0.0
 11
2.4230122351
 21
7.8909660358
 31
0.0
  0
LWPOLYLINE
  5
15C
330
1F
100
AcDbEntity
  8
0
  6
Continuous
 62
   144
370
     0
100
AcDbPolyline
 90
        3
 70
   128
 43
0.0
 10
2.777897278
 20
7.8795824974
 10
2.7728821261
 20
7.8744811877
 10
2.7677808165
 20
7.8694660358
  0
LWPOLYLINE
  5
15D
330
1F
100
AcDbEntity
  8
0
  6
Continuous
 62
   144
370
     0
100
AcDbPolyline
 90
        3
 70
   128
 43
0.0
 10
2.1840137396
 20
7.8694660358
 10
2.17891243
 20
7.8744811877
 10
2.173897278
 20
7.8795824974
  0
LWPOLYLINE
  5
15E
330
1F
100
AcDbEntity
  8
0
  6
Continuous
 62
   144
370
     0
100
AcDbPolyline
 90
        3
 70
   128
 43
0.0
 10
2.173897278
 20
8.4633495742
 10
2.17891243
 20
8.4684508839
 10
2.1840137396
 20
8.4734660358
  0
LWPOLYLINE
  5
15F
330
1F
100
AcDbEntity
  8
0
  6
Continuous
 62
   144
370
     0
100
AcDbPolyline
 90
        3
 70
   128
 43
0.0
 10
2.7677808165
 20
8.4734660358
 10
2.7728821261
 20
8.4684508839
 10
2.777897278
 20
8.4633495742
  0
LINE
  5
160
330
1F
100
AcDbEntity
  8
0
  6
Continuous
 62
   144
370
     0
100
AcDbLine
 10
2.177095984
 20
7.8943847542
 30
0.0
 11
2.183897278
 21
7.8872262603
 31
0.0
  0
LINE
  5
161
330
1F
100
AcDbEntity
  8
0
  6
Continuous
 62
   144
370
     0
100
AcDbLine
 10
2.1916575025
 20
7.8794660358
 30
0.0
 11
2.1988159964
 21
7.8726647417
 31
0.0
  0
LWPOLYLINE
  5
162
330
1F
100
AcDbEntity
  8
0
  6
Continuous
 62
   144
370
     0
100
AcDbPolyline
 90
        3
 70
   128
 43
0.0
 10
2.7746985721
 20
8.4485473175
 10
2.7725078933
 20
8.4508911473
 10
2.767897278
 20
8.4557058114
  0
LINE
  5
163
330
1F
100
AcDbEntity
  8
0
  6
Continuous
 62
   144
370
     0
100
AcDbLine
 10
2.7601370536
 20
8.4634660358
 30
0.0
 11
2.7529785597
 21
8.4702673299
 31
0.0
  0
CIRCLE
  5
164
330
1F
100
AcDbEntity
  8
0
  6
Continuous
 62
   144
370
     0
100
AcDbCircle
 10
2.475897278
 20
8.1714660358
 30
0.0
 40
0.1524999999999999
  0
SPLINE
  5
165
330
1F
100
AcDbEntity
  8
0
  6
Continuous
 62
     7
370
    15
100
AcDbSpline
210
0.0
220
0.0
230
1.0
 70
     8
 71
     3
 72
    19
 73
    15
 74
     0
 42
0.000000001
 43
0.00000001
 40
0.0
 40
0.0
 40
0.0
 40
0.0
 40
0.014926723934438
 40
0.1840840537001683
 40
0.2720664002713585
 40
0.3619929958283126
 40
0.4208646084672663
 40
0.4803188267938466
 40
0.5334886144516401
 40
0.5909041905409875
 40
0.6853505327876525
 40
0.8156425908491153
 40
0.949496816674311
 40
1.0
 40
1.0
 40
1.0
 40
1.0
 10
2.427777426253183
 20
8.09546641755364
 30
0.0
 10
2.428024294471726
 20
8.095291596849837
 30
0.0
 10
2.431068800593678
 20
8.093135617817323
 30
0.0
 10
2.437261152183134
 20
8.089970362899324
 30
0.0
 10
2.446773839838447
 20
8.086159098692402
 30
0.0
 10
2.454936998407729
 20
8.083784375550294
 30
0.0
 10
2.463904761304676
 20
8.082132425611317
 30
0.0
 10
2.472828350377476
 20
8.081357143801345
 30
0.0
 10
2.482219526032634
 20
8.081542385638908
 30
0.0
 10
2.492259438366169
 20
8.082757818310453
 30
0.0
 10
2.503091661787771
 20
8.08539432096073
 30
0.0
 10
2.513051982818551
 20
8.089326347025699
 30
0.0
 10
2.520452626154794
 20
8.09296365690182
 30
0.0
 10
2.523267188074183
 20
8.095119435680028
 30
0.0
 10
2.5240382139703
 20
8.095709993398032
 30
0.0
  0
SPLINE
  5
166
330
1F
100
AcDbEntity
  8
0
  6
Continuous
 62
   144
370
     0
100
AcDbSpline
210
0.0
220
0.0
230
1.0
 70
     8
 71
     3
 72
    19
 73
    15
 74
     0
 42
0.000000001
 43
0.00000001
 40
0.0
 40
0.0
 40
0.0
 40
0.0
 40
0.0031121111291512
 40
0.0986068803585266
 40
0.1949739700679665
 40
0.2912972460644213
 40
0.3864815993758997
 40
0.4798475443534471
 40
0.571674881018135
 40
0.6631387288738859
 40
0.7555927145802107
 40
0.8497908452763837
 40
0.9099979336323712
 40
1.0
 40
1.0
 40
1.0
 40
1.0
 10
2.551912490147426
 20
8.099703116168643
 30
0.0
 10
2.552009794382716
 20
8.099493004444687
 30
0.0
 10
2.555092867797972
 20
8.092835638828154
 30
0.0
 10
2.55424367934431
 20
8.078323541132903
 30
0.0
 10
2.546834463940643
 20
8.05857064278607
 30
0.0
 10
2.530375507364377
 20
8.041901740379455
 30
0.0
 10
2.507878363670593
 20
8.030547815928838
 30
0.0
 10
2.481940256722478
 20
8.025641780067454
 30
0.0
 10
2.45567730591411
 20
8.027485544528819
 30
0.0
 10
2.431813719799417
 20
8.035685806375882
 30
0.0
 10
2.412635105455009
 20
8.049426672950844
 30
0.0
 10
2.401971016662799
 20
8.065206225366316
 30
0.0
 10
2.396882350823789
 20
8.082333726571118
 30
0.0
 10
2.398822583852883
 20
8.093061435885378
 30
0.0
 10
2.399985129385973
 20
8.099489246543465
 30
0.0
  0
ARC
  5
167
330
1F
100
AcDbEntity
  8
0
  6
Continuous
 62
   144
370
     0
100
AcDbCircle
 10
2.475897278
 20
8.1714660358
 30
0.0
 40
0.0900000000000005
100
AcDbArc
 50
147.8205671554
 51
212.0585497442
  0
ARC
  5
168
330
1F
100
AcDbEntity
  8
0
  6
Continuous
 62
   144
370
     0
100
AcDbCircle
 10
2.475897278
 20
8.1714660358
 30
0.0
 40
0.0900000000000005
100
AcDbArc
 50
57.7583246417
 51
122.4018176654
  0
ARC
  5
169
330
1F
100
AcDbEntity
  8
0
  6
Continuous
 62
   144
370
     0
100
AcDbCircle
 10
2.475897278
 20
8.1714660358
 30
0.0
 40
0.0899999999999995
100
AcDbArc
 50
327.6425609723
 51
32.2600130184
  0
LINE
  5
16A
330
1F
100
AcDbEntity
  8
0
  6
Continuous
 62
     7
370
    15
100
AcDbLine
 10
1.975897278
 20
8.7314660358
 30
0.0
 11
1.915897278
 21
8.6714660358
 31
0.0
  0
LINE
  5
16B
330
1F
100
AcDbEntity
  8
0
  6
Continuous
 62
     7
370
    15
100
AcDbLine
 10
3.035897278
 20
8.6714660358
 30
0.0
 11
2.975897278
 21
8.7314660358
 31
0.0
  0
ARC
  5
16C
330
1F
100
AcDbEntity
  8
0
  6
Continuous
 62
     7
370
    15
100
AcDbCircle
 10
2.903397278
 20
7.7439660358
 30
0.0
 40
0.0935000000000005
100
AcDbArc
 50
180.0
 51
101.0511703671
  0
LWPOLYLINE
  5
16D
330
1F
100
AcDbEntity
  8
0
  6
Continuous
 62
     7
370
    15
100
AcDbPolyline
 90
        3
 70
   128
 43
0.0
 10
2.8116311063
 20
7.7618886396
 10
2.8112421904
 20
7.7597676125
 10
2.809897278
 20
7.7439660358
  0
LWPOLYLINE
  5
16E
330
1F
100
AcDbEntity
  8
0
  6
Continuous
 62
     7
370
    15
100
AcDbPolyline
 90
        3
 70
   128
 43
0.0
 10
2.141897278
 20
7.7439660358
 10
2.1405523657
 20
7.7597676125
 10
2.1401634498
 20
7.7618886396
  0
ARC
  5
16F
330
1F
100
AcDbEntity
  8
0
  6
Continuous
 62
     7
370
    15
100
AcDbCircle
 10
2.048397278
 20
7.7439660358
 30
0.0
 40
0.0935000000000005
100
AcDbArc
 50
78.9488296329
 51
0.0
  0
ARC
  5
170
330
1F
100
AcDbEntity
  8
0
  6
Continuous
 62
     7
370
    15
100
AcDbCircle
 10
2.048397278
 20
8.5989660358
 30
0.0
 40
0.0935000000000013
100
AcDbArc
 50
180.0
 51
281.0511703671
  0
ARC
  5
171
330
1F
100
AcDbEntity
  8
0
  6
Continuous
 62
     7
370
    15
100
AcDbCircle
 10
2.048397278
 20
8.5989660358
 30
0.0
 40
0.0935000000000004
100
AcDbArc
 50
348.9488296329
 51
180.0
  0
ARC
  5
172
330
1F
100
AcDbEntity
  8
0
  6
Continuous
 62
     7
370
    15
100
AcDbCircle
 10
2.903397278
 20
8.5989660358
 30
0.0
 40
0.0935000000000005
100
AcDbArc
 50
0.0
 51
191.0511703671
  0
ARC
  5
173
330
1F
100
AcDbEntity
  8
0
  6
Continuous
 62
     7
370
    15
100
AcDbCircle
 10
2.903397278
 20
8.5989660358
 30
0.0
 40
0.0934999999999997
100
AcDbArc
 50
258.9488296329
 51
0.0
  0
LINE
  5
174
330
1F
100
AcDbEntity
  8
0
  6
Continuous
 62
     7
370
    15
100
AcDbLine
 10
2.975897278
 20
7.6114660358
 30
0.0
 11
3.035897278
 21
7.6714660358
 31
0.0
  0
LINE
  5
175
330
1F
100
AcDbEntity
  8
0
  6
Continuous
 62
     7
370
    15
100
AcDbLine
 10
1.975897278
 20
7.6114660358
 30
0.0
 11
2.975897278
 21
7.6114660358
 31
0.0
  0
LINE
  5
176
330
1F
100
AcDbEntity
  8
0
  6
Continuous
 62
     7
370
    15
100
AcDbLine
 10
1.915897278
 20
7.6714660358
 30
0.0
 11
1.975897278
 21
7.6114660358
 31
0.0
  0
LINE
  5
177
330
1F
100
AcDbEntity
  8
0
  6
Continuous
 62
     7
370
    15
100
AcDbLine
 10
1.915897278
 20
8.6714660358
 30
0.0
 11
1.915897278
 21
7.6714660358
 31
0.0
  0
LINE
  5
178
330
1F
100
AcDbEntity
  8
0
  6
Continuous
 62
     7
370
    15
100
AcDbLine
 10
2.975897278
 20
8.7314660358
 30
0.0
 11
1.975897278
 21
8.7314660358
 31
0.0
  0
LINE
  5
179
330
1F
100
AcDbEntity
  8
0
  6
Continuous
 62
     7
370
    15
100
AcDbLine
 10
3.035897278
 20
7.6714660358
 30
0.0
 11
3.035897278
 21
8.6714660358
 31
0.0
  0
CIRCLE
  5
17A
330
1F
100
AcDbEntity
  8
0
  6
Continuous
 62
     7
370
    15
100
AcDbCircle
 10
2.270897278
 20
7.6724660358
 30
0.0
 40
0.0315000000000003
  0
ARC
  5
17B
330
1F
100
AcDbEntity
  8
0
  6
Continuous
 62
     7
370
    15
100
AcDbCircle
 10
2.475897278
 20
8.1714660358
 30
0.0
 40
0.0950000000000002
100
AcDbArc
 50
180.0
 51
213.7204846019
  0
ARC
  5
17C
330
1F
100
AcDbEntity
  8
0
  6
Continuous
 62
     7
370
    15
100
AcDbCircle
 10
2.475897278
 20
8.1714660358
 30
0.0
 40
0.0949999999999996
100
AcDbArc
 50
326.2238499453
 51
33.7267555754
  0
ARC
  5
17D
330
1F
100
AcDbEntity
  8
0
  6
Continuous
 62
     7
370
    15
100
AcDbCircle
 10
2.475897278
 20
8.1714660358
 30
0.0
 40
0.0950000000000007
100
AcDbArc
 50
56.3196913654
 51
123.9364495812
  0
ARC
  5
17E
330
1F
100
AcDbEntity
  8
0
  6
Continuous
 62
     7
370
    15
100
AcDbCircle
 10
2.475897278
 20
8.1714660358
 30
0.0
 40
0.0950000000000004
100
AcDbArc
 50
146.4741260883
 51
180.0
  0
ARC
  5
17F
330
1F
100
AcDbEntity
  8
0
  6
Continuous
 62
     7
370
    15
100
AcDbCircle
 10
2.475897278
 20
8.1714660358
 30
0.0
 40
0.1450000000000002
100
AcDbArc
 50
180.0
 51
237.4570938405
  0
ARC
  5
180
330
1F
100
AcDbEntity
  8
0
  6
Continuous
 62
     7
370
    15
100
AcDbCircle
 10
2.475897278
 20
8.1714660358
 30
0.0
 40
0.145
100
AcDbArc
 50
302.5429061595
 51
180.0
  0
ARC
  5
181
330
1F
100
AcDbEntity
  8
0
  6
Continuous
 62
     7
370
    15
100
AcDbCircle
 10
2.475897278
 20
8.1714660358
 30
0.0
 40
0.1499999999999995
100
AcDbArc
 50
0.0
 51
238.6677485024
  0
ARC
  5
182
330
1F
100
AcDbEntity
  8
0
  6
Continuous
 62
     7
370
    15
100
AcDbCircle
 10
2.475897278
 20
8.1714660358
 30
0.0
 40
0.1499999999999995
100
AcDbArc
 50
301.3322514976
 51
0.0
  0
CIRCLE
  5
183
330
1F
100
AcDbEntity
  8
0
  6
Continuous
 62
     7
370
    15
100
AcDbCircle
 10
2.178897278
 20
7.8744660358
 30
0.0
 40
0.0635000000000003
  0
CIRCLE
  5
184
330
1F
100
AcDbEntity
  8
0
  6
Continuous
 62
     7
370
    15
100
AcDbCircle
 10
2.178897278
 20
7.8744660358
 30
0.0
 40
0.0835000000000008
  0
LINE
  5
185
330
1F
100
AcDbEntity
  8
0
  6
Continuous
 62
     7
370
    15
100
AcDbLine
 10
2.183897278
 20
7.9144660358
 30
0.0
 11
2.183897278
 21
7.8794660358
 31
0.0
  0
LINE
  5
186
330
1F
100
AcDbEntity
  8
0
  6
Continuous
 62
   144
370
     0
100
AcDbLine
 10
2.173897278
 20
7.9144660358
 30
0.0
 11
2.183897278
 21
7.9144660358
 31
0.0
  0
LINE
  5
187
330
1F
100
AcDbEntity
  8
0
  6
Continuous
 62
     7
370
    15
100
AcDbLine
 10
2.173897278
 20
7.9144660358
 30
0.0
 11
2.173897278
 21
7.8794660358
 31
0.0
  0
LINE
  5
188
330
1F
100
AcDbEntity
  8
0
  6
Continuous
 62
     7
370
    15
100
AcDbLine
 10
2.138897278
 20
7.8794660358
 30
0.0
 11
2.173897278
 21
7.8794660358
 31
0.0
  0
LINE
  5
189
330
1F
100
AcDbEntity
  8
0
  6
Continuous
 62
   144
370
     0
100
AcDbLine
 10
2.138897278
 20
7.8794660358
 30
0.0
 11
2.138897278
 21
7.8694660358
 31
0.0
  0
LINE
  5
18A
330
1F
100
AcDbEntity
  8
0
  6
Continuous
 62
     7
370
    15
100
AcDbLine
 10
2.138897278
 20
7.8694660358
 30
0.0
 11
2.173897278
 21
7.8694660358
 31
0.0
  0
LINE
  5
18B
330
1F
100
AcDbEntity
  8
0
  6
Continuous
 62
     7
370
    15
100
AcDbLine
 10
2.173897278
 20
7.8694660358
 30
0.0
 11
2.173897278
 21
7.8344660358
 31
0.0
  0
LINE
  5
18C
330
1F
100
AcDbEntity
  8
0
  6
Continuous
 62
   144
370
     0
100
AcDbLine
 10
2.173897278
 20
7.8344660358
 30
0.0
 11
2.183897278
 21
7.8344660358
 31
0.0
  0
LINE
  5
18D
330
1F
100
AcDbEntity
  8
0
  6
Continuous
 62
     7
370
    15
100
AcDbLine
 10
2.183897278
 20
7.8694660358
 30
0.0
 11
2.183897278
 21
7.8344660358
 31
0.0
  0
LINE
  5
18E
330
1F
100
AcDbEntity
  8
0
  6
Continuous
 62
     7
370
    15
100
AcDbLine
 10
2.183897278
 20
7.8694660358
 30
0.0
 11
2.218897278
 21
7.8694660358
 31
0.0
  0
LINE
  5
18F
330
1F
100
AcDbEntity
  8
0
  6
Continuous
 62
   144
370
     0
100
AcDbLine
 10
2.218897278
 20
7.8794660358
 30
0.0
 11
2.218897278
 21
7.8694660358
 31
0.0
  0
LINE
  5
190
330
1F
100
AcDbEntity
  8
0
  6
Continuous
 62
     7
370
    15
100
AcDbLine
 10
2.183897278
 20
7.8794660358
 30
0.0
 11
2.218897278
 21
7.8794660358
 31
0.0
  0
LINE
  5
191
330
1F
100
AcDbEntity
  8
0
  6
Continuous
 62
     7
370
    15
100
AcDbLine
 10
2.777897278
 20
8.4634660358
 30
0.0
 11
2.812897278
 21
8.4634660358
 31
0.0
  0
LINE
  5
192
330
1F
100
AcDbEntity
  8
0
  6
Continuous
 62
     7
370
    15
100
AcDbLine
 10
2.777897278
 20
8.4634660358
 30
0.0
 11
2.777897278
 21
8.4284660358
 31
0.0
  0
LINE
  5
193
330
1F
100
AcDbEntity
  8
0
  6
Continuous
 62
     7
370
    15
100
AcDbLine
 10
2.767897278
 20
8.5084660358
 30
0.0
 11
2.777897278
 21
8.5084660358
 31
0.0
  0
LINE
  5
194
330
1F
100
AcDbEntity
  8
0
  6
Continuous
 62
     7
370
    15
100
AcDbLine
 10
2.767897278
 20
8.5084660358
 30
0.0
 11
2.767897278
 21
8.4734660358
 31
0.0
  0
CIRCLE
  5
195
330
1F
100
AcDbEntity
  8
0
  6
Continuous
 62
     7
370
    15
100
AcDbCircle
 10
2.772897278
 20
8.4684660358
 30
0.0
 40
0.0634999999999994
  0
CIRCLE
  5
196
330
1F
100
AcDbEntity
  8
0
  6
Continuous
 62
     7
370
    15
100
AcDbCircle
 10
2.772897278
 20
8.4684660358
 30
0.0
 40
0.083499999999999
  0
LINE
  5
197
330
1F
100
AcDbEntity
  8
0
  6
Continuous
 62
     7
370
    15
100
AcDbLine
 10
2.777897278
 20
8.5084660358
 30
0.0
 11
2.777897278
 21
8.4734660358
 31
0.0
  0
LINE
  5
198
330
1F
100
AcDbEntity
  8
0
  6
Continuous
 62
     7
370
    15
100
AcDbLine
 10
2.732897278
 20
8.4734660358
 30
0.0
 11
2.767897278
 21
8.4734660358
 31
0.0
  0
LINE
  5
199
330
1F
100
AcDbEntity
  8
0
  6
Continuous
 62
   144
370
     0
100
AcDbLine
 10
2.732897278
 20
8.4734660358
 30
0.0
 11
2.732897278
 21
8.4634660358
 31
0.0
  0
LINE
  5
19A
330
1F
100
AcDbEntity
  8
0
  6
Continuous
 62
     7
370
    15
100
AcDbLine
 10
2.732897278
 20
8.4634660358
 30
0.0
 11
2.767897278
 21
8.4634660358
 31
0.0
  0
LINE
  5
19B
330
1F
100
AcDbEntity
  8
0
  6
Continuous
 62
     7
370
    15
100
AcDbLine
 10
2.767897278
 20
8.4634660358
 30
0.0
 11
2.767897278
 21
8.4284660358
 31
0.0
  0
LINE
  5
19C
330
1F
100
AcDbEntity
  8
0
  6
Continuous
 62
   144
370
     0
100
AcDbLine
 10
2.767897278
 20
8.4284660358
 30
0.0
 11
2.777897278
 21
8.4284660358
 31
0.0
  0
LINE
  5
19D
330
1F
100
AcDbEntity
  8
0
  6
Continuous
 62
   144
370
     0
100
AcDbLine
 10
2.812897278
 20
8.4734660358
 30
0.0
 11
2.812897278
 21
8.4634660358
 31
0.0
  0
LINE
  5
19E
330
1F
100
AcDbEntity
  8
0
  6
Continuous
 62
     7
370
    15
100
AcDbLine
 10
2.777897278
 20
8.4734660358
 30
0.0
 11
2.812897278
 21
8.4734660358
 31
0.0
  0
LINE
  5
19F
330
1F
100
AcDbEntity
  8
0
  6
Continuous
 62
     7
370
    15
100
AcDbLine
 10
2.173897278
 20
8.4284660358
 30
0.0
 11
2.183897278
 21
8.4284660358
 31
0.0
  0
LINE
  5
1A0
330
1F
100
AcDbEntity
  8
0
  6
Continuous
 62
     7
370
    15
100
AcDbLine
 10
2.183897278
 20
8.4634660358
 30
0.0
 11
2.183897278
 21
8.4284660358
 31
0.0
  0
LINE
  5
1A1
330
1F
100
AcDbEntity
  8
0
  6
Continuous
 62
     7
370
    15
100
AcDbLine
 10
2.183897278
 20
8.4634660358
 30
0.0
 11
2.218897278
 21
8.4634660358
 31
0.0
  0
CIRCLE
  5
1A2
330
1F
100
AcDbEntity
  8
0
  6
Continuous
 62
     7
370
    15
100
AcDbCircle
 10
2.178897278
 20
8.4684660358
 30
0.0
 40
0.0634999999999994
  0
CIRCLE
  5
1A3
330
1F
100
AcDbEntity
  8
0
  6
Continuous
 62
     7
370
    15
100
AcDbCircle
 10
2.178897278
 20
8.4684660358
 30
0.0
 40
0.083499999999999
  0
LINE
  5
1A4
330
1F
100
AcDbEntity
  8
0
  6
Continuous
 62
     7
370
    15
100
AcDbLine
 10
2.173897278
 20
8.4634660358
 30
0.0
 11
2.173897278
 21
8.4284660358
 31
0.0
  0
LINE
  5
1A5
330
1F
100
AcDbEntity
  8
0
  6
Continuous
 62
     7
370
    15
100
AcDbLine
 10
2.138897278
 20
8.4634660358
 30
0.0
 11
2.173897278
 21
8.4634660358
 31
0.0
  0
LINE
  5
1A6
330
1F
100
AcDbEntity
  8
0
  6
Continuous
 62
     7
370
    15
100
AcDbLine
 10
2.138897278
 20
8.4734660358
 30
0.0
 11
2.173897278
 21
8.4734660358
 31
0.0
  0
LINE
  5
1A7
330
1F
100
AcDbEntity
  8
0
  6
Continuous
 62
     7
370
    15
100
AcDbLine
 10
2.173897278
 20
8.5084660358
 30
0.0
 11
2.183897278
 21
8.5084660358
 31
0.0
  0
LINE
  5
1A8
330
1F
100
AcDbEntity
  8
0
  6
Continuous
 62
     7
370
    15
100
AcDbLine
 10
2.183897278
 20
8.5084660358
 30
0.0
 11
2.183897278
 21
8.4734660358
 31
0.0
  0
LINE
  5
1A9
330
1F
100
AcDbEntity
  8
0
  6
Continuous
 62
     7
370
    15
100
AcDbLine
 10
2.173897278
 20
8.5084660358
 30
0.0
 11
2.173897278
 21
8.4734660358
 31
0.0
  0
LINE
  5
1AA
330
1F
100
AcDbEntity
  8
0
  6
Continuous
 62
     7
370
    15
100
AcDbLine
 10
2.183897278
 20
8.4734660358
 30
0.0
 11
2.218897278
 21
8.4734660358
 31
0.0
  0
LINE
  5
1AB
330
1F
100
AcDbEntity
  8
0
  6
Continuous
 62
   144
370
     0
100
AcDbLine
 10
2.218897278
 20
8.4734660358
 30
0.0
 11
2.218897278
 21
8.4634660358
 31
0.0
  0
LINE
  5
1AC
330
1F
100
AcDbEntity
  8
0
  6
Continuous
 62
   144
370
     0
100
AcDbLine
 10
2.138897278
 20
8.4734660358
 30
0.0
 11
2.138897278
 21
8.4634660358
 31
0.0
  0
ARC
  5
1AD
330
1F
100
AcDbEntity
  8
0
  6
Continuous
 62
     7
370
    15
100
AcDbCircle
 10
2.475897278
 20
8.1714660358
 30
0.0
 40
0.4199999999999988
100
AcDbArc
 50
260.3036789465
 51
279.6963210535
  0
ARC
  5
1AE
330
1F
100
AcDbEntity
  8
0
  6
Continuous
 62
     7
370
    15
100
AcDbCircle
 10
2.475897278
 20
8.1714660358
 30
0.0
 40
0.4200000000000008
100
AcDbArc
 50
170.3036789465
 51
189.6963210535
  0
ARC
  5
1AF
330
1F
100
AcDbEntity
  8
0
  6
Continuous
 62
     7
370
    15
100
AcDbCircle
 10
2.475897278
 20
8.1714660358
 30
0.0
 40
0.4200000000000022
100
AcDbArc
 50
80.3036789465
 51
99.6963210535
  0
ARC
  5
1B0
330
1F
100
AcDbEntity
  8
0
  6
Continuous
 62
     7
370
    15
100
AcDbCircle
 10
2.475897278
 20
8.1714660358
 30
0.0
 40
0.4200000000000001
100
AcDbArc
 50
350.3036789465
 51
9.6963210535
  0
LINE
  5
1B1
330
1F
100
AcDbEntity
  8
0
  6
Continuous
 62
   144
370
     0
100
AcDbLine
 10
2.772897278
 20
7.8364660358
 30
0.0
 11
2.777897278
 21
7.8367964194
 31
0.0
  0
LWPOLYLINE
  5
1B2
330
1F
100
AcDbEntity
  8
0
  6
Continuous
 62
   144
370
     0
100
AcDbPolyline
 90
        3
 70
   128
 43
0.0
 10
2.8105668945
 20
7.8694660358
 10
2.810897278
 20
7.8744660358
 10
2.8105668945
 20
7.8794660358
  0
LWPOLYLINE
  5
1B3
330
1F
100
AcDbEntity
  8
0
  6
Continuous
 62
   144
370
     0
100
AcDbPolyline
 90
        3
 70
   128
 43
0.0
 10
2.777897278
 20
7.9121356522
 10
2.772897278
 20
7.9124660358
 10
2.767897278
 20
7.9121356522
  0
LWPOLYLINE
  5
1B4
330
1F
100
AcDbEntity
  8
0
  6
Continuous
 62
   144
370
     0
100
AcDbPolyline
 90
        3
 70
   128
 43
0.0
 10
2.7352276616
 20
7.8794660358
 10
2.734897278
 20
7.8744660358
 10
2.7352276616
 20
7.8694660358
  0
LINE
  5
1B5
330
1F
100
AcDbEntity
  8
0
  6
Continuous
 62
   144
370
     0
100
AcDbLine
 10
2.767897278
 20
7.8367964194
 30
0.0
 11
2.772897278
 21
7.8364660358
 31
0.0
  0
LINE
  5
1B6
330
1F
100
AcDbEntity
  8
0
  6
Continuous
 62
   144
370
     0
100
AcDbLine
 10
2.772897278
 20
8.5064660358
 30
0.0
 11
2.767897278
 21
8.5061356522
 31
0.0
  0
LWPOLYLINE
  5
1B7
330
1F
100
AcDbEntity
  8
0
  6
Continuous
 62
   144
370
     0
100
AcDbPolyline
 90
        3
 70
   128
 43
0.0
 10
2.7352276616
 20
8.4734660358
 10
2.734897278
 20
8.4684660358
 10
2.7352276616
 20
8.4634660358
  0
LWPOLYLINE
  5
1B8
330
1F
100
AcDbEntity
  8
0
  6
Continuous
 62
   144
370
     0
100
AcDbPolyline
 90
        3
 70
   128
 43
0.0
 10
2.767897278
 20
8.4307964194
 10
2.772897278
 20
8.4304660358
 10
2.777897278
 20
8.4307964194
  0
LWPOLYLINE
  5
1B9
330
1F
100
AcDbEntity
  8
0
  6
Continuous
 62
   144
370
     0
100
AcDbPolyline
 90
        3
 70
   128
 43
0.0
 10
2.8105668945
 20
8.4634660358
 10
2.810897278
 20
8.4684660358
 10
2.8105668945
 20
8.4734660358
  0
LINE
  5
1BA
330
1F
100
AcDbEntity
  8
0
  6
Continuous
 62
   144
370
     0
100
AcDbLine
 10
2.777897278
 20
8.5061356522
 30
0.0
 11
2.772897278
 21
8.5064660358
 31
0.0
  0
LINE
  5
1BB
330
1F
100
AcDbEntity
  8
0
  6
Continuous
 62
   144
370
     0
100
AcDbLine
 10
2.178897278
 20
7.9124660358
 30
0.0
 11
2.173897278
 21
7.9121356522
 31
0.0
  0
LWPOLYLINE
  5
1BC
330
1F
100
AcDbEntity
  8
0
  6
Continuous
 62
   144
370
     0
100
AcDbPolyline
 90
        3
 70
   128
 43
0.0
 10
2.1412276616
 20
7.8794660358
 10
2.140897278
 20
7.8744660358
 10
2.1412276616
 20
7.8694660358
  0
LWPOLYLINE
  5
1BD
330
1F
100
AcDbEntity
  8
0
  6
Continuous
 62
   144
370
     0
100
AcDbPolyline
 90
        3
 70
   128
 43
0.0
 10
2.173897278
 20
7.8367964194
 10
2.178897278
 20
7.8364660358
 10
2.183897278
 20
7.8367964194
  0
LWPOLYLINE
  5
1BE
330
1F
100
AcDbEntity
  8
0
  6
Continuous
 62
   144
370
     0
100
AcDbPolyline
 90
        3
 70
   128
 43
0.0
 10
2.2165668945
 20
7.8694660358
 10
2.216897278
 20
7.8744660358
 10
2.2165668945
 20
7.8794660358
  0
LINE
  5
1BF
330
1F
100
AcDbEntity
  8
0
  6
Continuous
 62
   144
370
     0
100
AcDbLine
 10
2.183897278
 20
7.9121356522
 30
0.0
 11
2.178897278
 21
7.9124660358
 31
0.0
  0
LINE
  5
1C0
330
1F
100
AcDbEntity
  8
0
  6
Continuous
 62
   144
370
     0
100
AcDbLine
 10
2.178897278
 20
8.4304660358
 30
0.0
 11
2.183897278
 21
8.4307964194
 31
0.0
  0
LWPOLYLINE
  5
1C1
330
1F
100
AcDbEntity
  8
0
  6
Continuous
 62
   144
370
     0
100
AcDbPolyline
 90
        3
 70
   128
 43
0.0
 10
2.2165668945
 20
8.4634660358
 10
2.216897278
 20
8.4684660358
 10
2.2165668945
 20
8.4734660358
  0
LWPOLYLINE
  5
1C2
330
1F
100
AcDbEntity
  8
0
  6
Continuous
 62
   144
370
     0
100
AcDbPolyline
 90
        3
 70
   128
 43
0.0
 10
2.183897278
 20
8.5061356522
 10
2.178897278
 20
8.5064660358
 10
2.173897278
 20
8.5061356522
  0
LWPOLYLINE
  5
1C3
330
1F
100
AcDbEntity
  8
0
  6
Continuous
 62
   144
370
     0
100
AcDbPolyline
 90
        3
 70
   128
 43
0.0
 10
2.1412276616
 20
8.4734660358
 10
2.140897278
 20
8.4684660358
 10
2.1412276616
 20
8.4634660358
  0
LINE
  5
1C4
330
1F
100
AcDbEntity
  8
0
  6
Continuous
 62
   144
370
     0
100
AcDbLine
 10
2.173897278
 20
8.4307964194
 30
0.0
 11
2.178897278
 21
8.4304660358
 31
0.0
  0
LINE
  5
1C5
330
1F
100
AcDbEntity
  8
0
  6
Continuous
 62
   144
370
     0
100
AcDbLine
 10
2.772897278
 20
8.4884660358
 30
0.0
 11
2.777897278
 21
8.4878309526
 31
0.0
  0
LWPOLYLINE
  5
1C6
330
1F
100
AcDbEntity
  8
0
  6
Continuous
 62
   144
370
     0
100
AcDbPolyline
 90
        3
 70
   128
 43
0.0
 10
2.7922621948
 20
8.4734660358
 10
2.7928119616
 20
8.470311403
 10
2.7922621948
 20
8.4634660358
  0
ARC
  5
1C7
330
1F
100
AcDbEntity
  8
0
  6
Continuous
 62
   144
370
     0
100
AcDbCircle
 10
2.772897278
 20
8.4684660358
 30
0.0
 40
0.0200000000000002
100
AcDbArc
 50
255.5224878141
 51
284.4775121859
  0
LWPOLYLINE
  5
1C8
330
1F
100
AcDbEntity
  8
0
  6
Continuous
 62
   144
370
     0
100
AcDbPolyline
 90
        3
 70
   128
 43
0.0
 10
2.7535323613
 20
8.4634660358
 10
2.7529825945
 20
8.470311403
 10
2.7535323613
 20
8.4734660358
  0
LINE
  5
1C9
330
1F
100
AcDbEntity
  8
0
  6
Continuous
 62
   144
370
     0
100
AcDbLine
 10
2.767897278
 20
8.4878309526
 30
0.0
 11
2.772897278
 21
8.4884660358
 31
0.0
  0
LINE
  5
1CA
330
1F
100
AcDbEntity
  8
0
  6
Continuous
 62
   144
370
     0
100
AcDbLine
 10
2.772897278
 20
7.8544660358
 30
0.0
 11
2.777897278
 21
7.8551011191
 31
0.0
  0
LWPOLYLINE
  5
1CB
330
1F
100
AcDbEntity
  8
0
  6
Continuous
 62
   144
370
     0
100
AcDbPolyline
 90
        3
 70
   128
 43
0.0
 10
2.7922621948
 20
7.8694660358
 10
2.7928119616
 20
7.8726206686
 10
2.7922621948
 20
7.8794660358
  0
ARC
  5
1CC
330
1F
100
AcDbEntity
  8
0
  6
Continuous
 62
   144
370
     0
100
AcDbCircle
 10
2.772897278
 20
7.8744660358
 30
0.0
 40
0.0200000000000001
100
AcDbArc
 50
75.5224878141
 51
104.4775121859
  0
LWPOLYLINE
  5
1CD
330
1F
100
AcDbEntity
  8
0
  6
Continuous
 62
   144
370
     0
100
AcDbPolyline
 90
        3
 70
   128
 43
0.0
 10
2.7535323613
 20
7.8794660358
 10
2.7529825945
 20
7.8726206686
 10
2.7535323613
 20
7.8694660358
  0
LINE
  5
1CE
330
1F
100
AcDbEntity
  8
0
  6
Continuous
 62
   144
370
     0
100
AcDbLine
 10
2.767897278
 20
7.8551011191
 30
0.0
 11
2.772897278
 21
7.8544660358
 31
0.0
  0
LINE
  5
1CF
330
1F
100
AcDbEntity
  8
0
  6
Continuous
 62
   144
370
     0
100
AcDbLine
 10
2.178897278
 20
8.4484660358
 30
0.0
 11
2.183897278
 21
8.4491011191
 31
0.0
  0
LWPOLYLINE
  5
1D0
330
1F
100
AcDbEntity
  8
0
  6
Continuous
 62
   144
370
     0
100
AcDbPolyline
 90
        3
 70
   128
 43
0.0
 10
2.1982621948
 20
8.4634660358
 10
2.1988119616
 20
8.4666206686
 10
2.1982621948
 20
8.4734660358
  0
ARC
  5
1D1
330
1F
100
AcDbEntity
  8
0
  6
Continuous
 62
   144
370
     0
100
AcDbCircle
 10
2.178897278
 20
8.4684660358
 30
0.0
 40
0.0200000000000022
100
AcDbArc
 50
75.5224878141
 51
104.4775121859
  0
LWPOLYLINE
  5
1D2
330
1F
100
AcDbEntity
  8
0
  6
Continuous
 62
   144
370
     0
100
AcDbPolyline
 90
        3
 70
   128
 43
0.0
 10
2.1595323613
 20
8.4734660358
 10
2.1589825945
 20
8.4666206686
 10
2.1595323613
 20
8.4634660358
  0
LINE
  5
1D3
330
1F
100
AcDbEntity
  8
0
  6
Continuous
 62
   144
370
     0
100
AcDbLine
 10
2.173897278
 20
8.4491011191
 30
0.0
 11
2.178897278
 21
8.4484660358
 31
0.0
  0
LINE
  5
1D4
330
1F
100
AcDbEntity
  8
0
  6
Continuous
 62
   144
370
     0
100
AcDbLine
 10
2.178897278
 20
7.8944660358
 30
0.0
 11
2.183897278
 21
7.8938309526
 31
0.0
  0
LWPOLYLINE
  5
1D5
330
1F
100
AcDbEntity
  8
0
  6
Continuous
 62
   144
370
     0
100
AcDbPolyline
 90
        3
 70
   128
 43
0.0
 10
2.1982621948
 20
7.8794660358
 10
2.1988119616
 20
7.876311403
 10
2.1982621948
 20
7.8694660358
  0
ARC
  5
1D6
330
1F
100
AcDbEntity
  8
0
  6
Continuous
 62
   144
370
     0
100
AcDbCircle
 10
2.178897278
 20
7.8744660358
 30
0.0
 40
0.0200000000000005
100
AcDbArc
 50
255.5224878141
 51
284.4775121859
  0
LWPOLYLINE
  5
1D7
330
1F
100
AcDbEntity
  8
0
  6
Continuous
 62
   144
370
     0
100
AcDbPolyline
 90
        3
 70
   128
 43
0.0
 10
2.1595323613
 20
7.8694660358
 10
2.1589825945
 20
7.876311403
 10
2.1595323613
 20
7.8794660358
  0
LINE
  5
1D8
330
1F
100
AcDbEntity
  8
0
  6
Continuous
 62
   144
370
     0
100
AcDbLine
 10
2.173897278
 20
7.8938309526
 30
0.0
 11
2.178897278
 21
7.8944660358
 31
0.0
  0
CIRCLE
  5
1D9
330
1F
100
AcDbEntity
  8
0
  6
Continuous
 62
     7
370
    15
100
AcDbCircle
 10
2.475897278
 20
8.1714660358
 30
0.0
 40
0.2355000000000009
  0
ARC
  5
1DA
330
1F
100
AcDbEntity
  8
0
  6
Continuous
 62
     7
370
    15
100
AcDbCircle
 10
2.475897278
 20
8.1714660358
 30
0.0
 40
0.2105
100
AcDbArc
 50
74.1476587899
 51
105.8523412101
  0
LINE
  5
1DB
330
1F
100
AcDbEntity
  8
0
  6
Continuous
 62
     7
370
    15
100
AcDbLine
 10
2.418397278
 20
8.3478292973
 30
0.0
 11
2.418397278
 21
8.3739604802
 31
0.0
  0
ARC
  5
1DC
330
1F
100
AcDbEntity
  8
0
  6
Continuous
 62
     7
370
    15
100
AcDbCircle
 10
2.475897278
 20
8.1714660358
 30
0.0
 40
0.1855000000000002
100
AcDbArc
 50
108.0576061149
 51
172.2546282489
  0
LINE
  5
1DD
330
1F
100
AcDbEntity
  8
0
  6
Continuous
 62
     7
370
    15
100
AcDbLine
 10
2.292089634
 20
8.1964660358
 30
0.0
 11
2.2668871108
 21
8.1964660358
 31
0.0
  0
ARC
  5
1DE
330
1F
100
AcDbEntity
  8
0
  6
Continuous
 62
     7
370
    15
100
AcDbCircle
 10
2.475897278
 20
8.1714660358
 30
0.0
 40
0.2105000000000003
100
AcDbArc
 50
173.1791763213
 51
186.8208236787
  0
LINE
  5
1DF
330
1F
100
AcDbEntity
  8
0
  6
Continuous
 62
     7
370
    15
100
AcDbLine
 10
2.292089634
 20
8.1464660358
 30
0.0
 11
2.2668871108
 21
8.1464660358
 31
0.0
  0
ARC
  5
1E0
330
1F
100
AcDbEntity
  8
0
  6
Continuous
 62
     7
370
    15
100
AcDbCircle
 10
2.475897278
 20
8.1714660358
 30
0.0
 40
0.1855000000000008
100
AcDbArc
 50
187.7453717511
 51
221.5936309617
  0
LINE
  5
1E1
330
1F
100
AcDbEntity
  8
0
  6
Continuous
 62
     7
370
    15
100
AcDbLine
 10
2.3371670428
 20
8.048323144
 30
0.0
 11
2.3184702455
 21
8.0317270669
 31
0.0
  0
ARC
  5
1E2
330
1F
100
AcDbEntity
  8
0
  6
Continuous
 62
     7
370
    15
100
AcDbCircle
 10
2.475897278
 20
8.1714660358
 30
0.0
 40
0.2105
100
AcDbArc
 50
221.5936309617
 51
237.0843744639
  0
LINE
  5
1E3
330
1F
100
AcDbEntity
  8
0
  6
Continuous
 62
     7
370
    15
100
AcDbLine
 10
2.3750959458
 20
8.0157440354
 30
0.0
 11
2.3615108606
 21
7.9947572429
 31
0.0
  0
ARC
  5
1E4
330
1F
100
AcDbEntity
  8
0
  6
Continuous
 62
     7
370
    15
100
AcDbCircle
 10
2.475897278
 20
8.1714660358
 30
0.0
 40
0.1855000000000001
100
AcDbArc
 50
237.0843744639
 51
313.4377167693
  0
LINE
  5
1E5
330
1F
100
AcDbEntity
  8
0
  6
Continuous
 62
     7
370
    15
100
AcDbLine
 10
2.6034407066
 20
8.0367703647
 30
0.0
 11
2.620629848
 21
8.0186173093
 31
0.0
  0
ARC
  5
1E6
330
1F
100
AcDbEntity
  8
0
  6
Continuous
 62
     7
370
    15
100
AcDbCircle
 10
2.475897278
 20
8.1714660358
 30
0.0
 40
0.2105000000000007
100
AcDbArc
 50
313.4377167693
 51
328.9284602715
  0
LINE
  5
1E7
330
1F
100
AcDbEntity
  8
0
  6
Continuous
 62
     7
370
    15
100
AcDbLine
 10
2.6347823974
 20
8.0757280138
 30
0.0
 11
2.6561954862
 21
8.0628253154
 31
0.0
  0
ARC
  5
1E8
330
1F
100
AcDbEntity
  8
0
  6
Continuous
 62
     7
370
    15
100
AcDbCircle
 10
2.475897278
 20
8.1714660358
 30
0.0
 40
0.1854999999999995
100
AcDbArc
 50
328.9284602715
 51
352.2546282489
  0
LINE
  5
1E9
330
1F
100
AcDbEntity
  8
0
  6
Continuous
 62
     7
370
    15
100
AcDbLine
 10
2.6597049221
 20
8.1464660358
 30
0.0
 11
2.6849074453
 21
8.1464660358
 31
0.0
  0
ARC
  5
1EA
330
1F
100
AcDbEntity
  8
0
  6
Continuous
 62
     7
370
    15
100
AcDbCircle
 10
2.475897278
 20
8.1714660358
 30
0.0
 40
0.2104999999999994
100
AcDbArc
 50
353.1791763213
 51
6.8208236787
  0
LINE
  5
1EB
330
1F
100
AcDbEntity
  8
0
  6
Continuous
 62
     7
370
    15
100
AcDbLine
 10
2.6597049221
 20
8.1964660358
 30
0.0
 11
2.6849074453
 21
8.1964660358
 31
0.0
  0
ARC
  5
1EC
330
1F
100
AcDbEntity
  8
0
  6
Continuous
 62
     7
370
    15
100
AcDbCircle
 10
2.475897278
 20
8.1714660358
 30
0.0
 40
0.1854999999999997
100
AcDbArc
 50
7.7453717511
 51
71.9423938851
  0
LINE
  5
1ED
330
1F
100
AcDbEntity
  8
0
  6
Continuous
 62
     7
370
    15
100
AcDbLine
 10
2.533397278
 20
8.3478292973
 30
0.0
 11
2.533397278
 21
8.3739604802
 31
0.0
  0
LINE
  5
1EE
330
1F
100
AcDbEntity
  8
0
  6
Continuous
 62
     7
370
    15
100
AcDbLine
 10
2.2199196738
 20
8.2890998196
 30
0.0
 11
2.2594196738
 21
8.3575158265
 31
0.0
  0
LINE
  5
1EF
330
1F
100
AcDbEntity
  8
0
  6
Continuous
 62
     7
370
    15
100
AcDbLine
 10
2.7057599253
 20
8.3343322521
 30
0.0
 11
2.7452599253
 21
8.2659162452
 31
0.0
  0
LINE
  5
1F0
330
1F
100
AcDbEntity
  8
0
  6
Continuous
 62
     7
370
    15
100
AcDbLine
 10
2.5020122351
 20
7.8909660358
 30
0.0
 11
2.4230122351
 21
7.8909660358
 31
0.0
  0
ARC
  5
1F1
330
1F
100
AcDbEntity
  8
0
  6
Continuous
 62
     7
370
    15
100
AcDbCircle
 10
2.170897278
 20
8.4764660358
 30
0.0
 40
0.109
100
AcDbArc
 50
90.0
 51
180.0
  0
LINE
  5
1F2
330
1F
100
AcDbEntity
  8
0
  6
Continuous
 62
     7
370
    15
100
AcDbLine
 10
2.780897278
 20
8.5854660358
 30
0.0
 11
2.170897278
 21
8.5854660358
 31
0.0
  0
ARC
  5
1F3
330
1F
100
AcDbEntity
  8
0
  6
Continuous
 62
     7
370
    15
100
AcDbCircle
 10
2.780897278
 20
8.4764660358
 30
0.0
 40
0.109
100
AcDbArc
 50
0.0
 51
90.0
  0
LINE
  5
1F4
330
1F
100
AcDbEntity
  8
0
  6
Continuous
 62
     7
370
    15
100
AcDbLine
 10
2.889897278
 20
7.8664660358
 30
0.0
 11
2.889897278
 21
8.4764660358
 31
0.0
  0
ARC
  5
1F5
330
1F
100
AcDbEntity
  8
0
  6
Continuous
 62
     7
370
    15
100
AcDbCircle
 10
2.780897278
 20
7.8664660358
 30
0.0
 40
0.109
100
AcDbArc
 50
270.0
 51
0.0
  0
LINE
  5
1F6
330
1F
100
AcDbEntity
  8
0
  6
Continuous
 62
     7
370
    15
100
AcDbLine
 10
2.170897278
 20
7.7574660358
 30
0.0
 11
2.780897278
 21
7.7574660358
 31
0.0
  0
ARC
  5
1F7
330
1F
100
AcDbEntity
  8
0
  6
Continuous
 62
     7
370
    15
100
AcDbCircle
 10
2.170897278
 20
7.8664660358
 30
0.0
 40
0.109
100
AcDbArc
 50
180.0
 51
270.0
  0
LINE
  5
1F8
330
1F
100
AcDbEntity
  8
0
  6
Continuous
 62
     7
370
    15
100
AcDbLine
 10
2.061897278
 20
8.4764660358
 30
0.0
 11
2.061897278
 21
7.8664660358
 31
0.0
  0
SPLINE
  5
1F9
330
1F
100
AcDbEntity
  8
0
  6
Continuous
 62
     7
370
    15
100
AcDbSpline
210
0.0
220
0.0
230
1.0
 70
    11
 71
     3
 72
    22
 73
    18
 74
     0
 42
0.000000001
 43
0.00000001
 40
0.0
 40
0.0
 40
0.0
 40
0.0
 40
0.1250000000000001
 40
0.1250000000000001
 40
0.2500000000000002
 40
0.2500000000000002
 40
0.3750000000000002
 40
0.3750000000000002
 40
0.5000000000000001
 40
0.5000000000000001
 40
0.6250000000000001
 40
0.6250000000000001
 40
0.75
 40
0.75
 40
0.875
 40
0.875
 40
1.0
 40
1.0
 40
1.0
 40
1.0
 10
2.41589728055674
 20
8.251466035829855
 30
0.0
 10
2.410612268005483
 20
8.2514660364923
 30
0.0
 10
2.405438214732424
 20
8.24929314492547
 30
0.0
 10
2.39806477652431
 20
8.2419159025049
 30
0.0
 10
2.395899279907202
 20
8.2366949185158
 30
0.0
 10
2.395895279128255
 20
8.226252478215596
 30
0.0
 10
2.398020467925502
 20
8.221060289838404
 30
0.0
 10
2.405483321630713
 20
8.21359400736185
 30
0.0
 10
2.410675479384907
 20
8.211467389585168
 30
0.0
 10
2.421108701530861
 20
8.211464683420099
 30
0.0
 10
2.426332667879048
 20
8.213623850000294
 30
0.0
 10
2.433720535207859
 20
8.220998349345074
 30
0.0
 10
2.435892934122694
 20
8.226166154806421
 30
0.0
 10
2.435901608499551
 20
8.236733080912744
 30
0.0
 10
2.433737414415626
 20
8.24190441228373
 30
0.0
 10
2.426363441768794
 20
8.24928988461597
 30
0.0
 10
2.421182293107998
 20
8.251466035167413
 30
0.0
 10
2.41589728055674
 20
8.251466035829857
 30
0.0
  0
SPLINE
  5
1FA
330
1F
100
AcDbEntity
  8
0
  6
Continuous
 62
     7
370
    15
100
AcDbSpline
210
0.0
220
0.0
230
1.0
 70
    11
 71
     3
 72
    22
 73
    18
 74
     0
 42
0.000000001
 43
0.00000001
 40
0.0
 40
0.0
 40
0.0
 40
0.0
 40
0.125
 40
0.125
 40
0.2499999999999999
 40
0.2499999999999999
 40
0.3749999999999999
 40
0.3749999999999999
 40
0.4999999999999999
 40
0.4999999999999999
 40
0.6249999999999999
 40
0.6249999999999999
 40
0.7499999999999999
 40
0.7499999999999999
 40
0.875
 40
0.875
 40
1.0
 40
1.0
 40
1.0
 40
1.0
 10
2.53589728055674
 20
8.131466035829856
 30
0.0
 10
2.530612268005482
 20
8.131466036492299
 30
0.0
 10
2.525438214732424
 20
8.129293144925471
 30
0.0
 10
2.518064776524309
 20
8.1219159025049
 30
0.0
 10
2.515899279907202
 20
8.116694918515801
 30
0.0
 10
2.515895279128255
 20
8.106252478215595
 30
0.0
 10
2.518020467925502
 20
8.101060289838403
 30
0.0
 10
2.525483321630713
 20
8.093594007361851
 30
0.0
 10
2.530675479384907
 20
8.091467389585167
 30
0.0
 10
2.54110870153086
 20
8.0914646834201
 30
0.0
 10
2.546332667879048
 20
8.093623850000293
 30
0.0
 10
2.553720535207859
 20
8.100998349345074
 30
0.0
 10
2.555892934122693
 20
8.106166154806422
 30
0.0
 10
2.555901608499551
 20
8.116733080912743
 30
0.0
 10
2.553737414415626
 20
8.12190441228373
 30
0.0
 10
2.546363441768794
 20
8.129289884615972
 30
0.0
 10
2.541182293107997
 20
8.131466035167414
 30
0.0
 10
2.53589728055674
 20
8.131466035829856
 30
0.0
  0
SPLINE
  5
1FB
330
1F
100
AcDbEntity
  8
0
  6
Continuous
 62
     7
370
    15
100
AcDbSpline
210
0.0
220
0.0
230
1.0
 70
    11
 71
     3
 72
    22
 73
    18
 74
     0
 42
0.000000001
 43
0.00000001
 40
0.0
 40
0.0
 40
0.0
 40
0.0
 40
0.1250000000000002
 40
0.1250000000000002
 40
0.2500000000000003
 40
0.2500000000000003
 40
0.3750000000000004
 40
0.3750000000000004
 40
0.5000000000000003
 40
0.5000000000000003
 40
0.6250000000000003
 40
0.6250000000000003
 40
0.7500000000000002
 40
0.7500000000000002
 40
0.8750000000000002
 40
0.8750000000000002
 40
1.0
 40
1.0
 40
1.0
 40
1.0
 10
2.535897278061783
 20
8.211466035829856
 30
0.0
 10
2.541182293321858
 20
8.211466035833004
 30
0.0
 10
2.546356340122005
 20
8.213638927369553
 30
0.0
 10
2.553729773609861
 20
8.221016161304915
 30
0.0
 10
2.555895271522095
 20
8.226237131210922
 30
0.0
 10
2.555899281628218
 20
8.236679579661146
 30
0.0
 10
2.553774091527071
 20
8.241871773454376
 30
0.0
 10
2.546311250100701
 20
8.249338053671542
 30
0.0
 10
2.541119086757385
 20
8.25146467905651
 30
0.0
 10
2.530685867648055
 20
8.251467391251646
 30
0.0
 10
2.525461902333271
 20
8.249308231492574
 30
0.0
 10
2.518074023109454
 20
8.24193372878209
 30
0.0
 10
2.515901620903275
 20
8.236765902217279
 30
0.0
 10
2.515892948667351
 20
8.226198997344675
 30
0.0
 10
2.518057149954149
 20
8.221027649099875
 30
0.0
 10
2.525431113688231
 20
8.213642189680625
 30
0.0
 10
2.530612262801708
 20
8.211466035826707
 30
0.0
 10
2.535897278061783
 20
8.211466035829854
 30
0.0
  0
SPLINE
  5
1FC
330
1F
100
AcDbEntity
  8
0
  6
Continuous
 62
     7
370
    15
100
AcDbSpline
210
0.0
220
0.0
230
1.0
 70
    11
 71
     3
 72
    22
 73
    18
 74
     0
 42
0.000000001
 43
0.00000001
 40
0.0
 40
0.0
 40
0.0
 40
0.0
 40
0.1250000000000001
 40
0.1250000000000001
 40
0.2500000000000001
 40
0.2500000000000001
 40
0.3750000000000002
 40
0.3750000000000002
 40
0.5000000000000002
 40
0.5000000000000002
 40
0.6250000000000002
 40
0.6250000000000002
 40
0.7500000000000002
 40
0.7500000000000002
 40
0.8750000000000001
 40
0.8750000000000001
 40
1.0
 40
1.0
 40
1.0
 40
1.0
 10
2.415897278061783
 20
8.091466035829857
 30
0.0
 10
2.421182293321858
 20
8.091466035833005
 30
0.0
 10
2.426356340122005
 20
8.093638927369554
 30
0.0
 10
2.433729773609862
 20
8.101016161304914
 30
0.0
 10
2.435895271522095
 20
8.106237131210923
 30
0.0
 10
2.435899281628219
 20
8.116679579661147
 30
0.0
 10
2.433774091527072
 20
8.121871773454375
 30
0.0
 10
2.426311250100702
 20
8.129338053671542
 30
0.0
 10
2.421119086757385
 20
8.131464679056508
 30
0.0
 10
2.410685867648055
 20
8.131467391251645
 30
0.0
 10
2.405461902333271
 20
8.129308231492573
 30
0.0
 10
2.398074023109454
 20
8.12193372878209
 30
0.0
 10
2.395901620903275
 20
8.11676590221728
 30
0.0
 10
2.395892948667351
 20
8.106198997344675
 30
0.0
 10
2.398057149954148
 20
8.101027649099876
 30
0.0
 10
2.405431113688231
 20
8.093642189680624
 30
0.0
 10
2.410612262801708
 20
8.091466035826707
 30
0.0
 10
2.415897278061783
 20
8.091466035829857
 30
0.0
  0
LINE
  5
1FD
330
1F
100
AcDbEntity
  8
0
  6
Continuous
 62
   144
370
     0
100
AcDbLine
 10
2.1981834934
 20
7.8708531465
 30
0.0
 11
2.1883623754
 21
7.8794660358
 31
0.0
  0
LINE
  5
1FE
330
1F
100
AcDbEntity
  8
0
  6
Continuous
 62
   144
370
     0
100
AcDbLine
 10
2.183897278
 20
7.8839311332
 30
0.0
 11
2.1751143328
 21
7.8939461628
 31
0.0
  0
LINE
  5
1FF
330
1F
100
AcDbEntity
  8
0
  6
Continuous
 62
   144
370
     0
100
AcDbLine
 10
2.7535297154
 20
8.4721502648
 30
0.0
 11
2.7634321807
 21
8.4634660358
 31
0.0
  0
LINE
  5
200
330
1F
100
AcDbEntity
  8
0
  6
Continuous
 62
   144
370
     0
100
AcDbLine
 10
2.767897278
 20
8.4590009385
 30
0.0
 11
2.7765113385
 21
8.449178485
 31
0.0
  0
ARC
  5
201
330
1F
100
AcDbEntity
  8
0
  6
Continuous
 62
     7
370
    15
100
AcDbCircle
 10
2.475897278
 20
8.1714660358
 30
0.0
 40
0.1875000000000004
100
AcDbArc
 50
221.5936309617
 51
237.0843744639
  0
ARC
  5
202
330
1F
100
AcDbEntity
  8
0
  6
Continuous
 62
     7
370
    15
100
AcDbCircle
 10
2.475897278
 20
8.1714660358
 30
0.0
 40
0.1875000000000001
100
AcDbArc
 50
172.3377443392
 51
187.6622556608
  0
ARC
  5
203
330
1F
100
AcDbEntity
  8
0
  6
Continuous
 62
     7
370
    15
100
AcDbCircle
 10
2.475897278
 20
8.1714660358
 30
0.0
 40
0.1875000000000013
100
AcDbArc
 50
72.1415373016
 51
107.8584626984
  0
ARC
  5
204
330
1F
100
AcDbEntity
  8
0
  6
Continuous
 62
     7
370
    15
100
AcDbCircle
 10
2.475897278
 20
8.1714660358
 30
0.0
 40
0.1874999999999996
100
AcDbArc
 50
352.3377443392
 51
7.6622556608
  0
ARC
  5
205
330
1F
100
AcDbEntity
  8
0
  6
Continuous
 62
     7
370
    15
100
AcDbCircle
 10
2.475897278
 20
8.1714660358
 30
0.0
 40
0.1875
100
AcDbArc
 50
313.4377167693
 51
328.9284602715
  0
CIRCLE
  5
206
330
1F
100
AcDbEntity
  8
0
  6
Continuous
 62
     7
370
    15
100
AcDbCircle
 10
2.772897278
 20
7.8744660358
 30
0.0
 40
0.0634999999999994
  0
CIRCLE
  5
207
330
1F
100
AcDbEntity
  8
0
  6
Continuous
 62
     7
370
    15
100
AcDbCircle
 10
2.772897278
 20
7.8744660358
 30
0.0
 40
0.0834999999999999
  0
LINE
  5
208
330
1F
100
AcDbEntity
  8
0
  6
Continuous
 62
     7
370
    15
100
AcDbLine
 10
2.767897278
 20
7.8344660358
 30
0.0
 11
2.767897278
 21
7.8694660358
 31
0.0
  0
LINE
  5
209
330
1F
100
AcDbEntity
  8
0
  6
Continuous
 62
     7
370
    15
100
AcDbLine
 10
2.777897278
 20
7.8344660358
 30
0.0
 11
2.767897278
 21
7.8344660358
 31
0.0
  0
LINE
  5
20A
330
1F
100
AcDbEntity
  8
0
  6
Continuous
 62
     7
370
    15
100
AcDbLine
 10
2.777897278
 20
7.8344660358
 30
0.0
 11
2.777897278
 21
7.8694660358
 31
0.0
  0
LINE
  5
20B
330
1F
100
AcDbEntity
  8
0
  6
Continuous
 62
     7
370
    15
100
AcDbLine
 10
2.812897278
 20
7.8694660358
 30
0.0
 11
2.777897278
 21
7.8694660358
 31
0.0
  0
LINE
  5
20C
330
1F
100
AcDbEntity
  8
0
  6
Continuous
 62
     7
370
    15
100
AcDbLine
 10
2.812897278
 20
7.8794660358
 30
0.0
 11
2.777897278
 21
7.8794660358
 31
0.0
  0
LINE
  5
20D
330
1F
100
AcDbEntity
  8
0
  6
Continuous
 62
     7
370
    15
100
AcDbLine
 10
2.777897278
 20
7.8794660358
 30
0.0
 11
2.777897278
 21
7.9144660358
 31
0.0
  0
LINE
  5
20E
330
1F
100
AcDbEntity
  8
0
  6
Continuous
 62
     7
370
    15
100
AcDbLine
 10
2.777897278
 20
7.9144660358
 30
0.0
 11
2.767897278
 21
7.9144660358
 31
0.0
  0
LINE
  5
20F
330
1F
100
AcDbEntity
  8
0
  6
Continuous
 62
     7
370
    15
100
AcDbLine
 10
2.767897278
 20
7.8794660358
 30
0.0
 11
2.767897278
 21
7.9144660358
 31
0.0
  0
LINE
  5
210
330
1F
100
AcDbEntity
  8
0
  6
Continuous
 62
     7
370
    15
100
AcDbLine
 10
2.767897278
 20
7.8794660358
 30
0.0
 11
2.732897278
 21
7.8794660358
 31
0.0
  0
LINE
  5
211
330
1F
100
AcDbEntity
  8
0
  6
Continuous
 62
     7
370
    15
100
AcDbLine
 10
2.732897278
 20
7.8694660358
 30
0.0
 11
2.732897278
 21
7.8794660358
 31
0.0
  0
LINE
  5
212
330
1F
100
AcDbEntity
  8
0
  6
Continuous
 62
     7
370
    15
100
AcDbLine
 10
2.767897278
 20
7.8694660358
 30
0.0
 11
2.732897278
 21
7.8694660358
 31
0.0
  0
LINE
  5
213
330
1F
100
AcDbEntity
  8
0
  6
Continuous
 62
   144
370
     0
100
AcDbLine
 10
2.812897278
 20
7.8694660358
 30
0.0
 11
2.812897278
 21
7.8794660358
 31
0.0
  0
ARC
  5
214
330
1F
100
AcDbEntity
  8
0
  6
Continuous
 62
     8
370
    15
100
AcDbCircle
 10
2.475897278
 20
8.1714660358
 30
0.0
 40
0.1300000000000003
100
AcDbArc
 50
306.8698976458
 51
180.0
  0
ARC
  5
215
330
1F
100
AcDbEntity
  8
0
  6
Continuous
 62
     8
370
    15
100
AcDbCircle
 10
2.475897278
 20
8.1714660358
 30
0.0
 40
0.1300000000000003
100
AcDbArc
 50
180.0
 51
233.1301023542
  0
SPLINE
  5
216
330
1F
100
AcDbEntity
  8
0
  6
Continuous
 62
     8
370
    15
100
AcDbSpline
210
0.0
220
0.0
230
1.0
 70
     8
 71
     3
 72
    10
 73
     6
 74
     0
 42
0.000000001
 43
0.00000001
 40
0.0
 40
0.0
 40
0.0
 40
0.0
 40
0.4481001118542581
 40
0.8925444929617699
 40
1.0
 40
1.0
 40
1.0
 40
1.0
 10
2.475897278049882
 20
8.378966035829857
 30
0.0
 10
2.484598742414573
 20
8.37861002024789
 30
0.0
 10
2.501930682072589
 20
8.377900893562389
 30
0.0
 10
2.521248329407542
 20
8.374642644398794
 30
0.0
 10
2.531417357288047
 20
8.371214155717322
 30
0.0
 10
2.533397278049867
 20
8.370546625251098
 30
0.0
  0
SPLINE
  5
217
330
1F
100
AcDbEntity
  8
0
  6
Continuous
 62
     8
370
    15
100
AcDbSpline
210
0.0
220
0.0
230
1.0
 70
     8
 71
     3
 72
     9
 73
     5
 74
     0
 42
0.000000001
 43
0.00000001
 40
0.0
 40
0.0
 40
0.0
 40
0.0
 40
0.5005837980051965
 40
1.0
 40
1.0
 40
1.0
 40
1.0
 10
2.681103593787869
 20
8.196466035829847
 30
0.0
 10
2.682187011258888
 20
8.188137578853846
 30
0.0
 10
2.684351319163652
 20
8.171500090766557
 30
0.0
 10
2.682698273920966
 20
8.15480422279914
 30
0.0
 10
2.681872716344138
 20
8.146466035829848
 30
0.0
  0
SPLINE
  5
218
330
1F
100
AcDbEntity
  8
0
  6
Continuous
 62
     8
370
    15
100
AcDbSpline
210
0.0
220
0.0
230
1.0
 70
     8
 71
     3
 72
    10
 73
     6
 74
     0
 42
0.000000001
 43
0.00000001
 40
0.0
 40
0.0
 40
0.0
 40
0.0
 40
0.1360062921206167
 40
0.8989935281107553
 40
1.0
 40
1.0
 40
1.0
 40
1.0
 10
2.653416740011173
 20
8.064499680290623
 30
0.0
 10
2.652153913769623
 20
8.062296913944188
 30
0.0
 10
2.6438067071766
 20
8.047736758979967
 30
0.0
 10
2.631877083297508
 20
8.032932158785158
 30
0.0
 10
2.619828654873114
 20
8.022205028049589
 30
0.0
 10
2.618420115394343
 20
8.020950956846045
 30
0.0
  0
SPLINE
  5
219
330
1F
100
AcDbEntity
  8
0
  6
Continuous
 62
     8
370
    15
100
AcDbSpline
210
0.0
220
0.0
230
1.0
 70
     8
 71
     3
 72
    10
 73
     6
 74
     0
 42
0.000000001
 43
0.00000001
 40
0.0
 40
0.0
 40
0.0
 40
0.0
 40
0.0168376798113963
 40
0.7799043435050129
 40
1.0
 40
1.0
 40
1.0
 40
1.0
 10
2.363165737246814
 20
7.997313763722858
 30
0.0
 10
2.362894049974315
 20
7.997471985080127
 30
0.0
 10
2.350309769582338
 20
8.004800638739736
 30
0.0
 10
2.335766307506231
 20
8.017056957553944
 30
0.0
 10
2.323630776478906
 20
8.030816105259747
 30
0.0
 10
2.32091405553311
 20
8.033896297192387
 30
0.0
  0
SPLINE
  5
21A
330
1F
100
AcDbEntity
  8
0
  6
Continuous
 62
     8
370
    15
100
AcDbSpline
210
0.0
220
0.0
230
1.0
 70
     8
 71
     3
 72
     9
 73
     5
 74
     0
 42
0.000000001
 43
0.00000001
 40
0.0
 40
0.0
 40
0.0
 40
0.0
 40
0.5005837980056065
 40
1.0
 40
1.0
 40
1.0
 40
1.0
 10
2.270690962311896
 20
8.146466035829848
 30
0.0
 10
2.269607544840875
 20
8.154794492805856
 30
0.0
 10
2.267443236936111
 20
8.171431980893143
 30
0.0
 10
2.269096282178795
 20
8.18812784886056
 30
0.0
 10
2.269921839755621
 20
8.196466035829847
 30
0.0
  0
SPLINE
  5
21B
330
1F
100
AcDbEntity
  8
0
  6
Continuous
 62
     8
370
    15
100
AcDbSpline
210
0.0
220
0.0
230
1.0
 70
     8
 71
     3
 72
     9
 73
     5
 74
     0
 42
0.000000001
 43
0.00000001
 40
0.0
 40
0.0
 40
0.0
 40
0.0
 40
0.3514038764824929
 40
0.9999999999999999
 40
0.9999999999999999
 40
0.9999999999999999
 40
0.9999999999999999
 10
2.418397278049867
 20
8.369825435945947
 30
0.0
 10
2.424936353598051
 20
8.371940124341302
 30
0.0
 10
2.443544786759457
 20
8.377957953218212
 30
0.0
 10
2.463169054237046
 20
8.378569432644412
 30
0.0
 10
2.475897278049882
 20
8.378966035829857
 30
0.0
  0
LINE
  5
21C
330
1F
100
AcDbEntity
  8
0
  6
Continuous
 62
     7
370
    15
100
AcDbLine
 10
1.915897278
 20
1.1179262754
 30
0.0
 11
1.975897278
 21
1.0579262754
 31
0.0
  0
LINE
  5
21D
330
1F
100
AcDbEntity
  8
0
  6
Continuous
 62
     7
370
    15
100
AcDbLine
 10
1.915897278
 20
1.1179262754
 30
0.0
 11
1.915897278
 21
2.1179262754
 31
0.0
  0
LINE
  5
21E
330
1F
100
AcDbEntity
  8
0
  6
Continuous
 62
     7
370
    15
100
AcDbLine
 10
1.975897278
 20
2.1779262754
 30
0.0
 11
1.915897278
 21
2.1179262754
 31
0.0
  0
LINE
  5
21F
330
1F
100
AcDbEntity
  8
0
  6
Continuous
 62
     7
370
    15
100
AcDbLine
 10
1.975897278
 20
2.1779262754
 30
0.0
 11
2.975897278
 21
2.1779262754
 31
0.0
  0
LINE
  5
220
330
1F
100
AcDbEntity
  8
0
  6
Continuous
 62
     7
370
    15
100
AcDbLine
 10
3.035897278
 20
2.1179262754
 30
0.0
 11
2.975897278
 21
2.1779262754
 31
0.0
  0
LINE
  5
221
330
1F
100
AcDbEntity
  8
0
  6
Continuous
 62
     7
370
    15
100
AcDbLine
 10
3.035897278
 20
2.1179262754
 30
0.0
 11
3.035897278
 21
1.1179262754
 31
0.0
  0
LINE
  5
222
330
1F
100
AcDbEntity
  8
0
  6
Continuous
 62
     7
370
    15
100
AcDbLine
 10
2.975897278
 20
1.0579262754
 30
0.0
 11
3.035897278
 21
1.1179262754
 31
0.0
  0
LINE
  5
223
330
1F
100
AcDbEntity
  8
0
  6
Continuous
 62
     7
370
    15
100
AcDbLine
 10
2.975897278
 20
1.0579262754
 30
0.0
 11
1.975897278
 21
1.0579262754
 31
0.0
  0
CIRCLE
  5
224
330
1F
100
AcDbEntity
  8
0
  6
Continuous
 62
     7
370
    15
100
AcDbCircle
 10
2.903397278
 20
1.1904262754
 30
0.0
 40
0.0934999999999997
  0
CIRCLE
  5
225
330
1F
100
AcDbEntity
  8
0
  6
Continuous
 62
     7
370
    15
100
AcDbCircle
 10
2.048397278
 20
1.1904262754
 30
0.0
 40
0.0934999999999997
  0
CIRCLE
  5
226
330
1F
100
AcDbEntity
  8
0
  6
Continuous
 62
     7
370
    15
100
AcDbCircle
 10
2.048397278
 20
2.0454262754
 30
0.0
 40
0.0935000000000001
  0
CIRCLE
  5
227
330
1F
100
AcDbEntity
  8
0
  6
Continuous
 62
     7
370
    15
100
AcDbCircle
 10
2.903397278
 20
2.0454262754
 30
0.0
 40
0.0935000000000001
  0
CIRCLE
  5
228
330
1F
100
AcDbEntity
  8
0
  6
Continuous
 62
     7
370
    15
100
AcDbCircle
 10
2.475897278
 20
1.6179262754
 30
0.0
 40
0.1499999999999995
  0
CIRCLE
  5
229
330
1F
100
AcDbEntity
  8
0
  6
Continuous
 62
     7
370
    15
100
AcDbCircle
 10
2.475897278
 20
1.9229262754
 30
0.0
 40
0.1499999999999995
  0
CIRCLE
  5
22A
330
1F
100
AcDbEntity
  8
0
  6
Continuous
 62
     7
370
    15
100
AcDbCircle
 10
2.270897278
 20
2.1169262754
 30
0.0
 40
0.0314999999999999
  0
CIRCLE
  5
22B
330
1F
100
AcDbEntity
  8
0
  6
Continuous
 62
     7
370
    15
100
AcDbCircle
 10
2.475897278
 20
1.6179262754
 30
0.0
 40
0.1449999999999996
  0
CIRCLE
  5
22C
330
1F
100
AcDbEntity
  8
0
  6
Continuous
 62
     7
370
    15
100
AcDbCircle
 10
2.475897278
 20
1.9229262754
 30
0.0
 40
0.1449999999999996
  0
CIRCLE
  5
22D
330
1F
100
AcDbEntity
  8
0
  6
Continuous
 62
     7
370
    15
100
AcDbCircle
 10
2.475897278
 20
1.6179262754
 30
0.0
 40
0.1300000000000003
  0
CIRCLE
  5
22E
330
1F
100
AcDbEntity
  8
0
  6
Continuous
 62
     7
370
    15
100
AcDbCircle
 10
2.475897278
 20
1.9229262754
 30
0.0
 40
0.1300000000000003
  0
CIRCLE
  5
22F
330
1F
100
AcDbEntity
  8
0
  6
Continuous
 62
     7
370
    15
100
AcDbCircle
 10
2.475897278
 20
1.6179262754
 30
0.0
 40
0.0950000000000002
  0
CIRCLE
  5
230
330
1F
100
AcDbEntity
  8
0
  6
Continuous
 62
     7
370
    15
100
AcDbCircle
 10
2.475897278
 20
1.6179262754
 30
0.0
 40
0.0900000000000003
  0
ELLIPSE
  5
231
330
1F
100
AcDbEntity
  8
0
  6
Continuous
 62
     7
370
    15
100
AcDbEllipse
 10
2.475897278
 20
1.9229262754
 30
0.0
 11
0.0
 21
0.09006664199358183
 31
0.0
210
0.0
220
0.0
230
1.0
 40
0.8660254038
 41
3.064593512932978
 42
3.218591794246613
  0
LWPOLYLINE
  5
232
330
1F
100
AcDbEntity
  8
0
  6
Continuous
 62
     7
370
    15
100
AcDbPolyline
 90
       34
 70
   128
 43
0.0
 10
2.469897278
 20
1.8331264981
 10
2.4556391302
 20
1.8352443942
 10
2.4420778154
 20
1.839606117
 10
2.4296798113
 20
1.8460616334
 10
2.4188715804
 20
1.8543888886
 10
2.4100249007
 20
1.8643014444
 10
2.4034440773
 20
1.8754583321
 10
2.3993554752
 20
1.8874757806
 10
2.3978997328
 20
1.8999404178
 10
2.3991269243
 20
1.9124234892
 10
2.4029948371
 20
1.9244956061
 10
2.409370424
 20
1.935741516
 10
2.4180343797
 20
1.9457743856
 10
2.4286886843
 20
1.9542491077
 10
2.4409668546
 20
1.9608741716
 10
2.45444655
 20
1.9654216904
 10
2.4686641006
 20
1.9677352402
 10
2.4831304555
 20
1.9677352402
 10
2.4973480061
 20
1.9654216904
 10
2.5108277015
 20
1.9608741716
 10
2.5231058718
 20
1.9542491077
 10
2.5337601764
 20
1.9457743856
 10
2.5424241321
 20
1.935741516
 10
2.548799719
 20
1.9244956061
 10
2.5526676318
 20
1.9124234892
 10
2.5538948233
 20
1.8999404178
 10
2.5524390809
 20
1.8874757806
 10
2.5483504788
 20
1.8754583321
 10
2.5417696554
 20
1.8643014444
 10
2.5329229757
 20
1.8543888886
 10
2.5221147448
 20
1.8460616334
 10
2.5097167407
 20
1.839606117
 10
2.4961554259
 20
1.8352443942
 10
2.481897278
 20
1.8331264981
  0
ARC
  5
233
330
1F
100
AcDbEntity
  8
0
  6
Continuous
 62
     7
370
    15
100
AcDbCircle
 10
2.475897278
 20
1.9229262754
 30
0.0
 40
0.0900000000000002
100
AcDbArc
 50
86.1774462707
 51
93.8225537293
  0
ARC
  5
234
330
1F
100
AcDbEntity
  8
0
  6
Continuous
 62
     7
370
    15
100
AcDbCircle
 10
2.475897278
 20
1.9229262754
 30
0.0
 40
0.0900000000000002
100
AcDbArc
 50
93.8225537293
 51
266.1774462707
  0
ARC
  5
235
330
1F
100
AcDbEntity
  8
0
  6
Continuous
 62
     7
370
    15
100
AcDbCircle
 10
2.475897278
 20
1.9229262754
 30
0.0
 40
0.0900000000000002
100
AcDbArc
 50
273.8225537293
 51
86.1774462707
  0
ARC
  5
236
330
1F
100
AcDbEntity
  8
0
  6
Continuous
 62
     7
370
    15
100
AcDbCircle
 10
2.178897278
 20
1.3209262754
 30
0.0
 40
0.109
100
AcDbArc
 50
202.6075684754
 51
247.3924315246
  0
ARC
  5
237
330
1F
100
AcDbEntity
  8
0
  6
Continuous
 62
     7
370
    15
100
AcDbCircle
 10
2.772897278
 20
1.3209262754
 30
0.0
 40
0.1089999999999999
100
AcDbArc
 50
292.6075684755
 51
337.3924315246
  0
ARC
  5
238
330
1F
100
AcDbEntity
  8
0
  6
Continuous
 62
     7
370
    15
100
AcDbCircle
 10
2.178897278
 20
1.9149262754
 30
0.0
 40
0.1090000000000002
100
AcDbArc
 50
112.6075684754
 51
157.3924315245
  0
ARC
  5
239
330
1F
100
AcDbEntity
  8
0
  6
Continuous
 62
     7
370
    15
100
AcDbCircle
 10
2.772897278
 20
1.9149262754
 30
0.0
 40
0.1090000000000001
100
AcDbArc
 50
22.6075684755
 51
67.3924315245
  0
ARC
  5
23A
330
1F
100
AcDbEntity
  8
0
  6
Continuous
 62
     7
370
    15
100
AcDbCircle
 10
2.170897278
 20
1.3129262754
 30
0.0
 40
0.1090000000000001
100
AcDbArc
 50
196.3773216734
 51
253.6226783267
  0
ARC
  5
23B
330
1F
100
AcDbEntity
  8
0
  6
Continuous
 62
     7
370
    15
100
AcDbCircle
 10
2.780897278
 20
1.9229262754
 30
0.0
 40
0.109
100
AcDbArc
 50
16.3773216734
 51
73.6226783266
  0
ARC
  5
23C
330
1F
100
AcDbEntity
  8
0
  6
Continuous
 62
     7
370
    15
100
AcDbCircle
 10
2.780897278
 20
1.3129262754
 30
0.0
 40
0.109
100
AcDbArc
 50
286.3773216734
 51
343.6226783266
  0
ARC
  5
23D
330
1F
100
AcDbEntity
  8
0
  6
Continuous
 62
     7
370
    15
100
AcDbCircle
 10
2.170897278
 20
1.9229262754
 30
0.0
 40
0.109
100
AcDbArc
 50
106.3773216733
 51
163.6226783266
  0
ARC
  5
23E
330
1F
100
AcDbEntity
  8
0
  6
Continuous
 62
   144
370
     0
100
AcDbCircle
 10
2.415897278
 20
1.5579262754
 30
0.0
 40
0.02
100
AcDbArc
 50
306.5287041953
 51
90.0
  0
ARC
  5
23F
330
1F
100
AcDbEntity
  8
0
  6
Continuous
 62
   144
370
     0
100
AcDbCircle
 10
2.415897278
 20
1.5579262754
 30
0.0
 40
0.0200000000000001
100
AcDbArc
 50
90.0
 51
143.4712958047
  0
ARC
  5
240
330
1F
100
AcDbEntity
  8
0
  6
Continuous
 62
   144
370
     0
100
AcDbCircle
 10
2.535897278
 20
1.6779262754
 30
0.0
 40
0.0200000000000001
100
AcDbArc
 50
126.5287041952
 51
323.4712958048
  0
ARC
  5
241
330
1F
100
AcDbEntity
  8
0
  6
Continuous
 62
   144
370
     0
100
AcDbCircle
 10
2.535897278
 20
1.5579262754
 30
0.0
 40
0.0200000000000003
100
AcDbArc
 50
36.5287041953
 51
233.4712958047
  0
ARC
  5
242
330
1F
100
AcDbEntity
  8
0
  6
Continuous
 62
   144
370
     0
100
AcDbCircle
 10
2.415897278
 20
1.6779262754
 30
0.0
 40
0.02
100
AcDbArc
 50
216.5287041953
 51
270.0
  0
ARC
  5
243
330
1F
100
AcDbEntity
  8
0
  6
Continuous
 62
   144
370
     0
100
AcDbCircle
 10
2.415897278
 20
1.6779262754
 30
0.0
 40
0.0200000000000004
100
AcDbArc
 50
270.0
 51
53.4712958047
  0
LINE
  5
244
330
1F
100
AcDbEntity
  8
0
  6
Continuous
 62
     7
370
    15
100
AcDbLine
 10
7.306847617
 20
7.8641849021
 30
0.0
 11
7.306847617
 21
9.0612358265
 31
0.0
  0
LINE
  5
245
330
1F
100
AcDbEntity
  8
0
  6
Continuous
 62
     7
370
    15
100
AcDbLine
 10
6.466847617
 20
9.0612358265
 30
0.0
 11
6.466847617
 21
7.8641849021
 31
0.0
  0
LINE
  5
246
330
1F
100
AcDbEntity
  8
0
  6
Continuous
 62
     7
370
    15
100
AcDbLine
 10
7.1078543914
 20
7.4119839622
 30
0.0
 11
7.074347617
 21
7.4313332988
 31
0.0
  0
LINE
  5
247
330
1F
100
AcDbEntity
  8
0
  6
Continuous
 62
     7
370
    15
100
AcDbLine
 10
6.699347617
 20
7.4313332988
 30
0.0
 11
6.6658408427
 21
7.4119839622
 31
0.0
  0
LINE
  5
248
330
1F
100
AcDbEntity
  8
0
  6
Continuous
 62
     7
370
    15
100
AcDbLine
 10
7.074347617
 20
7.3865085272
 30
0.0
 11
7.074347617
 21
7.5498166896
 31
0.0
  0
LINE
  5
249
330
1F
100
AcDbEntity
  8
0
  6
Continuous
 62
     7
370
    15
100
AcDbLine
 10
6.699347617
 20
7.4801226758
 30
0.0
 11
6.699347617
 21
7.3865085272
 31
0.0
  0
LINE
  5
24A
330
1F
100
AcDbEntity
  8
0
  6
Continuous
 62
     7
370
    15
100
AcDbLine
 10
7.199347617
 20
7.1823733242
 30
0.0
 11
7.199347617
 21
7.2844409257
 31
0.0
  0
LINE
  5
24B
330
1F
100
AcDbEntity
  8
0
  6
Continuous
 62
     7
370
    15
100
AcDbLine
 10
6.574347617
 20
7.2844409257
 30
0.0
 11
6.574347617
 21
7.1823733242
 31
0.0
  0
SPLINE
  5
24C
330
1F
100
AcDbEntity
  8
0
  6
Continuous
 62
     7
370
    15
100
AcDbSpline
210
0.0
220
0.0
230
1.0
 70
     8
 71
     3
 72
    27
 73
    23
 74
     0
 42
0.000000001
 43
0.00000001
 40
0.0
 40
0.0
 40
0.0
 40
0.0
 40
0.0390418950604871
 40
0.0865193292194488
 40
0.1344151523472463
 40
0.1840808149868717
 40
0.236248737259506
 40
0.2906674054299193
 40
0.3462838343082573
 40
0.4019579682561233
 40
0.4574029264177912
 40
0.5127111977272455
 40
0.5681077094985321
 40
0.6237942463174793
 40
0.6800445472632874
 40
0.737113374155041
 40
0.7950346390993009
 40
0.8460730224966112
 40
0.8946871813392585
 40
0.9413708015849421
 40
0.9916944703373631
 40
0.9999999999999999
 40
0.9999999999999999
 40
0.9999999999999999
 40
0.9999999999999999
 10
6.55013746041301
 20
9.43191146294453
 30
0.0
 10
6.550011696974062
 20
9.434554281212142
 30
0.0
 10
6.549732997173213
 20
9.440410935030005
 30
0.0
 10
6.546622383073878
 20
9.449078727646317
 30
0.0
 10
6.541587713609301
 20
9.457596769659906
 30
0.0
 10
6.534619807879563
 20
9.465323099768773
 30
0.0
 10
6.525826857631587
 20
9.47219412453188
 30
0.0
 10
6.515276889522006
 20
9.478045476389008
 30
0.0
 10
6.503257450732026
 20
9.482667192460049
 30
0.0
 10
6.490185545581988
 20
9.485901284621354
 30
0.0
 10
6.476497377189545
 20
9.487673356950184
 30
0.0
 10
6.462564189274248
 20
9.487962548040121
 30
0.0
 10
6.4487290849929
 20
9.486765196578725
 30
0.0
 10
6.435317976540562
 20
9.484082868676944
 30
0.0
 10
6.422642388330237
 20
9.479911679998875
 30
0.0
 10
6.411015636105104
 20
9.47423082307983
 30
0.0
 10
6.401210993460348
 20
9.467308106749968
 30
0.0
 10
6.393520500510145
 20
9.45945714609804
 30
0.0
 10
6.387946055431488
 20
9.451082505472362
 30
0.0
 10
6.384473554295949
 20
9.441866025712919
 30
0.0
 10
6.382981844744956
 20
9.434727777986915
 30
0.0
 10
6.383436670269267
 20
9.430791930102185
 30
0.0
 10
6.383501101763908
 20
9.430234370008613
 30
0.0
  0
LINE
  5
24D
330
1F
100
AcDbEntity
  8
0
  6
Continuous
 62
     7
370
    15
100
AcDbLine
 10
6.550326189
 20
9.3968320061
 30
0.0
 11
6.550326189
 21
9.4311267202
 31
0.0
  0
LINE
  5
24E
330
1F
100
AcDbEntity
  8
0
  6
Continuous
 62
     7
370
    15
100
AcDbLine
 10
6.383326189
 20
9.4311267202
 30
0.0
 11
6.383326189
 21
9.3968320061
 31
0.0
  0
SPLINE
  5
24F
330
1F
100
AcDbEntity
  8
0
  6
Continuous
 62
     7
370
    15
100
AcDbSpline
210
0.0
220
0.0
230
1.0
 70
     8
 71
     3
 72
    27
 73
    23
 74
     0
 42
0.000000001
 43
0.00000001
 40
0.0
 40
0.0
 40
0.0
 40
0.0
 40
0.039041895060482
 40
0.0865193292194447
 40
0.1344151523472404
 40
0.1840808149868673
 40
0.2362487372594947
 40
0.290667405429908
 40
0.3462838343082457
 40
0.4019579682561104
 40
0.4574029264177796
 40
0.5127111977272347
 40
0.5681077094985202
 40
0.6237942463174677
 40
0.6800445472632752
 40
0.737113374155029
 40
0.7950346390992881
 40
0.8460730224965956
 40
0.8946871813392461
 40
0.9413708015849295
 40
0.9916944703373457
 40
1.0
 40
1.0
 40
1.0
 40
1.0
 10
7.390180316462629
 20
9.431911462944528
 30
0.0
 10
7.39005455302368
 20
9.43455428121214
 30
0.0
 10
7.389775853222832
 20
9.440410935030004
 30
0.0
 10
7.386665239123497
 20
9.449078727646317
 30
0.0
 10
7.381630569658921
 20
9.457596769659904
 30
0.0
 10
7.374662663929183
 20
9.46532309976877
 30
0.0
 10
7.365869713681207
 20
9.472194124531878
 30
0.0
 10
7.355319745571627
 20
9.478045476389006
 30
0.0
 10
7.343300306781646
 20
9.482667192460045
 30
0.0
 10
7.330228401631609
 20
9.485901284621354
 30
0.0
 10
7.316540233239166
 20
9.487673356950184
 30
0.0
 10
7.30260704532387
 20
9.487962548040121
 30
0.0
 10
7.288771941042522
 20
9.486765196578723
 30
0.0
 10
7.275360832590183
 20
9.484082868676946
 30
0.0
 10
7.262685244379858
 20
9.479911679998875
 30
0.0
 10
7.251058492154725
 20
9.474230823079832
 30
0.0
 10
7.241253849509969
 20
9.467308106749966
 30
0.0
 10
7.233563356559766
 20
9.459457146098043
 30
0.0
 10
7.227988911481108
 20
9.451082505472364
 30
0.0
 10
7.224516410345569
 20
9.441866025712923
 30
0.0
 10
7.223024700794575
 20
9.434727777986918
 30
0.0
 10
7.223479526318886
 20
9.430791930102185
 30
0.0
 10
7.223543957813527
 20
9.430234370008613
 30
0.0
  0
LINE
  5
250
330
1F
100
AcDbEntity
  8
0
  6
Continuous
 62
     7
370
    15
100
AcDbLine
 10
7.390369045
 20
9.3968320061
 30
0.0
 11
7.390369045
 21
9.4311267202
 31
0.0
  0
LINE
  5
251
330
1F
100
AcDbEntity
  8
0
  6
Continuous
 62
     7
370
    15
100
AcDbLine
 10
7.223369045
 20
9.4311267202
 30
0.0
 11
7.223369045
 21
9.3968320061
 31
0.0
  0
LINE
  5
252
330
1F
100
AcDbEntity
  8
0
  6
Continuous
 62
     7
370
    15
100
AcDbLine
 10
6.357826189
 20
9.3182906395
 30
0.0
 11
6.357826189
 21
9.1502366809
 31
0.0
  0
LINE
  5
253
330
1F
100
AcDbEntity
  8
0
  6
Continuous
 62
     7
370
    15
100
AcDbLine
 10
7.415869045
 20
9.1502366809
 30
0.0
 11
7.415869045
 21
9.3182906395
 31
0.0
  0
LINE
  5
254
330
1F
100
AcDbEntity
  8
0
  6
Continuous
 62
     7
370
    15
100
AcDbLine
 10
7.122347617
 20
9.3968320061
 30
0.0
 11
7.122347617
 21
9.5765855626
 31
0.0
  0
LINE
  5
255
330
1F
100
AcDbEntity
  8
0
  6
Continuous
 62
     7
370
    15
100
AcDbLine
 10
7.122347617
 20
9.656525095
 30
0.0
 11
7.122347617
 21
9.7463114735
 31
0.0
  0
LINE
  5
256
330
1F
100
AcDbEntity
  8
0
  6
Continuous
 62
     7
370
    15
100
AcDbLine
 10
6.651347617
 20
9.7463114735
 30
0.0
 11
6.651347617
 21
9.5721405379
 31
0.0
  0
LINE
  5
257
330
1F
100
AcDbEntity
  8
0
  6
Continuous
 62
     7
370
    15
100
AcDbLine
 10
6.651347617
 20
9.5637229412
 30
0.0
 11
6.651347617
 21
9.3968320061
 31
0.0
  0
LINE
  5
258
330
1F
100
AcDbEntity
  8
0
  6
Continuous
 62
     7
370
    15
100
AcDbLine
 10
6.6987879052
 20
9.5177366198
 30
0.0
 11
6.7309375627
 21
9.536296222
 31
0.0
  0
LINE
  5
259
330
1F
100
AcDbEntity
  8
0
  6
Continuous
 62
     7
370
    15
100
AcDbLine
 10
6.6936901364
 20
9.6060126121
 30
0.0
 11
6.6592911153
 21
9.5861544799
 31
0.0
  0
LINE
  5
25A
330
1F
100
AcDbEntity
  8
0
  6
Continuous
 62
     7
370
    15
100
AcDbLine
 10
7.1603637052
 20
9.6506446229
 30
0.0
 11
7.1166708721
 21
9.6574031954
 31
0.0
  0
LINE
  5
25B
330
1F
100
AcDbEntity
  8
0
  6
Continuous
 62
     7
370
    15
100
AcDbLine
 10
7.1020231894
 20
9.5797294218
 30
0.0
 11
7.1482873093
 21
9.572573113
 31
0.0
  0
LINE
  5
25C
330
1F
100
AcDbEntity
  8
0
  6
Continuous
 62
     7
370
    15
100
AcDbLine
 10
7.4271827535
 20
9.3462064757
 30
0.0
 11
7.4271827535
 21
9.3968320061
 31
0.0
  0
LINE
  5
25D
330
1F
100
AcDbEntity
  8
0
  6
Continuous
 62
     7
370
    15
100
AcDbLine
 10
6.3465124805
 20
9.3968320061
 30
0.0
 11
6.3465124805
 21
9.3462064757
 31
0.0
  0
LINE
  5
25E
330
1F
100
AcDbEntity
  8
0
  6
Continuous
 62
     7
370
    15
100
AcDbLine
 10
6.906847617
 20
9.6569846524
 30
0.0
 11
6.906847617
 21
9.7536561101
 31
0.0
  0
LINE
  5
25F
330
1F
100
AcDbEntity
  8
0
  6
Continuous
 62
     7
370
    15
100
AcDbLine
 10
6.866847617
 20
9.7536565904
 30
0.0
 11
6.866847617
 21
9.6557327877
 31
0.0
  0
LINE
  5
260
330
1F
100
AcDbEntity
  8
0
  6
Continuous
 62
     7
370
    15
100
AcDbLine
 10
6.906847617
 20
9.6253421455
 30
0.0
 11
6.906847617
 21
9.6556871366
 31
0.0
  0
LINE
  5
261
330
1F
100
AcDbEntity
  8
0
  6
Continuous
 62
     7
370
    15
100
AcDbLine
 10
6.866847617
 20
9.655687617
 30
0.0
 11
6.866847617
 21
9.639848835
 31
0.0
  0
LINE
  5
262
330
1F
100
AcDbEntity
  8
0
  6
Continuous
 62
     7
370
    15
100
AcDbLine
 10
6.9917004307
 20
9.6579729894
 30
0.0
 11
6.9917004307
 21
9.7046758507
 31
0.0
  0
LINE
  5
263
330
1F
100
AcDbEntity
  8
0
  6
Continuous
 62
     7
370
    15
100
AcDbLine
 10
6.9517004307
 20
9.7046775
 30
0.0
 11
6.9517004307
 21
9.6459823194
 31
0.0
  0
LINE
  5
264
330
1F
100
AcDbEntity
  8
0
  6
Continuous
 62
     7
370
    15
100
AcDbLine
 10
6.8219948033
 20
9.6459823194
 30
0.0
 11
6.8219948033
 21
9.7046758507
 31
0.0
  0
LINE
  5
265
330
1F
100
AcDbEntity
  8
0
  6
Continuous
 62
     7
370
    15
100
AcDbLine
 10
6.7819948033
 20
9.7046775
 30
0.0
 11
6.7819948033
 21
9.6579729894
 31
0.0
  0
LINE
  5
266
330
1F
100
AcDbEntity
  8
0
  6
Continuous
 62
     7
370
    15
100
AcDbLine
 10
7.306847617
 20
7.7008767398
 30
0.0
 11
7.306847617
 21
7.856019494
 31
0.0
  0
LINE
  5
267
330
1F
100
AcDbEntity
  8
0
  6
Continuous
 62
     7
370
    15
100
AcDbLine
 10
6.466847617
 20
7.856019494
 30
0.0
 11
6.466847617
 21
7.7008767398
 31
0.0
  0
SPLINE
  5
268
330
1F
100
AcDbEntity
  8
0
  6
Continuous
 62
     7
370
    15
100
AcDbSpline
210
0.0
220
0.0
230
1.0
 70
     8
 71
     3
 72
    29
 73
    25
 74
     0
 42
0.000000001
 43
0.00000001
 40
0.0
 40
0.0
 40
0.0
 40
0.0
 40
0.0302949243532101
 40
0.0805314349769604
 40
0.1308819278069191
 40
0.1813196989899944
 40
0.23181085335291
 40
0.2823224013635383
 40
0.3328260439072444
 40
0.3832985035043653
 40
0.4337175365435609
 40
0.4840618550690378
 40
0.5343114835210151
 40
0.5844377443725761
 40
0.6343962569993689
 40
0.6841129535271769
 40
0.7334540946307485
 40
0.7821522344087675
 40
0.8295868697121545
 40
0.8739180767560941
 40
0.9106778874157916
 40
0.9415223559131305
 40
0.9792153867063508
 40
1.0
 40
1.0
 40
1.0
 40
1.0
 10
6.474832818029141
 20
7.653490919501469
 30
0.0
 10
6.475944295404711
 20
7.650048562744233
 30
0.0
 10
6.478898878388822
 20
7.640897923312663
 30
0.0
 10
6.485944288753834
 20
7.626391351299309
 30
0.0
 10
6.495688117940162
 20
7.610034600054173
 30
0.0
 10
6.507424691155689
 20
7.594169618613877
 30
0.0
 10
6.520973722387215
 20
7.578859772205621
 30
0.0
 10
6.536287828126072
 20
7.564183358642088
 30
0.0
 10
6.553273279177423
 20
7.550207254636433
 30
0.0
 10
6.57183902945294
 20
7.536994698290862
 30
0.0
 10
6.591883673564166
 20
7.524603972172752
 30
0.0
 10
6.613298837028484
 20
7.513089057049272
 30
0.0
 10
6.635967309057794
 20
7.502499804152361
 30
0.0
 10
6.65976098189934
 20
7.492882278947176
 30
0.0
 10
6.684535641367936
 20
7.484279141895768
 30
0.0
 10
6.710121739048023
 20
7.476729773204929
 30
0.0
 10
6.736302381270817
 20
7.470270992124071
 30
0.0
 10
6.762752142992661
 20
7.464940155612148
 30
0.0
 10
6.788816329477271
 20
7.46078786210181
 30
0.0
 10
6.813026233568531
 20
7.457873551511558
 30
0.0
 10
6.834316710930561
 20
7.456021905713621
 30
0.0
 10
6.854458462712963
 20
7.454831741226907
 30
0.0
 10
6.871611346215255
 20
7.454265005274961
 30
0.0
 10
6.882852272853605
 20
7.454208766624119
 30
0.0
 10
6.886847617004155
 20
7.454188777812528
 30
0.0
  0
SPLINE
  5
269
330
1F
100
AcDbEntity
  8
0
  6
Continuous
 62
     7
370
    15
100
AcDbSpline
210
0.0
220
0.0
230
1.0
 70
     8
 71
     3
 72
    13
 73
     9
 74
     0
 42
0.000000001
 43
0.00000001
 40
0.0
 40
0.0
 40
0.0
 40
0.0
 40
0.1556361437886707
 40
0.3402183728424683
 40
0.526615681167235
 40
0.7200305050571233
 40
0.9232085007164238
 40
0.9999999999999999
 40
0.9999999999999999
 40
0.9999999999999999
 40
0.9999999999999999
 10
6.970172704219574
 20
9.189545861087067
 30
0.0
 10
6.970024766122736
 20
9.192254290797864
 30
0.0
 10
6.96970137556986
 20
9.198174879208338
 30
0.0
 10
6.966513296852238
 20
9.206886193958917
 30
0.0
 10
6.961419043137602
 20
9.215382181849346
 30
0.0
 10
6.954384042496966
 20
9.223072484292
 30
0.0
 10
6.947526136224184
 20
9.228428322658731
 30
0.0
 10
6.942991789344543
 20
9.231149160176619
 30
0.0
 10
6.941748084935853
 20
9.231895445740152
 30
0.0
  0
SPLINE
  5
26A
330
1F
100
AcDbEntity
  8
0
  6
Continuous
 62
     7
370
    15
100
AcDbSpline
210
0.0
220
0.0
230
1.0
 70
     8
 71
     3
 72
    22
 73
    18
 74
     0
 42
0.000000001
 43
0.00000001
 40
0.0
 40
0.0
 40
0.0
 40
0.0
 40
0.0417659808704969
 40
0.1170761320566362
 40
0.1921335153937862
 40
0.2668845891511439
 40
0.3414436824743673
 40
0.4161106755508497
 40
0.4911601055662507
 40
0.566957035293655
 40
0.6438488671639403
 40
0.7218980864008777
 40
0.7908133080713384
 40
0.85645840731411
 40
0.9194620000606349
 40
0.9874176991081431
 40
1.0
 40
1.0
 40
1.0
 40
1.0
 10
6.941748084935853
 20
9.231895445740152
 30
0.0
 10
6.939723680491704
 20
9.232995966396134
 30
0.0
 10
6.934048979763999
 20
9.236080886203242
 30
0.0
 10
6.92369028484815
 20
9.240049896595194
 30
0.0
 10
6.910641032423606
 20
9.243350029794655
 30
0.0
 10
6.896962177865182
 20
9.245165484126604
 30
0.0
 10
6.883032687086581
 20
9.245503351100425
 30
0.0
 10
6.869189049778236
 20
9.244353348846644
 30
0.0
 10
6.855759606925012
 20
9.241718716610247
 30
0.0
 10
6.843055676241153
 20
9.237595466464713
 30
0.0
 10
6.831390152018161
 20
9.231963507721572
 30
0.0
 10
6.821531827343358
 20
9.225085220039535
 30
0.0
 10
6.813775720986965
 20
9.217270205683091
 30
0.0
 10
6.808131982472105
 20
9.208919754048445
 30
0.0
 10
6.804577342806239
 20
9.199715183647644
 30
0.0
 10
6.803028027015216
 20
9.192509773458001
 30
0.0
 10
6.803467662190434
 20
9.188495855098788
 30
0.0
 10
6.803536345570472
 20
9.18786876815115
 30
0.0
  0
LINE
  5
26B
330
1F
100
AcDbEntity
  8
0
  6
Continuous
 62
     7
370
    15
100
AcDbLine
 10
6.970347617
 20
9.1543587968
 30
0.0
 11
6.970347617
 21
9.1886535109
 31
0.0
  0
LINE
  5
26C
330
1F
100
AcDbEntity
  8
0
  6
Continuous
 62
     7
370
    15
100
AcDbLine
 10
6.803347617
 20
9.1886535109
 30
0.0
 11
6.803347617
 21
9.1543587968
 31
0.0
  0
SPLINE
  5
26D
330
1F
100
AcDbEntity
  8
0
  6
Continuous
 62
     7
370
    15
100
AcDbSpline
210
0.0
220
0.0
230
1.0
 70
    11
 71
     3
 72
    54
 73
    50
 74
     0
 42
0.000000001
 43
0.00000001
 40
0.0
 40
0.0
 40
0.0
 40
0.0
 40
0.0312500000000036
 40
0.0312500000000036
 40
0.0625000000000073
 40
0.0625000000000073
 40
0.0937500000000109
 40
0.0937500000000109
 40
0.1250000000000145
 40
0.1250000000000145
 40
0.1875000000000186
 40
0.1875000000000186
 40
0.2500000000000226
 40
0.2500000000000226
 40
0.2812500000000246
 40
0.2812500000000246
 40
0.3125000000000265
 40
0.3125000000000265
 40
0.3750000000000306
 40
0.3750000000000306
 40
0.406250000000031
 40
0.406250000000031
 40
0.4375000000000313
 40
0.4375000000000313
 40
0.4687500000000317
 40
0.4687500000000317
 40
0.5000000000000321
 40
0.5000000000000321
 40
0.5625000000000329
 40
0.5625000000000329
 40
0.6250000000000335
 40
0.6250000000000335
 40
0.656250000000034
 40
0.656250000000034
 40
0.6875000000000344
 40
0.6875000000000344
 40
0.7500000000000311
 40
0.7500000000000311
 40
0.7812500000000271
 40
0.7812500000000271
 40
0.8125000000000231
 40
0.8125000000000231
 40
0.8437500000000191
 40
0.8437500000000191
 40
0.875000000000015
 40
0.875000000000015
 40
0.9375000000000071
 40
0.9375000000000071
 40
1.0
 40
1.0
 40
1.0
 40
1.0
 10
6.589862768905798
 20
8.810175299727623
 30
0.0
 10
6.587220173309918
 20
8.811700837693136
 30
0.0
 10
6.58465757047832
 20
8.813520663539816
 30
0.0
 10
6.579681730018704
 20
8.817722028547418
 30
0.0
 10
6.57724338301039
 20
8.820134408532642
 30
0.0
 10
6.572656284761284
 20
8.82538756019574
 30
0.0
 10
6.570510705767903
 20
8.828214256712037
 30
0.0
 10
6.566495382260798
 20
8.834255547971631
 30
0.0
 10
6.564620927839368
 20
8.83748987234106
 30
0.0
 10
6.55962770391071
 20
8.847358271013075
 30
0.0
 10
6.557005435413009
 20
8.854421471985424
 30
0.0
 10
6.553517814829926
 20
8.86811051753928
 30
0.0
 10
6.552613249663656
 20
8.8748790941406
 30
0.0
 10
6.55260946426407
 20
8.88391936347027
 30
0.0
 10
6.552833844770926
 20
8.886809120544635
 30
0.0
 10
6.553718425223174
 20
8.89206107340029
 30
0.0
 10
6.554373928676623
 20
8.894445287617064
 30
0.0
 10
6.557001878868984
 20
8.900878206074697
 30
0.0
 10
6.559581723979447
 20
8.904063899431609
 30
0.0
 10
6.56463408313093
 20
8.906986395708707
 30
0.0
 10
6.566473648282033
 20
8.907628988265982
 30
0.0
 10
6.570472320513247
 20
8.908287455409654
 30
0.0
 10
6.572658061883388
 20
8.908298001587395
 30
0.0
 10
6.577243890384923
 20
8.907678529174161
 30
0.0
 10
6.579635146535741
 20
8.90705813078386
 30
0.0
 10
6.584624803385244
 20
8.905205262181603
 30
0.0
 10
6.587239099460682
 20
8.903958033735783
 30
0.0
 10
6.595064736265114
 20
8.89944335078441
 30
0.0
 10
6.600472769461808
 20
8.895280325446814
 30
0.0
 10
6.610587176619732
 20
8.885417536779814
 30
0.0
 10
6.615391940870931
 20
8.879619393577256
 30
0.0
 10
6.621449253872863
 20
8.870358909022562
 30
0.0
 10
6.623315687212495
 20
8.867117737267689
 30
0.0
 10
6.626542416642926
 20
8.860626147658142
 30
0.0
 10
6.627920602380961
 20
8.857355835918233
 30
0.0
 10
6.631315300238425
 20
8.847453687484617
 30
0.0
 10
6.632508461049208
 20
8.84094840932949
 30
0.0
 10
6.632516423237128
 20
8.831794086364111
 30
0.0
 10
6.632224099690903
 20
8.828922365605418
 30
0.0
 10
6.631077245544059
 20
8.823526055877174
 30
0.0
 10
6.63020830710442
 20
8.82097683962265
 30
0.0
 10
6.627956206195035
 20
8.816401991380426
 30
0.0
 10
6.626582496244978
 20
8.814373611203749
 30
0.0
 10
6.62335986588561
 20
8.810840152133105
 30
0.0
 10
6.621498074967809
 20
8.809337397863299
 30
0.0
 10
6.615454492278154
 20
8.805837538172389
 30
0.0
 10
6.610651989941413
 20
8.804761901624982
 30
0.0
 10
6.600546575833321
 20
8.805407873634877
 30
0.0
 10
6.595147960097555
 20
8.807124223796599
 30
0.0
 10
6.589862768905798
 20
8.810175299727623
 30
0.0
  0
LWPOLYLINE
  5
26E
330
1F
100
AcDbEntity
  8
0
  6
Continuous
 62
     7
370
    15
100
AcDbPolyline
 90
       31
 70
   128
 43
0.0
 10
7.1838324651
 20
7.6927391987
 10
7.1596157973
 20
7.6798162337
 10
7.133717423
 20
7.6680299629
 10
7.1062970142
 20
7.6574530525
 10
7.0775236269
 20
7.6481507127
 10
7.0475746586
 20
7.6401802955
 10
7.0166347546
 20
7.6335909412
 10
6.9848946698
 20
7.6284232754
 10
6.9525500923
 20
7.6247091583
 10
6.9198004372
 20
7.6224714889
 10
6.886847617
 20
7.6217240631
 10
6.8538947968
 20
7.6224714889
 10
6.8211451417
 20
7.6247091583
 10
6.7888005642
 20
7.6284232754
 10
6.7570604794
 20
7.6335909412
 10
6.7261205754
 20
7.6401802955
 10
6.6961716071
 20
7.6481507127
 10
6.6673982198
 20
7.6574530525
 10
6.639977811
 20
7.6680299629
 10
6.6140794367
 20
7.6798162337
 10
6.5898627689
 20
7.6927391987
 10
6.5674771115
 20
7.7067191834
 10
6.5470604794
 20
7.7216699967
 10
6.528738748
 20
7.7374994617
 10
6.5126248768
 20
7.7541099846
 10
6.4988182133
 20
7.771399156
 10
6.4874038802
 20
7.7892603824
 10
6.4784522504
 20
7.8075835433
 10
6.472018514
 20
7.8262556705
 10
6.4681423368
 20
7.845161644
 10
6.466847617
 20
7.8641849021
  0
ARC
  5
26F
330
1F
100
AcDbEntity
  8
0
  6
Continuous
 62
     7
370
    15
100
AcDbCircle
 10
7.0961424859
 20
7.8855137848
 30
0.0
 40
0.2117819007642814
100
AcDbArc
 50
294.4600049562
 51
354.2198540862
  0
SPLINE
  5
270
330
1F
100
AcDbEntity
  8
0
  6
Continuous
 62
     7
370
    15
100
AcDbSpline
210
0.0
220
0.0
230
1.0
 70
    11
 71
     3
 72
    54
 73
    50
 74
     0
 42
0.000000001
 43
0.00000001
 40
0.0
 40
0.0
 40
0.0
 40
0.0
 40
0.0312499999999995
 40
0.0312499999999995
 40
0.062499999999999
 40
0.062499999999999
 40
0.0937499999999985
 40
0.0937499999999985
 40
0.1249999999999979
 40
0.1249999999999979
 40
0.1874999999999971
 40
0.1874999999999971
 40
0.2499999999999962
 40
0.2499999999999962
 40
0.2812499999999959
 40
0.2812499999999959
 40
0.3124999999999957
 40
0.3124999999999957
 40
0.374999999999996
 40
0.374999999999996
 40
0.4062499999999962
 40
0.4062499999999962
 40
0.4374999999999964
 40
0.4374999999999964
 40
0.4687499999999966
 40
0.4687499999999966
 40
0.4999999999999968
 40
0.4999999999999968
 40
0.5624999999999972
 40
0.5624999999999972
 40
0.6249999999999976
 40
0.6249999999999976
 40
0.6562499999999978
 40
0.6562499999999978
 40
0.6874999999999979
 40
0.6874999999999979
 40
0.7499999999999983
 40
0.7499999999999983
 40
0.7812499999999984
 40
0.7812499999999984
 40
0.8124999999999987
 40
0.8124999999999987
 40
0.8437499999999988
 40
0.8437499999999988
 40
0.8749999999999989
 40
0.8749999999999989
 40
0.9374999999999994
 40
0.9374999999999994
 40
1.0
 40
1.0
 40
1.0
 40
1.0
 10
6.949347617004154
 20
8.67776129884735
 30
0.0
 10
6.949347617004154
 20
8.681137863140698
 30
0.0
 10
6.948941274445521
 20
8.68442141941547
 30
0.0
 10
6.947350238968422
 20
8.690814531592961
 30
0.0
 10
6.946145818479934
 20
8.693956659810683
 30
0.0
 10
6.943006822833547
 20
8.699883061860294
 30
0.0
 10
6.941086793334954
 20
8.70266357156744
 30
0.0
 10
6.936551547950851
 20
8.70788096414994
 30
0.0
 10
6.933915628894953
 20
8.71032350934055
 30
0.0
 10
6.925279515361927
 20
8.716846228231692
 30
0.0
 10
6.918315771156831
 20
8.720295427490049
 30
0.0
 10
6.903280004286882
 20
8.72489319456579
 30
0.0
 10
6.895047501930759
 20
8.72609213159921
 30
0.0
 10
6.882800672351723
 20
8.726097189971863
 30
0.0
 10
6.878653265552353
 20
8.725800106901618
 30
0.0
 10
6.870633221768081
 20
8.724630835624534
 30
0.0
 10
6.866734497866289
 20
8.723764763625049
 30
0.0
 10
6.855373552409673
 20
8.720299372509801
 30
0.0
 10
6.848494728553239
 20
8.716903875703188
 30
0.0
 10
6.839754777938196
 20
8.710305768944952
 30
0.0
 10
6.837172896033775
 20
8.707908836688958
 30
0.0
 10
6.832646562812728
 20
8.702713073897932
 30
0.0
 10
6.830686328371876
 20
8.6998795332796
 30
0.0
 10
6.827549266820193
 20
8.693955975026647
 30
0.0
 10
6.82636449936808
 20
8.690874960023999
 30
0.0
 10
6.824759926317352
 20
8.684463055770404
 30
0.0
 10
6.824349190684732
 20
8.681113543211557
 30
0.0
 10
6.824344483497751
 20
8.671115665205814
 30
0.0
 10
6.825983392430881
 20
8.66424430117141
 30
0.0
 10
6.832210589303887
 20
8.651457707991375
 30
0.0
 10
6.836855861644063
 20
8.645418743891698
 30
0.0
 10
6.845489593816379
 20
8.637827722555723
 30
0.0
 10
6.848700046002509
 20
8.63549395051717
 30
0.0
 10
6.855478098190125
 20
8.631465481302552
 30
0.0
 10
6.859063132147272
 20
8.629746867517142
 30
0.0
 10
6.870417962307502
 20
8.62551582670034
 30
0.0
 10
6.878532145851781
 20
8.624034262480937
 30
0.0
 10
6.890925733395343
 20
8.624024763758358
 30
0.0
 10
6.894989798368826
 20
8.62438797477096
 30
0.0
 10
6.902989006428941
 20
8.625815072107745
 30
0.0
 10
6.906966403616265
 20
8.626897273140528
 30
0.0
 10
6.914530248717744
 20
8.629702289646351
 30
0.0
 10
6.918119876303141
 20
8.631414906742334
 30
0.0
 10
6.924918220180523
 20
8.635441157815052
 30
0.0
 10
6.928128366802201
 20
8.637768238897149
 30
0.0
 10
6.936767208436978
 20
8.645338709622942
 30
0.0
 10
6.941429576586637
 20
8.651376191279274
 30
0.0
 10
6.947681063108709
 20
8.664149976404005
 30
0.0
 10
6.949347617004154
 20
8.671008170260652
 30
0.0
 10
6.949347617004153
 20
8.677761298847349
 30
0.0
  0
ARC
  5
271
330
1F
100
AcDbEntity
  8
0
  6
Continuous
 62
   144
370
     0
100
AcDbCircle
 10
6.9474423688
 20
9.3950480811
 30
0.0
 40
0.4786964111679632
100
AcDbArc
 50
288.3181642034
 51
299.5920021463
  0
ARC
  5
272
330
1F
100
AcDbEntity
  8
0
  6
Continuous
 62
   144
370
     0
100
AcDbCircle
 10
6.7911421311
 20
9.3160214082
 30
0.0
 40
0.3927311358749035
100
AcDbArc
 50
227.0842545584
 51
252.9211219743
  0
ARC
  5
273
330
1F
100
AcDbEntity
  8
0
  6
Continuous
 62
   144
370
     0
100
AcDbCircle
 10
7.0281742302
 20
9.2552012428
 30
0.0
 40
0.3172256624528708
100
AcDbArc
 50
299.3856893634
 51
314.3613444022
  0
SPLINE
  5
274
330
1F
100
AcDbEntity
  8
0
  6
Continuous
 62
   144
370
     0
100
AcDbSpline
210
0.0
220
0.0
230
1.0
 70
     8
 71
     3
 72
    10
 73
     6
 74
     0
 42
0.000000001
 43
0.00000001
 40
0.0
 40
0.0
 40
0.0
 40
0.0
 40
0.44670793299248
 40
0.8934963019443162
 40
1.0
 40
1.0
 40
1.0
 40
1.0
 10
6.924347617004154
 20
8.651146606645804
 30
0.0
 10
6.929452215918331
 20
8.655374067140315
 30
0.0
 10
6.939662332900522
 20
8.663829749342232
 30
0.0
 10
6.94722719132043
 20
8.676560799702704
 30
0.0
 10
6.947709200037946
 20
8.683714323253074
 30
0.0
 10
6.9478019823386
 20
8.685091311570226
 30
0.0
  0
SPLINE
  5
275
330
1F
100
AcDbEntity
  8
0
  6
Continuous
 62
   144
370
     0
100
AcDbSpline
210
0.0
220
0.0
230
1.0
 70
     8
 71
     3
 72
    10
 73
     6
 74
     0
 42
0.000000001
 43
0.00000001
 40
0.0
 40
0.0
 40
0.0
 40
0.0
 40
0.2008589438099368
 40
0.6249398825600412
 40
1.0
 40
1.0
 40
1.0
 40
1.0
 10
6.825841908614869
 20
8.68653535834435
 30
0.0
 10
6.826133569105001
 20
8.683833382253653
 30
0.0
 10
6.827041023206831
 20
8.675426623815259
 30
0.0
 10
6.83519909324933
 20
8.662502159120644
 30
0.0
 10
6.844828334363103
 20
8.654773766063167
 30
0.0
 10
6.849347617004153
 20
8.651146606645804
 30
0.0
  0
SPLINE
  5
276
330
1F
100
AcDbEntity
  8
0
  6
Continuous
 62
   144
370
     0
100
AcDbSpline
210
0.0
220
0.0
230
1.0
 70
     8
 71
     3
 72
    16
 73
    12
 74
     0
 42
0.000000001
 43
0.00000001
 40
0.0
 40
0.0
 40
0.0
 40
0.0
 40
0.2499999999999978
 40
0.2499999999999978
 40
0.3749999999999987
 40
0.3749999999999987
 40
0.4999999999999997
 40
0.4999999999999997
 40
0.7499999999999998
 40
0.7499999999999998
 40
1.0
 40
1.0
 40
1.0
 40
1.0
 10
6.849347617004148
 20
8.651146606645817
 30
0.0
 10
6.854342169359121
 20
8.649983582940848
 30
0.0
 10
6.860076047735748
 20
8.648971658936915
 30
0.0
 10
6.869665386572684
 20
8.647888399239848
 30
0.0
 10
6.872960693666187
 20
8.64760718401575
 30
0.0
 10
6.879758505443304
 20
8.647222488983546
 30
0.0
 10
6.883306420819152
 20
8.647120295183173
 30
0.0
 10
6.893790137324795
 20
8.64711768149536
 30
0.0
 10
6.900797832568876
 20
8.64752556720786
 30
0.0
 10
6.913535786711024
 20
8.648959986294361
 30
0.0
 10
6.919347882481026
 20
8.649982376229216
 30
0.0
 10
6.92434761700416
 20
8.651146606645817
 30
0.0
  0
SPLINE
  5
277
330
1F
100
AcDbEntity
  8
0
  6
Continuous
 62
   144
370
     0
100
AcDbSpline
210
0.0
220
0.0
230
1.0
 70
     8
 71
     3
 72
    13
 73
     9
 74
     0
 42
0.000000001
 43
0.00000001
 40
0.0
 40
0.0
 40
0.0
 40
0.0
 40
0.1707548133114932
 40
0.3414677412040907
 40
0.5132716581145224
 40
0.6858379257058718
 40
0.8572028147804001
 40
1.0
 40
1.0
 40
1.0
 40
1.0
 10
6.609308205388428
 20
8.821400911265187
 30
0.0
 10
6.604905743404712
 20
8.824522008132773
 30
0.0
 10
6.596101899342207
 20
8.830763436276353
 30
0.0
 10
6.585103285708685
 20
8.846011063819741
 30
0.0
 10
6.576982066870475
 20
8.863502413522049
 30
0.0
 10
6.572541225232867
 20
8.881456660906553
 30
0.0
 10
6.571626143914778
 20
8.897191268883327
 30
0.0
 10
6.574011136967591
 20
8.904338573930941
 30
0.0
 10
6.575095196192357
 20
8.907587263464832
 30
0.0
  0
SPLINE
  5
278
330
1F
100
AcDbEntity
  8
0
  6
Continuous
 62
   144
370
     0
100
AcDbSpline
210
0.0
220
0.0
230
1.0
 70
     8
 71
     3
 72
     9
 73
     5
 74
     0
 42
0.000000001
 43
0.00000001
 40
0.0
 40
0.0
 40
0.0
 40
0.0
 40
0.4904728978733527
 40
1.0
 40
1.0
 40
1.0
 40
1.0
 10
6.627339120965297
 20
8.816968786730381
 30
0.0
 10
6.624479750180059
 20
8.816839832785638
 30
0.0
 10
6.618649925947899
 20
8.816576915210984
 30
0.0
 10
6.61246141794012
 20
8.819772615405705
 30
0.0
 10
6.609308205388429
 20
8.821400911265187
 30
0.0
  0
ARC
  5
279
330
1F
100
AcDbEntity
  8
0
  6
Continuous
 62
     7
370
    15
100
AcDbCircle
 10
7.044779022
 20
7.1966601465
 30
0.0
 40
0.1552274584747288
100
AcDbArc
 50
293.9607207322
 51
354.7191383102
  0
LWPOLYLINE
  5
27A
330
1F
100
AcDbEntity
  8
0
  6
Continuous
 62
     7
370
    15
100
AcDbPolyline
 90
       27
 70
   128
 43
0.0
 10
6.574347617
 20
7.1823733242
 10
6.5753390604
 20
7.168014412
 10
6.5788915177
 20
7.1517210813
 10
6.5849957963
 20
7.1356817447
 10
6.5936013141
 20
7.1200293093
 10
6.6046367632
 20
7.104893476
 10
6.6180107002
 20
7.0903996652
 10
6.6336123046
 20
7.076667977
 10
6.6513122966
 20
7.0638121967
 10
6.6709640084
 20
7.0519388512
 10
6.6924045998
 20
7.0411463268
 10
6.7154564072
 20
7.0315240538
 10
6.7399284162
 20
7.0231517653
 10
6.765617844
 20
7.0160988369
 10
6.7923118199
 20
7.0104237112
 10
6.8197891491
 20
7.0061734141
 10
6.8478221459
 20
7.003383165
 10
6.8761785201
 20
7.0020760848
 10
6.9046233017
 20
7.0022630042
 10
6.9329207885
 20
7.0039423745
 10
6.9608364984
 20
7.0071002798
 10
6.9881391132
 20
7.0117105528
 10
7.0146023947
 20
7.0177349912
 10
7.0400070599
 20
7.0251236747
 10
7.0641425977
 20
7.0338153783
 10
7.0868090135
 20
7.0437380799
 10
7.1078184861
 20
7.0548095567
  0
LWPOLYLINE
  5
27B
330
1F
100
AcDbEntity
  8
0
  6
Continuous
 62
     7
370
    15
100
AcDbPolyline
 90
       38
 70
   128
 43
0.0
 10
6.820733133
 20
6.8715259356
 10
6.8105107276
 20
6.8645266693
 10
6.8024843955
 20
6.8566307616
 10
6.7968850398
 20
6.8480653637
 10
6.7938737436
 20
6.8390768863
 10
6.7935371364
 20
6.8299239116
 10
6.7958849019
 20
6.820869754
 10
6.8008494991
 20
6.8121748851
 10
6.8082881055
 20
6.8040894406
 10
6.8179867261
 20
6.7968460238
 10
6.8296663491
 20
6.7906530147
 10
6.8429909731
 20
6.785688575
 10
6.8575772729
 20
6.7820955224
 10
6.8730056272
 20
6.7799772227
 10
6.8888321903
 20
6.7793946153
 10
6.9046016609
 20
6.780364461
 10
6.91986038
 20
6.7828588589
 10
6.934169382
 20
6.7868060497
 10
6.9471170229
 20
6.7920924801
 10
6.9583308228
 20
6.798566069
 10
6.967488181
 20
6.806040583
 10
6.974325657
 20
6.814300994
 10
6.978646549
 20
6.823109665
 10
6.980326553
 20
6.8322131866
 10
6.9793173381
 20
6.841349667
 10
6.9756479377
 20
6.8502562664
 10
6.9694239138
 20
6.858676758
 10
6.9608243201
 20
6.8663688997
 10
6.9500965514
 20
6.8731114026
 10
6.937549226
 20
6.8787102971
 10
6.9235433076
 20
6.8830045132
 10
6.9084817211
 20
6.8858705141
 10
6.8927977607
 20
6.8872258503
 10
6.8769426255
 20
6.8870315311
 10
6.8613724389
 20
6.8852931468
 10
6.8465351268
 20
6.8820607075
 10
6.8328575317
 20
6.8774272047
 10
6.820733133
 20
6.8715259356
  0
LWPOLYLINE
  5
27C
330
1F
100
AcDbEntity
  8
0
  6
Continuous
 62
     7
370
    15
100
AcDbPolyline
 90
       38
 70
   128
 43
0.0
 10
6.3483858031
 20
7.144206245
 10
6.3586082085
 20
7.1512055114
 10
6.3666345406
 20
7.159101419
 10
6.3722338963
 20
7.167666817
 10
6.3752451925
 20
7.1766552944
 10
6.3755817997
 20
7.1858082691
 10
6.3732340342
 20
7.1948624267
 10
6.368269437
 20
7.2035572955
 10
6.3608308306
 20
7.2116427401
 10
6.35113221
 20
7.2188861569
 10
6.339452587
 20
7.2250791659
 10
6.326127963
 20
7.2300436057
 10
6.3115416632
 20
7.2336366582
 10
6.2961133089
 20
7.2357549579
 10
6.2802867457
 20
7.2363375653
 10
6.2645172752
 20
7.2353677197
 10
6.2492585561
 20
7.2328733218
 10
6.2349495541
 20
7.2289261309
 10
6.2220019132
 20
7.2236397005
 10
6.2107881133
 20
7.2171661117
 10
6.2016307551
 20
7.2096915976
 10
6.1947932791
 20
7.2014311866
 10
6.190472387
 20
7.1926225156
 10
6.1887923831
 20
7.183518994
 10
6.189801598
 20
7.1743825136
 10
6.1934709984
 20
7.1654759142
 10
6.1996950223
 20
7.1570554226
 10
6.208294616
 20
7.1493632809
 10
6.2190223847
 20
7.1426207781
 10
6.2315697101
 20
7.1370218836
 10
6.2455756285
 20
7.1327276675
 10
6.260637215
 20
7.1298616665
 10
6.2763211754
 20
7.1285063304
 10
6.2921763106
 20
7.1287006495
 10
6.3077464972
 20
7.1304390338
 10
6.3225838093
 20
7.1336714731
 10
6.3362614044
 20
7.138304976
 10
6.3483858031
 20
7.144206245
  0
LWPOLYLINE
  5
27D
330
1F
100
AcDbEntity
  8
0
  6
Continuous
 62
     7
370
    15
100
AcDbPolyline
 90
       38
 70
   128
 43
0.0
 10
7.557538399
 20
7.144206245
 10
7.5677608043
 20
7.1512055114
 10
7.5757871364
 20
7.159101419
 10
7.5813864922
 20
7.167666817
 10
7.5843977884
 20
7.1766552944
 10
7.5847343955
 20
7.1858082691
 10
7.58238663
 20
7.1948624267
 10
7.5774220329
 20
7.2035572955
 10
7.5699834264
 20
7.2116427401
 10
7.5602848058
 20
7.2188861569
 10
7.5486051828
 20
7.2250791659
 10
7.5352805588
 20
7.2300436057
 10
7.520694259
 20
7.2336366582
 10
7.5052659047
 20
7.2357549579
 10
7.4894393416
 20
7.2363375653
 10
7.473669871
 20
7.2353677197
 10
7.4584111519
 20
7.2328733218
 10
7.44410215
 20
7.2289261309
 10
7.431154509
 20
7.2236397005
 10
7.4199407091
 20
7.2171661117
 10
7.4107833509
 20
7.2096915976
 10
7.4039458749
 20
7.2014311866
 10
7.3996249829
 20
7.1926225156
 10
7.397944979
 20
7.183518994
 10
7.3989541938
 20
7.1743825136
 10
7.4026235942
 20
7.1654759142
 10
7.4088476182
 20
7.1570554226
 10
7.4174472118
 20
7.1493632809
 10
7.4281749805
 20
7.1426207781
 10
7.4407223059
 20
7.1370218836
 10
7.4547282243
 20
7.1327276675
 10
7.4697898109
 20
7.1298616665
 10
7.4854737712
 20
7.1285063304
 10
7.5013289064
 20
7.1287006495
 10
7.516899093
 20
7.1304390338
 10
7.5317364051
 20
7.1336714731
 10
7.5454140003
 20
7.138304976
 10
7.557538399
 20
7.144206245
  0
LINE
  5
27E
330
1F
100
AcDbEntity
  8
0
  6
Continuous
 62
     7
370
    15
100
AcDbLine
 10
6.8444212101
 20
6.749677025
 30
0.0
 11
6.9292740239
 21
6.749677025
 31
0.0
  0
LINE
  5
27F
330
1F
100
AcDbEntity
  8
0
  6
Continuous
 62
     7
370
    15
100
AcDbLine
 10
6.1373144289
 20
7.1578810809
 30
0.0
 11
6.8444212101
 21
6.749677025
 31
0.0
  0
LINE
  5
280
330
1F
100
AcDbEntity
  8
0
  6
Continuous
 62
     7
370
    15
100
AcDbLine
 10
6.1373144289
 20
7.2068655676
 30
0.0
 11
6.1373144289
 21
7.1578810809
 31
0.0
  0
LINE
  5
281
330
1F
100
AcDbEntity
  8
0
  6
Continuous
 62
     7
370
    15
100
AcDbLine
 10
6.6441230737
 20
7.4994399705
 30
0.0
 11
6.1373144289
 21
7.2068655676
 31
0.0
  0
LINE
  5
282
330
1F
100
AcDbEntity
  8
0
  6
Continuous
 62
     7
370
    15
100
AcDbLine
 10
7.6363808051
 20
7.2068655676
 30
0.0
 11
7.074347617
 21
7.5313204208
 31
0.0
  0
LINE
  5
283
330
1F
100
AcDbEntity
  8
0
  6
Continuous
 62
     7
370
    15
100
AcDbLine
 10
7.6363808051
 20
7.1578810809
 30
0.0
 11
7.6363808051
 21
7.2068655676
 31
0.0
  0
LINE
  5
284
330
1F
100
AcDbEntity
  8
0
  6
Continuous
 62
     7
370
    15
100
AcDbLine
 10
6.9292740239
 20
6.749677025
 30
0.0
 11
7.6363808051
 21
7.1578810809
 31
0.0
  0
LWPOLYLINE
  5
285
330
1F
100
AcDbEntity
  8
0
  6
Continuous
 62
     7
370
    15
100
AcDbPolyline
 90
       22
 70
   128
 43
0.0
 10
6.4113183067
 20
7.049502904
 10
6.4168940779
 20
7.053864256
 10
6.419995287
 20
7.0589806105
 10
6.4203463777
 20
7.0643973568
 10
6.4179161541
 20
7.0696331935
 10
6.4129205523
 20
7.0742228933
 10
6.4058034535
 20
7.0777586413
 10
6.397197243
 20
7.0799262708
 10
6.3878666204
 20
7.0805331783
 10
6.3786406526
 20
7.0795254376
 10
6.3703391072
 20
7.0769925907
 10
6.363699613
 20
7.0731596923
 10
6.3593121181
 20
7.0683673122
 10
6.3575664708
 20
7.0630412743
 10
6.3586177795
 20
7.0576548206
 10
6.3623726308
 20
7.052686561
 10
6.3684973896
 20
7.0485779473
 10
6.3764478443
 20
7.0456940478
 10
6.3855175621
 20
7.0442911096
 10
6.3949006587
 20
7.0444937899
 10
6.4037634048
 20
7.0462840798
 10
6.4113183067
 20
7.049502904
  0
LINE
  5
286
330
1F
100
AcDbEntity
  8
0
  6
Continuous
 62
     7
370
    15
100
AcDbLine
 10
6.9292740239
 20
6.749677025
 30
0.0
 11
6.9292740239
 21
6.545541822
 31
0.0
  0
LINE
  5
287
330
1F
100
AcDbEntity
  8
0
  6
Continuous
 62
     7
370
    15
100
AcDbLine
 10
6.9292740239
 20
6.545541822
 30
0.0
 11
6.8444212101
 21
6.545541822
 31
0.0
  0
LINE
  5
288
330
1F
100
AcDbEntity
  8
0
  6
Continuous
 62
     7
370
    15
100
AcDbLine
 10
6.8444212101
 20
6.545541822
 30
0.0
 11
6.8444212101
 21
6.749677025
 31
0.0
  0
LINE
  5
289
330
1F
100
AcDbEntity
  8
0
  6
Continuous
 62
     7
370
    15
100
AcDbLine
 10
7.6363808051
 20
6.9537458779
 30
0.0
 11
7.6363808051
 21
7.1578810809
 31
0.0
  0
LINE
  5
28A
330
1F
100
AcDbEntity
  8
0
  6
Continuous
 62
     7
370
    15
100
AcDbLine
 10
6.9292740239
 20
6.545541822
 30
0.0
 11
7.6363808051
 21
6.9537458779
 31
0.0
  0
LINE
  5
28B
330
1F
100
AcDbEntity
  8
0
  6
Continuous
 62
     7
370
    15
100
AcDbLine
 10
6.1373144289
 20
7.1578810809
 30
0.0
 11
6.1373144289
 21
6.9537458779
 31
0.0
  0
LINE
  5
28C
330
1F
100
AcDbEntity
  8
0
  6
Continuous
 62
     7
370
    15
100
AcDbLine
 10
6.1373144289
 20
6.9537458779
 30
0.0
 11
6.8444212101
 21
6.545541822
 31
0.0
  0
ARC
  5
28D
330
1F
100
AcDbEntity
  8
0
  6
Continuous
 62
     7
370
    15
100
AcDbCircle
 10
6.9834028244
 20
7.3937916991
 30
0.0
 40
0.0912359572015537
100
AcDbArc
 50
293.2585306802
 51
355.4213283622
  0
LWPOLYLINE
  5
28E
330
1F
100
AcDbEntity
  8
0
  6
Continuous
 62
     7
370
    15
100
AcDbPolyline
 90
       21
 70
   128
 43
0.0
 10
6.699347617
 20
7.3865085272
 10
6.7003554903
 20
7.375300569
 10
6.7039607172
 20
7.3626459928
 10
6.7101332754
 20
7.3503263942
 10
6.7187865156
 20
7.3385147135
 10
6.7297989652
 20
7.3273767607
 10
6.7430160337
 20
7.3170688882
 10
6.7582521823
 20
7.3077357962
 10
6.7752935289
 20
7.2995085005
 10
6.7939008504
 20
7.2925024946
 10
6.8138129407
 20
7.2868161273
 10
6.8347502778
 20
7.2825292227
 10
6.8564189474
 20
7.2797019597
 10
6.8785147687
 20
7.2783740267
 10
6.900727565
 20
7.2785640651
 10
6.9227455173
 20
7.2802694071
 10
6.9442595417
 20
7.2834661135
 10
6.9649676285
 20
7.2881093095
 10
6.9845790817
 20
7.2941338148
 10
7.0028185993
 20
7.3014550586
 10
7.0194301385
 20
7.3099702667
  0
LWPOLYLINE
  5
28F
330
1F
100
AcDbEntity
  8
0
  6
Continuous
 62
     7
370
    15
100
AcDbPolyline
 90
       36
 70
   128
 43
0.0
 10
7.1078184861
 20
7.1568771582
 10
7.0868090135
 20
7.1458056814
 10
7.0641425977
 20
7.1358829798
 10
7.0400070599
 20
7.1271912762
 10
7.0146023947
 20
7.1198025927
 10
6.9881391132
 20
7.1137781542
 10
6.9608364984
 20
7.1091678813
 10
6.9329207885
 20
7.106009976
 10
6.9046233017
 20
7.1043306057
 10
6.8761785201
 20
7.1041436862
 10
6.8478221459
 20
7.1054507665
 10
6.8197891491
 20
7.1082410156
 10
6.7923118199
 20
7.1124913127
 10
6.765617844
 20
7.1181664384
 10
6.7399284162
 20
7.1252193668
 10
6.7154564072
 20
7.1335916553
 10
6.6924045998
 20
7.1432139283
 10
6.6709640084
 20
7.1540064527
 10
6.6513122966
 20
7.1658797982
 10
6.6336123046
 20
7.1787355785
 10
6.6180107002
 20
7.1924672667
 10
6.6046367632
 20
7.2069610775
 10
6.5936013141
 20
7.2220969108
 10
6.5849957963
 20
7.2377493462
 10
6.5788915177
 20
7.2537886828
 10
6.5753390604
 20
7.2700820134
 10
6.574367861
 20
7.2864943266
 10
6.5759859674
 20
7.3028896246
 10
6.5801799712
 20
7.3191320509
 10
6.5869151198
 20
7.3350870156
 10
6.5961356035
 20
7.3506223109
 10
6.6077650184
 20
7.3656092064
 10
6.6217069997
 20
7.3799235159
 10
6.6378460197
 20
7.3934466266
 10
6.6560483453
 20
7.4060664817
 10
6.6658408427
 20
7.4119839622
  0
LWPOLYLINE
  5
290
330
1F
100
AcDbEntity
  8
0
  6
Continuous
 62
     7
370
    15
100
AcDbPolyline
 90
       19
 70
   128
 43
0.0
 10
7.1078543914
 20
7.4119839622
 10
7.1127912328
 20
7.4090678802
 10
7.1314864591
 20
7.3966904903
 10
7.1481545308
 20
7.3833829651
 10
7.1626573312
 20
7.369255575
 10
7.1748746854
 20
7.354425384
 10
7.1847053566
 20
7.3390152798
 10
7.1920678848
 20
7.3231529552
 10
7.1969012617
 20
7.3069698506
 10
7.1991654365
 20
7.2906000643
 10
7.1988416474
 20
7.2741792413
 10
7.1959325776
 20
7.25784345
 10
7.1904623324
 20
7.2417280536
 10
7.1824762401
 20
7.2259665896
 10
7.1720404759
 20
7.2106896624
 10
7.1592415139
 20
7.1960238613
 10
7.1441854102
 20
7.1820907119
 10
7.1269969246
 20
7.1690056686
 10
7.1078184861
 20
7.1568771582
  0
ARC
  5
291
330
1F
100
AcDbEntity
  8
0
  6
Continuous
 62
     7
370
    15
100
AcDbCircle
 10
6.8859569506
 20
7.7340052522
 30
0.0
 40
0.2929053911900646
100
AcDbArc
 50
247.882365529
 51
297.1091476828
  0
LWPOLYLINE
  5
292
330
1F
100
AcDbEntity
  8
0
  6
Continuous
 62
     7
370
    15
100
AcDbPolyline
 90
       32
 70
   128
 43
0.0
 10
6.4219249084
 20
9.4215365788
 10
6.4318826016
 20
9.416849332
 10
6.4432708893
 20
9.4134151886
 10
6.4556235338
 20
9.4113747429
 10
6.4684348163
 20
9.4108115311
 10
6.4811802415
 20
9.411748611
 10
6.49333801
 20
9.4141476185
 10
6.5044103815
 20
9.4179103379
 10
6.5139440517
 20
9.4228827232
 10
6.521548711
 20
9.4288612041
 10
6.5269130239
 20
9.4356010211
 10
6.5298173747
 20
9.4428262453
 10
6.530142859
 20
9.450241075
 10
6.5278761513
 20
9.4575419463
 10
6.5231100511
 20
9.4644299608
 10
6.5160396828
 20
9.4706231221
 10
6.5069545084
 20
9.4758678817
 10
6.4962264759
 20
9.4799495184
 10
6.4842947921
 20
9.4827009295
 10
6.4716479417
 20
9.484009472
 10
6.4588036882
 20
9.4838215739
 10
6.4462878768
 20
9.4821449279
 10
6.4346129063
 20
9.4790481759
 10
6.4242567514
 20
9.4746580995
 10
6.4156433943
 20
9.4691544289
 10
6.4091254667
 20
9.4627624849
 10
6.4049698136
 20
9.4557439545
 10
6.4033465677
 20
9.4483861772
 10
6.404322185
 20
9.4409903812
 10
6.4078567235
 20
9.4338593513
 10
6.4138054789
 20
9.4272850328
 10
6.4219249084
 20
9.4215365788
  0
LWPOLYLINE
  5
293
330
1F
100
AcDbEntity
  8
0
  6
Continuous
 62
   144
370
     0
100
AcDbPolyline
 90
       15
 70
   128
 43
0.0
 10
6.4077827728
 20
9.3627469674
 10
6.4192742338
 20
9.3572086093
 10
6.4322940538
 20
9.3529437798
 10
6.4464237651
 20
9.350089554
 10
6.461209227
 20
9.3487376691
 10
6.4761752227
 20
9.3489315757
 10
6.4908407328
 20
9.3506650416
 10
6.5047343957
 20
9.3538823517
 10
6.5174096576
 20
9.358480099
 10
6.5284591253
 20
9.3643105082
 10
6.5375276596
 20
9.3711861851
 10
6.5443237905
 20
9.3788861398
 10
6.5486290847
 20
9.3871628893
 10
6.5503051666
 20
9.3957504123
 10
6.550326189
 20
9.3968320061
  0
ARC
  5
294
330
1F
100
AcDbEntity
  8
0
  6
Continuous
 62
   144
370
     0
100
AcDbCircle
 10
6.424888849
 20
9.4008373851
 30
0.0
 40
0.0417552124617334
100
AcDbArc
 50
185.5045757886
 51
245.815565169
  0
LINE
  5
295
330
1F
100
AcDbEntity
  8
0
  6
Continuous
 62
     7
370
    15
100
AcDbLine
 10
6.4986459941
 20
9.4617446783
 30
0.0
 11
6.4738972568
 21
9.4474575364
 31
0.0
  0
LINE
  5
296
330
1F
100
AcDbEntity
  8
0
  6
Continuous
 62
     7
370
    15
100
AcDbLine
 10
6.4915749263
 20
9.4658267189
 30
0.0
 11
6.466826189
 21
9.451539577
 31
0.0
  0
LINE
  5
297
330
1F
100
AcDbEntity
  8
0
  6
Continuous
 62
     7
370
    15
100
AcDbLine
 10
6.4420774516
 20
9.4658267189
 30
0.0
 11
6.466826189
 21
9.451539577
 31
0.0
  0
LINE
  5
298
330
1F
100
AcDbEntity
  8
0
  6
Continuous
 62
     7
370
    15
100
AcDbLine
 10
6.4350063838
 20
9.4617446783
 30
0.0
 11
6.4597551212
 21
9.4474575364
 31
0.0
  0
LINE
  5
299
330
1F
100
AcDbEntity
  8
0
  6
Continuous
 62
     7
370
    15
100
AcDbLine
 10
6.4597551212
 20
9.4474575364
 30
0.0
 11
6.4350063838
 21
9.4331703944
 31
0.0
  0
LINE
  5
29A
330
1F
100
AcDbEntity
  8
0
  6
Continuous
 62
     7
370
    15
100
AcDbLine
 10
6.466826189
 20
9.4433754958
 30
0.0
 11
6.4420774516
 21
9.4290883539
 31
0.0
  0
LINE
  5
29B
330
1F
100
AcDbEntity
  8
0
  6
Continuous
 62
     7
370
    15
100
AcDbLine
 10
6.466826189
 20
9.4433754958
 30
0.0
 11
6.4915749263
 21
9.4290883539
 31
0.0
  0
LINE
  5
29C
330
1F
100
AcDbEntity
  8
0
  6
Continuous
 62
     7
370
    15
100
AcDbLine
 10
6.4738972568
 20
9.4474575364
 30
0.0
 11
6.4986459941
 21
9.4331703944
 31
0.0
  0
LINE
  5
29D
330
1F
100
AcDbEntity
  8
0
  6
Continuous
 62
   144
370
     0
100
AcDbLine
 10
6.4986459941
 20
9.4331703944
 30
0.0
 11
6.4915749263
 21
9.4290883539
 31
0.0
  0
LINE
  5
29E
330
1F
100
AcDbEntity
  8
0
  6
Continuous
 62
   144
370
     0
100
AcDbLine
 10
6.4350063838
 20
9.4331703944
 30
0.0
 11
6.4420774516
 21
9.4290883539
 31
0.0
  0
LINE
  5
29F
330
1F
100
AcDbEntity
  8
0
  6
Continuous
 62
   144
370
     0
100
AcDbLine
 10
6.4420774516
 20
9.4658267189
 30
0.0
 11
6.4350063838
 21
9.4617446783
 31
0.0
  0
LINE
  5
2A0
330
1F
100
AcDbEntity
  8
0
  6
Continuous
 62
   144
370
     0
100
AcDbLine
 10
6.4915749263
 20
9.4658267189
 30
0.0
 11
6.4986459941
 21
9.4617446783
 31
0.0
  0
LINE
  5
2A1
330
1F
100
AcDbEntity
  8
0
  6
Continuous
 62
     7
370
    15
100
AcDbLine
 10
6.4738972568
 20
9.4474575364
 30
0.0
 11
6.4738972568
 21
9.4392934553
 31
0.0
  0
LINE
  5
2A2
330
1F
100
AcDbEntity
  8
0
  6
Continuous
 62
     7
370
    15
100
AcDbLine
 10
6.4597551212
 20
9.4474575364
 30
0.0
 11
6.4597551212
 21
9.4392934553
 31
0.0
  0
LINE
  5
2A3
330
1F
100
AcDbEntity
  8
0
  6
Continuous
 62
     7
370
    15
100
AcDbLine
 10
6.466826189
 20
9.451539577
 30
0.0
 11
6.466826189
 21
9.4433754958
 31
0.0
  0
LINE
  5
2A4
330
1F
100
AcDbEntity
  8
0
  6
Continuous
 62
   144
370
     0
100
AcDbLine
 10
6.4420774516
 20
9.4658267189
 30
0.0
 11
6.4420774516
 21
9.4576626378
 31
0.0
  0
LINE
  5
2A5
330
1F
100
AcDbEntity
  8
0
  6
Continuous
 62
   144
370
     0
100
AcDbLine
 10
6.4915749263
 20
9.4658267189
 30
0.0
 11
6.4915749263
 21
9.4576626378
 31
0.0
  0
LWPOLYLINE
  5
2A6
330
1F
100
AcDbEntity
  8
0
  6
Continuous
 62
     7
370
    15
100
AcDbPolyline
 90
       32
 70
   128
 43
0.0
 10
7.2619677644
 20
9.4215365788
 10
7.2719254576
 20
9.416849332
 10
7.2833137454
 20
9.4134151886
 10
7.2956663899
 20
9.4113747429
 10
7.3084776724
 20
9.4108115311
 10
7.3212230975
 20
9.411748611
 10
7.333380866
 20
9.4141476185
 10
7.3444532375
 20
9.4179103379
 10
7.3539869077
 20
9.4228827232
 10
7.3615915671
 20
9.4288612041
 10
7.36695588
 20
9.4356010211
 10
7.3698602308
 20
9.4428262453
 10
7.370185715
 20
9.450241075
 10
7.3679190074
 20
9.4575419463
 10
7.3631529071
 20
9.4644299608
 10
7.3560825389
 20
9.4706231221
 10
7.3469973645
 20
9.4758678817
 10
7.3362693319
 20
9.4799495184
 10
7.3243376482
 20
9.4827009295
 10
7.3116907978
 20
9.484009472
 10
7.2988465443
 20
9.4838215739
 10
7.2863307328
 20
9.4821449279
 10
7.2746557624
 20
9.4790481759
 10
7.2642996074
 20
9.4746580995
 10
7.2556862503
 20
9.4691544289
 10
7.2491683228
 20
9.4627624849
 10
7.2450126696
 20
9.4557439545
 10
7.2433894237
 20
9.4483861772
 10
7.244365041
 20
9.4409903812
 10
7.2478995796
 20
9.4338593513
 10
7.2538483349
 20
9.4272850328
 10
7.2619677644
 20
9.4215365788
  0
LWPOLYLINE
  5
2A7
330
1F
100
AcDbEntity
  8
0
  6
Continuous
 62
   144
370
     0
100
AcDbPolyline
 90
       15
 70
   128
 43
0.0
 10
7.2478256288
 20
9.3627469674
 10
7.2593170898
 20
9.3572086093
 10
7.2723369099
 20
9.3529437798
 10
7.2864666211
 20
9.350089554
 10
7.3012520831
 20
9.3487376691
 10
7.3162180788
 20
9.3489315757
 10
7.3308835889
 20
9.3506650416
 10
7.3447772518
 20
9.3538823517
 10
7.3574525137
 20
9.358480099
 10
7.3685019813
 20
9.3643105082
 10
7.3775705157
 20
9.3711861851
 10
7.3843666466
 20
9.3788861398
 10
7.3886719408
 20
9.3871628893
 10
7.3903480226
 20
9.3957504123
 10
7.390369045
 20
9.3968320061
  0
ARC
  5
2A8
330
1F
100
AcDbEntity
  8
0
  6
Continuous
 62
   144
370
     0
100
AcDbCircle
 10
7.264931705
 20
9.4008373851
 30
0.0
 40
0.0417552124617326
100
AcDbArc
 50
185.5045757886
 51
245.815565169
  0
LINE
  5
2A9
330
1F
100
AcDbEntity
  8
0
  6
Continuous
 62
     7
370
    15
100
AcDbLine
 10
7.3386888502
 20
9.4617446783
 30
0.0
 11
7.3139401128
 21
9.4474575364
 31
0.0
  0
LINE
  5
2AA
330
1F
100
AcDbEntity
  8
0
  6
Continuous
 62
     7
370
    15
100
AcDbLine
 10
7.3316177824
 20
9.4658267189
 30
0.0
 11
7.3386888502
 21
9.4617446783
 31
0.0
  0
LINE
  5
2AB
330
1F
100
AcDbEntity
  8
0
  6
Continuous
 62
     7
370
    15
100
AcDbLine
 10
7.3316177824
 20
9.4658267189
 30
0.0
 11
7.306869045
 21
9.451539577
 31
0.0
  0
LINE
  5
2AC
330
1F
100
AcDbEntity
  8
0
  6
Continuous
 62
     7
370
    15
100
AcDbLine
 10
7.2821203077
 20
9.4658267189
 30
0.0
 11
7.306869045
 21
9.451539577
 31
0.0
  0
LINE
  5
2AD
330
1F
100
AcDbEntity
  8
0
  6
Continuous
 62
     7
370
    15
100
AcDbLine
 10
7.2750492399
 20
9.4617446783
 30
0.0
 11
7.2997979772
 21
9.4474575364
 31
0.0
  0
LINE
  5
2AE
330
1F
100
AcDbEntity
  8
0
  6
Continuous
 62
     7
370
    15
100
AcDbLine
 10
7.2997979772
 20
9.4474575364
 30
0.0
 11
7.2750492399
 21
9.4331703944
 31
0.0
  0
LINE
  5
2AF
330
1F
100
AcDbEntity
  8
0
  6
Continuous
 62
     7
370
    15
100
AcDbLine
 10
7.306869045
 20
9.4433754958
 30
0.0
 11
7.2821203077
 21
9.4290883539
 31
0.0
  0
LINE
  5
2B0
330
1F
100
AcDbEntity
  8
0
  6
Continuous
 62
     7
370
    15
100
AcDbLine
 10
7.306869045
 20
9.4433754958
 30
0.0
 11
7.3316177824
 21
9.4290883539
 31
0.0
  0
LINE
  5
2B1
330
1F
100
AcDbEntity
  8
0
  6
Continuous
 62
     7
370
    15
100
AcDbLine
 10
7.3139401128
 20
9.4474575364
 30
0.0
 11
7.3386888502
 21
9.4331703944
 31
0.0
  0
LINE
  5
2B2
330
1F
100
AcDbEntity
  8
0
  6
Continuous
 62
   144
370
     0
100
AcDbLine
 10
7.3386888502
 20
9.4331703944
 30
0.0
 11
7.3316177824
 21
9.4290883539
 31
0.0
  0
LINE
  5
2B3
330
1F
100
AcDbEntity
  8
0
  6
Continuous
 62
   144
370
     0
100
AcDbLine
 10
7.2750492399
 20
9.4331703944
 30
0.0
 11
7.2821203077
 21
9.4290883539
 31
0.0
  0
LINE
  5
2B4
330
1F
100
AcDbEntity
  8
0
  6
Continuous
 62
   144
370
     0
100
AcDbLine
 10
7.2821203077
 20
9.4658267189
 30
0.0
 11
7.2750492399
 21
9.4617446783
 31
0.0
  0
LINE
  5
2B5
330
1F
100
AcDbEntity
  8
0
  6
Continuous
 62
     7
370
    15
100
AcDbLine
 10
7.3139401128
 20
9.4474575364
 30
0.0
 11
7.3139401128
 21
9.4392934553
 31
0.0
  0
LINE
  5
2B6
330
1F
100
AcDbEntity
  8
0
  6
Continuous
 62
     7
370
    15
100
AcDbLine
 10
7.2997979772
 20
9.4474575364
 30
0.0
 11
7.2997979772
 21
9.4392934553
 31
0.0
  0
LINE
  5
2B7
330
1F
100
AcDbEntity
  8
0
  6
Continuous
 62
     7
370
    15
100
AcDbLine
 10
7.306869045
 20
9.451539577
 30
0.0
 11
7.306869045
 21
9.4433754958
 31
0.0
  0
LINE
  5
2B8
330
1F
100
AcDbEntity
  8
0
  6
Continuous
 62
     7
370
    15
100
AcDbLine
 10
7.3316177824
 20
9.4658267189
 30
0.0
 11
7.3316177824
 21
9.4576626378
 31
0.0
  0
LINE
  5
2B9
330
1F
100
AcDbEntity
  8
0
  6
Continuous
 62
   144
370
     0
100
AcDbLine
 10
7.2821203077
 20
9.4658267189
 30
0.0
 11
7.2821203077
 21
9.4576626378
 31
0.0
  0
ARC
  5
2BA
330
1F
100
AcDbEntity
  8
0
  6
Continuous
 62
     7
370
    15
100
AcDbCircle
 10
6.7892563087
 20
9.5152578972
 30
0.0
 40
0.3945834205718253
100
AcDbArc
 50
231.5858652983
 51
248.4195112344
  0
ARC
  5
2BB
330
1F
100
AcDbEntity
  8
0
  6
Continuous
 62
     7
370
    15
100
AcDbCircle
 10
6.9844389253
 20
9.5152578972
 30
0.0
 40
0.3945834205715901
100
AcDbArc
 50
291.5804887656
 51
308.4141347017
  0
ARC
  5
2BC
330
1F
100
AcDbEntity
  8
0
  6
Continuous
 62
     7
370
    15
100
AcDbCircle
 10
6.886847617
 20
9.0106432808
 30
0.0
 40
0.1663117884588309
100
AcDbArc
 50
242.3910402158
 51
297.6089597842
  0
LINE
  5
2BD
330
1F
100
AcDbEntity
  8
0
  6
Continuous
 62
     7
370
    15
100
AcDbLine
 10
6.6758017273
 20
8.9406091863
 30
0.0
 11
6.8097729779
 21
8.8632692296
 31
0.0
  0
LINE
  5
2BE
330
1F
100
AcDbEntity
  8
0
  6
Continuous
 62
     7
370
    15
100
AcDbLine
 10
6.6758017273
 20
8.9406091863
 30
0.0
 11
6.6758017273
 21
9.1300477162
 31
0.0
  0
LINE
  5
2BF
330
1F
100
AcDbEntity
  8
0
  6
Continuous
 62
     7
370
    15
100
AcDbLine
 10
6.9639222562
 20
8.8632692296
 30
0.0
 11
7.0978935067
 21
8.9406091863
 31
0.0
  0
LINE
  5
2C0
330
1F
100
AcDbEntity
  8
0
  6
Continuous
 62
     7
370
    15
100
AcDbLine
 10
7.0978935067
 20
9.1300477162
 30
0.0
 11
7.0978935067
 21
8.9406091863
 31
0.0
  0
LINE
  5
2C1
330
1F
100
AcDbEntity
  8
0
  6
Continuous
 62
     7
370
    15
100
AcDbLine
 10
7.2499724336
 20
9.028402482
 30
0.0
 11
7.3839436842
 21
9.1057424388
 31
0.0
  0
ARC
  5
2C2
330
1F
100
AcDbEntity
  8
0
  6
Continuous
 62
     7
370
    15
100
AcDbCircle
 10
7.361782487
 20
9.1553440779
 30
0.0
 40
0.0543271687588478
100
AcDbArc
 50
294.0743068482
 51
354.6055521942
  0
ARC
  5
2C3
330
1F
100
AcDbEntity
  8
0
  6
Continuous
 62
     7
370
    15
100
AcDbCircle
 10
6.4131544127
 20
9.1562349937
 30
0.0
 40
0.0556524222230238
100
AcDbArc
 50
186.1874562376
 51
245.13268472
  0
LINE
  5
2C4
330
1F
100
AcDbEntity
  8
0
  6
Continuous
 62
     7
370
    15
100
AcDbLine
 10
6.3897515498
 20
9.1057424388
 30
0.0
 11
6.5237228004
 21
9.028402482
 31
0.0
  0
ARC
  5
2C5
330
1F
100
AcDbEntity
  8
0
  6
Continuous
 62
     7
370
    15
100
AcDbCircle
 10
6.7911421311
 20
9.3160214082
 30
0.0
 40
0.3927311358753766
100
AcDbArc
 50
227.0842545584
 51
252.9211219743
  0
ARC
  5
2C6
330
1F
100
AcDbEntity
  8
0
  6
Continuous
 62
     7
370
    15
100
AcDbCircle
 10
6.9825531029
 20
9.3160214082
 30
0.0
 40
0.3927311358754381
100
AcDbArc
 50
287.0788780257
 51
312.9157454416
  0
SPLINE
  5
2C7
330
1F
100
AcDbEntity
  8
0
  6
Continuous
 62
     7
370
    15
100
AcDbSpline
210
0.0
220
0.0
230
1.0
 70
     8
 71
     3
 72
     9
 73
     5
 74
     0
 42
0.000000001
 43
0.00000001
 40
0.0
 40
0.0
 40
0.0
 40
0.0
 40
0.7928508447737546
 40
0.9999999999999999
 40
0.9999999999999999
 40
0.9999999999999999
 40
0.9999999999999999
 10
6.612136632513177
 20
8.823441997894784
 30
0.0
 10
6.616713105753226
 20
8.82106048402762
 30
0.0
 10
6.622485280015531
 20
8.818056748983556
 30
0.0
 10
6.627637729321818
 20
8.818787236803482
 30
0.0
 10
6.628705054842961
 20
8.818938556738281
 30
0.0
  0
SPLINE
  5
2C8
330
1F
100
AcDbEntity
  8
0
  6
Continuous
 62
     7
370
    15
100
AcDbSpline
210
0.0
220
0.0
230
1.0
 70
     8
 71
     3
 72
    13
 73
     9
 74
     0
 42
0.000000001
 43
0.00000001
 40
0.0
 40
0.0
 40
0.0
 40
0.0
 40
0.1701511936590173
 40
0.3460303573046708
 40
0.5218109608299528
 40
0.6991706848439533
 40
0.8773405448019845
 40
1.0
 40
1.0
 40
1.0
 40
1.0
 10
6.577307918003165
 20
8.906983689376286
 30
0.0
 10
6.57641929545817
 20
8.902857893897698
 30
0.0
 10
6.574612135777763
 20
8.894467412156601
 30
0.0
 10
6.576664326377477
 20
8.877631373144197
 30
0.0
 10
6.582148478929726
 20
8.859846495938074
 30
0.0
 10
6.591121319151457
 20
8.84305495434641
 30
0.0
 10
6.601638186960124
 20
8.83047156854935
 30
0.0
 10
6.609095858584539
 20
8.825478045523731
 30
0.0
 10
6.612136632513177
 20
8.823441997894784
 30
0.0
  0
SPLINE
  5
2C9
330
1F
100
AcDbEntity
  8
0
  6
Continuous
 62
     7
370
    15
100
AcDbSpline
210
0.0
220
0.0
230
1.0
 70
     8
 71
     3
 72
     9
 73
     5
 74
     0
 42
0.000000001
 43
0.00000001
 40
0.0
 40
0.0
 40
0.0
 40
0.0
 40
0.7739464374382944
 40
1.0
 40
1.0
 40
1.0
 40
1.0
 10
6.836847617004151
 20
8.695111454238711
 30
0.0
 10
6.837099886513275
 20
8.699763441311482
 30
0.0
 10
6.837425838668258
 20
8.705774176483501
 30
0.0
 10
6.841148368151869
 20
8.710601722456584
 30
0.0
 10
6.84198985920338
 20
8.711693006422228
 30
0.0
  0
SPLINE
  5
2CA
330
1F
100
AcDbEntity
  8
0
  6
Continuous
 62
     7
370
    15
100
AcDbSpline
210
0.0
220
0.0
230
1.0
 70
     8
 71
     3
 72
     9
 73
     5
 74
     0
 42
0.000000001
 43
0.00000001
 40
0.0
 40
0.0
 40
0.0
 40
0.0
 40
0.7165000039747349
 40
1.0
 40
1.0
 40
1.0
 40
1.0
 10
6.932541435020842
 20
8.710638211490085
 30
0.0
 10
6.934249106252271
 20
8.707073708849364
 30
0.0
 10
6.936632457573912
 20
8.702098827312803
 30
0.0
 10
6.936800092502549
 20
8.696654828017339
 30
0.0
 10
6.936847617004151
 20
8.695111454238713
 30
0.0
  0
LINE
  5
2CB
330
1F
100
AcDbEntity
  8
0
  6
Continuous
 62
   144
370
     0
100
AcDbLine
 10
6.829987944
 20
8.6732064425
 30
0.0
 11
6.836847617
 21
8.6726565819
 31
0.0
  0
LINE
  5
2CC
330
1F
100
AcDbEntity
  8
0
  6
Continuous
 62
   144
370
     0
100
AcDbLine
 10
6.836847617
 20
8.6726565819
 30
0.0
 11
6.836847617
 21
8.6951114542
 31
0.0
  0
LINE
  5
2CD
330
1F
100
AcDbEntity
  8
0
  6
Continuous
 62
   144
370
     0
100
AcDbLine
 10
6.936847617
 20
8.6951114542
 30
0.0
 11
6.936847617
 21
8.6726565819
 31
0.0
  0
LINE
  5
2CE
330
1F
100
AcDbEntity
  8
0
  6
Continuous
 62
   144
370
     0
100
AcDbLine
 10
6.936847617
 20
8.6726565819
 30
0.0
 11
6.9435561604
 21
8.6731935521
 31
0.0
  0
LINE
  5
2CF
330
1F
100
AcDbEntity
  8
0
  6
Continuous
 62
     7
370
    15
100
AcDbLine
 10
6.5237228004
 20
9.217841012
 30
0.0
 11
6.5237228004
 21
9.028402482
 31
0.0
  0
LINE
  5
2D0
330
1F
100
AcDbEntity
  8
0
  6
Continuous
 62
     7
370
    15
100
AcDbLine
 10
7.2499724336
 20
9.028402482
 30
0.0
 11
7.2499724336
 21
9.217841012
 31
0.0
  0
LINE
  5
2D1
330
1F
100
AcDbEntity
  8
0
  6
Continuous
 62
   144
370
     0
100
AcDbLine
 10
6.936847617
 20
8.6705977143
 30
0.0
 11
6.9424135689
 21
8.6710640596
 31
0.0
  0
LINE
  5
2D2
330
1F
100
AcDbEntity
  8
0
  6
Continuous
 62
   144
370
     0
100
AcDbLine
 10
6.936847617
 20
8.6705977143
 30
0.0
 11
6.936847617
 21
8.6627478069
 31
0.0
  0
LWPOLYLINE
  5
2D3
330
1F
100
AcDbEntity
  8
0
  6
Continuous
 62
     7
370
    15
100
AcDbPolyline
 90
       24
 70
   128
 43
0.0
 10
6.72032397
 20
9.3006999509
 10
6.7386426649
 20
9.2911780363
 10
6.7585851243
 20
9.2828136888
 10
6.7799328543
 20
9.2756985498
 10
6.8024519649
 20
9.2699105743
 10
6.8258957319
 20
9.2655131766
 10
6.8500073005
 20
9.2625545354
 10
6.8745224993
 20
9.2610670663
 10
6.8991727347
 20
9.2610670663
 10
6.9236879335
 20
9.2625545354
 10
6.9477995021
 20
9.2655131766
 10
6.9712432691
 20
9.2699105743
 10
6.9937623797
 20
9.2756985498
 10
7.0151101098
 20
9.2828136888
 10
7.0350525691
 20
9.2911780363
 10
7.053371264
 20
9.3006999509
 10
7.0698654909
 20
9.3112751083
 10
7.0843545358
 20
9.3227876451
 10
7.0966796535
 20
9.3351114273
 10
7.1067058074
 20
9.3481114331
 10
7.1143231491
 20
9.3616452317
 10
7.1194482212
 20
9.375564544
 10
7.1220248724
 20
9.3897168671
 10
7.122347617
 20
9.3968320061
  0
ARC
  5
2D4
330
1F
100
AcDbEntity
  8
0
  6
Continuous
 62
     7
370
    15
100
AcDbCircle
 10
6.7679897537
 20
9.4077128152
 30
0.0
 40
0.1171485384686856
100
AcDbArc
 50
185.3293391936
 51
245.990801764
  0
LWPOLYLINE
  5
2D5
330
1F
100
AcDbEntity
  8
0
  6
Continuous
 62
     7
370
    15
100
AcDbPolyline
 90
       61
 70
   128
 43
0.0
 10
6.72032397
 20
9.6501794184
 10
6.7386426649
 20
9.6406575038
 10
6.7585851243
 20
9.6322931563
 10
6.7799328543
 20
9.6251780173
 10
6.8024519649
 20
9.6193900418
 10
6.8258957319
 20
9.6149926441
 10
6.8500073005
 20
9.6120340029
 10
6.8745224993
 20
9.6105465338
 10
6.8991727347
 20
9.6105465338
 10
6.9236879335
 20
9.6120340029
 10
6.9477995021
 20
9.6149926441
 10
6.9712432691
 20
9.6193900418
 10
6.9937623797
 20
9.6251780173
 10
7.0151101098
 20
9.6322931563
 10
7.0350525691
 20
9.6406575038
 10
7.053371264
 20
9.6501794184
 10
7.0698654909
 20
9.6607545758
 10
7.0843545358
 20
9.6722671126
 10
7.0966796535
 20
9.6845908948
 10
7.1067058074
 20
9.6975909006
 10
7.1143231491
 20
9.7111246992
 10
7.1194482212
 20
9.7250440115
 10
7.1220248724
 20
9.7391963345
 10
7.1220248724
 20
9.7534266125
 10
7.1194482212
 20
9.7675789356
 10
7.1143231491
 20
9.7814982479
 10
7.1067058074
 20
9.7950320465
 10
7.0966796535
 20
9.8080320523
 10
7.0843545358
 20
9.8203558345
 10
7.0698654909
 20
9.8318683713
 10
7.053371264
 20
9.8424435287
 10
7.0350525691
 20
9.8519654432
 10
7.0151101098
 20
9.8603297908
 10
6.9937623797
 20
9.8674449298
 10
6.9712432691
 20
9.8732329053
 10
6.9477995021
 20
9.877630303
 10
6.9236879335
 20
9.8805889442
 10
6.8991727347
 20
9.8820764133
 10
6.8745224993
 20
9.8820764133
 10
6.8500073005
 20
9.8805889442
 10
6.8258957319
 20
9.877630303
 10
6.8024519649
 20
9.8732329053
 10
6.7799328543
 20
9.8674449298
 10
6.7585851243
 20
9.8603297908
 10
6.7386426649
 20
9.8519654432
 10
6.72032397
 20
9.8424435287
 10
6.7038297431
 20
9.8318683713
 10
6.6893406983
 20
9.8203558345
 10
6.6770155806
 20
9.8080320523
 10
6.6669894266
 20
9.7950320465
 10
6.6593720849
 20
9.7814982479
 10
6.6542470128
 20
9.7675789356
 10
6.6516703616
 20
9.7534266125
 10
6.6516703616
 20
9.7391963345
 10
6.6542470128
 20
9.7250440115
 10
6.6593720849
 20
9.7111246992
 10
6.6669894266
 20
9.6975909006
 10
6.6770155806
 20
9.6845908948
 10
6.6893406983
 20
9.6722671126
 10
6.7038297431
 20
9.6607545758
 10
6.72032397
 20
9.6501794184
  0
SPLINE
  5
2D6
330
1F
100
AcDbEntity
  8
0
  6
Continuous
 62
     7
370
    15
100
AcDbSpline
210
0.0
220
0.0
230
1.0
 70
     8
 71
     3
 72
    15
 73
    11
 74
     0
 42
0.000000001
 43
0.00000001
 40
0.0
 40
0.0
 40
0.0
 40
0.0
 40
0.1424463451933563
 40
0.2848690127369697
 40
0.4278625215864744
 40
0.5707394686267563
 40
0.7123013108478561
 40
0.8535137553537934
 40
0.9965461139479217
 40
1.0
 40
1.0
 40
1.0
 40
1.0
 10
6.739817065433652
 20
9.554783565195693
 30
0.0
 10
6.739474039816615
 20
9.558556574340528
 30
0.0
 10
6.738788045600786
 20
9.566101965474838
 30
0.0
 10
6.733535822341441
 20
9.578227448012193
 30
0.0
 10
6.726049263726726
 20
9.589415962115124
 30
0.0
 10
6.717149695187645
 20
9.598643081757688
 30
0.0
 10
6.708075182356404
 20
9.605076149365415
 30
0.0
 10
6.700149962171469
 20
9.60753040860234
 30
0.0
 10
6.695245677532291
 20
9.607727412115073
 30
0.0
 10
6.693755910841443
 20
9.60600995811193
 30
0.0
 10
6.693720784782974
 20
9.605969463590133
 30
0.0
  0
SPLINE
  5
2D7
330
1F
100
AcDbEntity
  8
0
  6
Continuous
 62
     7
370
    15
100
AcDbSpline
210
0.0
220
0.0
230
1.0
 70
     8
 71
     3
 72
    10
 73
     6
 74
     0
 42
0.000000001
 43
0.00000001
 40
0.0
 40
0.0
 40
0.0
 40
0.0
 40
0.262271081977696
 40
0.6916748749187018
 40
1.0
 40
1.0
 40
1.0
 40
1.0
 10
6.730666458172114
 20
9.536742565209849
 30
0.0
 10
6.732126605698073
 20
9.53754038906629
 30
0.0
 10
6.735977382343997
 20
9.539644451443086
 30
0.0
 10
6.739172170598676
 20
9.54630648607352
 30
0.0
 10
6.739626982251655
 20
9.552284940484938
 30
0.0
 10
6.739817065433115
 20
9.5547835651954
 30
0.0
  0
SPLINE
  5
2D8
330
1F
100
AcDbEntity
  8
0
  6
Continuous
 62
     7
370
    15
100
AcDbSpline
210
0.0
220
0.0
230
1.0
 70
     8
 71
     3
 72
    18
 73
    14
 74
     0
 42
0.000000001
 43
0.00000001
 40
0.0
 40
0.0
 40
0.0
 40
0.0
 40
0.0223697361465739
 40
0.1293897525445368
 40
0.2354247077364227
 40
0.3411979513484605
 40
0.4483343766418863
 40
0.5569450492709775
 40
0.6648514787119143
 40
0.7703148194959611
 40
0.8747208179183151
 40
0.9807657691126778
 40
1.0
 40
1.0
 40
1.0
 40
1.0
 10
7.116606763297091
 20
9.657038963226654
 30
0.0
 10
7.116469846451278
 20
9.657175810222906
 30
0.0
 10
7.115677899837208
 20
9.657967352817133
 30
0.0
 10
7.113202951446062
 20
9.65512810321005
 30
0.0
 10
7.109198705181748
 20
9.648664019689027
 30
0.0
 10
7.104551752024038
 20
9.63864308665577
 30
0.0
 10
7.100023233883713
 20
9.6265211593885
 30
0.0
 10
7.096422822256074
 20
9.61336966685565
 30
0.0
 10
7.094594928570397
 20
9.600792246217516
 30
0.0
 10
7.094930584692349
 20
9.590160479243368
 30
0.0
 10
7.097317226178446
 20
9.583036814432116
 30
0.0
 10
7.100021140847212
 20
9.579582405032154
 30
0.0
 10
7.101793868226789
 20
9.579993177711883
 30
0.0
 10
7.102066036731983
 20
9.58005624402851
 30
0.0
  0
ARC
  5
2D9
330
1F
100
AcDbEntity
  8
0
  6
Continuous
 62
     7
370
    15
100
AcDbCircle
 10
6.9345811865
 20
9.6636255468
 30
0.0
 40
0.1966062626429244
100
AcDbArc
 50
46.1876504322
 51
73.8177261005
  0
LINE
  5
2DA
330
1F
100
AcDbEntity
  8
0
  6
Continuous
 62
     7
370
    15
100
AcDbLine
 10
6.9708966352
 20
9.8417754054
 30
0.0
 11
6.9893741719
 21
9.8524422602
 31
0.0
  0
ARC
  5
2DB
330
1F
100
AcDbEntity
  8
0
  6
Continuous
 62
     7
370
    15
100
AcDbCircle
 10
6.8874081068
 20
9.5547929541
 30
0.0
 40
0.2988800122379714
100
AcDbArc
 50
73.7793048241
 51
112.1845534275
  0
LINE
  5
2DC
330
1F
100
AcDbEntity
  8
0
  6
Continuous
 62
     7
370
    15
100
AcDbLine
 10
6.774553655
 20
9.8315476007
 30
0.0
 11
6.75673278
 21
9.8418353729
 31
0.0
  0
ARC
  5
2DD
330
1F
100
AcDbEntity
  8
0
  6
Continuous
 62
     7
370
    15
100
AcDbCircle
 10
6.8375781106
 20
9.6609649376
 30
0.0
 40
0.1981163341063876
100
AcDbArc
 50
114.0836521616
 51
125.9109713057
  0
LINE
  5
2DE
330
1F
100
AcDbEntity
  8
0
  6
Continuous
 62
     7
370
    15
100
AcDbLine
 10
6.739198316
 20
9.8111373979
 30
0.0
 11
6.7213774409
 21
9.8214251701
 31
0.0
  0
ARC
  5
2DF
330
1F
100
AcDbEntity
  8
0
  6
Continuous
 62
     7
370
    15
100
AcDbCircle
 10
6.7877024352
 20
9.7387332392
 30
0.0
 40
0.0871493647936551
100
AcDbArc
 50
123.8184437671
 51
170.7950001067
  0
LINE
  5
2E0
330
1F
100
AcDbEntity
  8
0
  6
Continuous
 62
     7
370
    15
100
AcDbLine
 10
6.701675353
 20
9.7526742904
 30
0.0
 11
6.6767195223
 21
9.7535318128
 31
0.0
  0
ARC
  5
2E1
330
1F
100
AcDbEntity
  8
0
  6
Continuous
 62
     7
370
    15
100
AcDbCircle
 10
6.7484460769
 20
9.7463466951
 30
0.0
 40
0.0720855363846335
100
AcDbArc
 50
174.279550627
 51
200.6957892703
  0
LINE
  5
2E2
330
1F
100
AcDbEntity
  8
0
  6
Continuous
 62
     7
370
    15
100
AcDbLine
 10
6.7054582289
 20
9.723892634
 30
0.0
 11
6.6810122198
 21
9.7208712271
 31
0.0
  0
ARC
  5
2E3
330
1F
100
AcDbEntity
  8
0
  6
Continuous
 62
     7
370
    15
100
AcDbCircle
 10
6.8649127026
 20
9.8301157193
 30
0.0
 40
0.1915961194702867
100
AcDbArc
 50
213.6701874969
 51
275.0536795643
  0
LINE
  5
2E4
330
1F
100
AcDbEntity
  8
0
  6
Continuous
 62
     7
370
    15
100
AcDbLine
 10
6.8817902178
 20
9.6392644094
 30
0.0
 11
6.8811086276
 21
9.6248375814
 31
0.0
  0
ARC
  5
2E5
330
1F
100
AcDbEntity
  8
0
  6
Continuous
 62
     7
370
    15
100
AcDbCircle
 10
6.8869652592
 20
9.9839282088
 30
0.0
 40
0.3591383839804892
100
AcDbArc
 50
269.0656104734
 51
278.0917515216
  0
LINE
  5
2E6
330
1F
100
AcDbEntity
  8
0
  6
Continuous
 62
     7
370
    15
100
AcDbLine
 10
6.9314993577
 20
9.6423732745
 30
0.0
 11
6.9375171125
 21
9.628365431
 31
0.0
  0
ARC
  5
2E7
330
1F
100
AcDbEntity
  8
0
  6
Continuous
 62
     7
370
    15
100
AcDbCircle
 10
6.8963218721
 20
9.9012805285
 30
0.0
 40
0.2612860915741853
100
AcDbArc
 50
277.7373444288
 51
293.1733215111
  0
LINE
  5
2E8
330
1F
100
AcDbEntity
  8
0
  6
Continuous
 62
     7
370
    15
100
AcDbLine
 10
6.999141579
 20
9.6610753463
 30
0.0
 11
7.0169624541
 21
9.6507875742
 31
0.0
  0
ARC
  5
2E9
330
1F
100
AcDbEntity
  8
0
  6
Continuous
 62
     7
370
    15
100
AcDbCircle
 10
6.9361171234
 20
9.8316580094
 30
0.0
 40
0.1981163341063285
100
AcDbArc
 50
294.0836521616
 51
305.9109713057
  0
LINE
  5
2EA
330
1F
100
AcDbEntity
  8
0
  6
Continuous
 62
     7
370
    15
100
AcDbLine
 10
7.0344969181
 20
9.6814855491
 30
0.0
 11
7.0523177931
 21
9.671197777
 31
0.0
  0
ARC
  5
2EB
330
1F
100
AcDbEntity
  8
0
  6
Continuous
 62
     7
370
    15
100
AcDbCircle
 10
6.9978661401
 20
9.7452691018
 30
0.0
 40
0.0735537591065984
100
AcDbArc
 50
299.8686726535
 51
42.3634723274
  0
LINE
  5
2EC
330
1F
100
AcDbEntity
  8
0
  6
Continuous
 62
     7
370
    15
100
AcDbLine
 10
7.0522139151
 20
9.794831939
 30
0.0
 11
7.0706914517
 21
9.8054987938
 31
0.0
  0
LINE
  5
2ED
330
1F
100
AcDbEntity
  8
0
  6
Continuous
 62
     7
370
    15
100
AcDbLine
 10
6.9639222562
 20
9.1033332899
 30
0.0
 11
6.9639222562
 21
9.0527077595
 31
0.0
  0
ARC
  5
2EE
330
1F
100
AcDbEntity
  8
0
  6
Continuous
 62
     7
370
    15
100
AcDbCircle
 10
6.886847617
 20
9.2000818108
 30
0.0
 40
0.166311788458836
100
AcDbArc
 50
242.3910402158
 51
297.6089597842
  0
LINE
  5
2EF
330
1F
100
AcDbEntity
  8
0
  6
Continuous
 62
     7
370
    15
100
AcDbLine
 10
6.8097729779
 20
9.0527077595
 30
0.0
 11
6.8097729779
 21
9.1033332899
 31
0.0
  0
ARC
  5
2F0
330
1F
100
AcDbEntity
  8
0
  6
Continuous
 62
     7
370
    15
100
AcDbCircle
 10
6.886847617
 20
9.2507073411
 30
0.0
 40
0.1663117884588486
100
AcDbArc
 50
242.3910402158
 51
297.6089597842
  0
LINE
  5
2F1
330
1F
100
AcDbEntity
  8
0
  6
Continuous
 62
     7
370
    15
100
AcDbLine
 10
7.3952573927
 20
9.4413262481
 30
0.0
 11
7.3874265902
 21
9.4458468742
 31
0.0
  0
LINE
  5
2F2
330
1F
100
AcDbEntity
  8
0
  6
Continuous
 62
     7
370
    15
100
AcDbLine
 10
7.3153583554
 20
9.4874509806
 30
0.0
 11
7.1547045961
 21
9.5801944217
 31
0.0
  0
LWPOLYLINE
  5
2F3
330
1F
100
AcDbEntity
  8
0
  6
Continuous
 62
     7
370
    15
100
AcDbPolyline
 90
       11
 70
   128
 43
0.0
 10
7.3952573927
 20
9.352337764
 10
7.4063656059
 20
9.3598459949
 10
7.4153024647
 20
9.3682649441
 10
7.4218479138
 20
9.3773873093
 10
7.4258407827
 20
9.3869884674
 10
7.4271827535
 20
9.3968320061
 10
7.4258407827
 20
9.4066755447
 10
7.4218479138
 20
9.4162767028
 10
7.4153024647
 20
9.425399068
 10
7.4063656059
 20
9.4338180172
 10
7.3952573927
 20
9.4413262481
  0
LINE
  5
2F4
330
1F
100
AcDbEntity
  8
0
  6
Continuous
 62
     7
370
    15
100
AcDbLine
 10
6.9639222562
 20
9.1033332899
 30
0.0
 11
7.3952573927
 21
9.352337764
 31
0.0
  0
LINE
  5
2F5
330
1F
100
AcDbEntity
  8
0
  6
Continuous
 62
     7
370
    15
100
AcDbLine
 10
6.3784378413
 20
9.352337764
 30
0.0
 11
6.8097729779
 21
9.1033332899
 31
0.0
  0
LWPOLYLINE
  5
2F6
330
1F
100
AcDbEntity
  8
0
  6
Continuous
 62
     7
370
    15
100
AcDbPolyline
 90
       11
 70
   128
 43
0.0
 10
6.3784378413
 20
9.4413262481
 10
6.3673296281
 20
9.4338180172
 10
6.3583927693
 20
9.425399068
 10
6.3518473202
 20
9.4162767028
 10
6.3478544514
 20
9.4066755447
 10
6.3465124805
 20
9.3968320061
 10
6.3478544514
 20
9.3869884674
 10
6.3518473202
 20
9.3773873093
 10
6.3583927693
 20
9.3682649441
 10
6.3673296281
 20
9.3598459949
 10
6.3784378413
 20
9.352337764
  0
LINE
  5
2F7
330
1F
100
AcDbEntity
  8
0
  6
Continuous
 62
     7
370
    15
100
AcDbLine
 10
6.651347617
 20
9.5988737082
 30
0.0
 11
6.4581243552
 21
9.4873282934
 31
0.0
  0
LINE
  5
2F8
330
1F
100
AcDbEntity
  8
0
  6
Continuous
 62
     7
370
    15
100
AcDbLine
 10
6.386286416
 20
9.4458571339
 30
0.0
 11
6.3784378413
 21
9.4413262481
 31
0.0
  0
LINE
  5
2F9
330
1F
100
AcDbEntity
  8
0
  6
Continuous
 62
     7
370
    15
100
AcDbLine
 10
6.9639222562
 20
9.0527077595
 30
0.0
 11
7.3952573927
 21
9.3017122336
 31
0.0
  0
ARC
  5
2FA
330
1F
100
AcDbEntity
  8
0
  6
Continuous
 62
     7
370
    15
100
AcDbCircle
 10
7.3718545298
 20
9.3522047886
 30
0.0
 40
0.0556524222230273
100
AcDbArc
 50
294.86731528
 51
353.8125437624
  0
ARC
  5
2FB
330
1F
100
AcDbEntity
  8
0
  6
Continuous
 62
     7
370
    15
100
AcDbCircle
 10
6.4005990385
 20
9.3513138728
 30
0.0
 40
0.0543271687588432
100
AcDbArc
 50
185.3944478058
 51
245.9256931518
  0
LINE
  5
2FC
330
1F
100
AcDbEntity
  8
0
  6
Continuous
 62
     7
370
    15
100
AcDbLine
 10
6.3784378413
 20
9.3017122336
 30
0.0
 11
6.8097729779
 21
9.0527077595
 31
0.0
  0
LINE
  5
2FD
330
1F
100
AcDbEntity
  8
0
  6
Continuous
 62
     7
370
    15
100
AcDbLine
 10
6.8817902178
 20
9.6248274875
 30
0.0
 11
6.8817902178
 21
9.6392644094
 31
0.0
  0
LINE
  5
2FE
330
1F
100
AcDbEntity
  8
0
  6
Continuous
 62
     7
370
    15
100
AcDbLine
 10
7.3952573927
 20
9.3017122336
 30
0.0
 11
7.3952573927
 21
9.352337764
 31
0.0
  0
LINE
  5
2FF
330
1F
100
AcDbEntity
  8
0
  6
Continuous
 62
     7
370
    15
100
AcDbLine
 10
6.3784378413
 20
9.352337764
 30
0.0
 11
6.3784378413
 21
9.3017122336
 31
0.0
  0
LINE
  5
300
330
1F
100
AcDbEntity
  8
0
  6
Continuous
 62
     7
370
    15
100
AcDbLine
 10
6.9314993577
 20
9.6275578036
 30
0.0
 11
6.9314993577
 21
9.6423732745
 31
0.0
  0
LWPOLYLINE
  5
301
330
1F
100
AcDbEntity
  8
0
  6
Continuous
 62
     7
370
    15
100
AcDbPolyline
 90
       25
 70
   128
 43
0.0
 10
6.7069702281
 20
9.5358214896
 10
6.706018512
 20
9.544718688
 10
6.7032282215
 20
9.5541083851
 10
6.6987895102
 20
9.5633506886
 10
6.6930048692
 20
9.5718157506
 10
6.686268512
 20
9.5789266914
 10
6.6790395102
 20
9.5841989119
 10
6.6718105085
 20
9.5872731191
 10
6.6650741513
 20
9.5879398108
 10
6.6592895102
 20
9.5861535532
 10
6.654850799
 20
9.5820360766
 10
6.6520605085
 20
9.5758679804
 10
6.6511087924
 20
9.56806961
 10
6.6520605085
 20
9.5591724116
 10
6.654850799
 20
9.5497827146
 10
6.6592895102
 20
9.5405404111
 10
6.6650741513
 20
9.532075349
 10
6.6718105085
 20
9.5249644083
 10
6.6790395102
 20
9.5196921878
 10
6.686268512
 20
9.5166179806
 10
6.6930048692
 20
9.5159512888
 10
6.6987895102
 20
9.5177375465
 10
6.7032282215
 20
9.521855023
 10
6.706018512
 20
9.5280231193
 10
6.7069702281
 20
9.5358214896
  0
LINE
  5
302
330
1F
100
AcDbEntity
  8
0
  6
Continuous
 62
     7
370
    15
100
AcDbLine
 10
7.0344969181
 20
9.6596992031
 30
0.0
 11
7.0344969181
 21
9.6814855491
 31
0.0
  0
LINE
  5
303
330
1F
100
AcDbEntity
  8
0
  6
Continuous
 62
     7
370
    15
100
AcDbLine
 10
7.0522139151
 20
9.6977910081
 30
0.0
 11
7.0522139151
 21
9.794831939
 31
0.0
  0
LWPOLYLINE
  5
304
330
1F
100
AcDbEntity
  8
0
  6
Continuous
 62
     7
370
    15
100
AcDbPolyline
 90
       25
 70
   128
 43
0.0
 10
7.1645488595
 20
9.6336347438
 10
7.1642005072
 20
9.6412320147
 10
7.16317919
 20
9.646810517
 10
7.161554509
 20
9.6499900852
 10
7.1594371834
 20
9.6505540368
 10
7.1569715055
 20
9.6484639395
 10
7.1543255072
 20
9.64386223
 10
7.151679509
 20
9.6370625072
 10
7.1492138311
 20
9.628528161
 10
7.1470965055
 20
9.6188407928
 10
7.1454718245
 20
9.608660581
 10
7.1444505072
 20
9.59868129
 10
7.144102155
 20
9.5895829921
 10
7.1444505072
 20
9.5819857213
 10
7.1454718245
 20
9.5764072189
 10
7.1470965055
 20
9.5732276508
 10
7.1492138311
 20
9.5726636991
 10
7.151679509
 20
9.5747537964
 10
7.1543255072
 20
9.5793555059
 10
7.1569715055
 20
9.5861552287
 10
7.1594371834
 20
9.594689575
 10
7.161554509
 20
9.6043769431
 10
7.16317919
 20
9.614557155
 10
7.1642005072
 20
9.6245364459
 10
7.1645488595
 20
9.6336347438
  0
LINE
  5
305
330
1F
100
AcDbEntity
  8
0
  6
Continuous
 62
     7
370
    15
100
AcDbLine
 10
6.6767195223
 20
9.7390911342
 30
0.0
 11
6.6767195223
 21
9.7535318128
 31
0.0
  0
LINE
  5
306
330
1F
100
AcDbEntity
  8
0
  6
Continuous
 62
     7
370
    15
100
AcDbLine
 10
6.701675353
 20
9.7234250891
 30
0.0
 11
6.701675353
 21
9.7526742904
 31
0.0
  0
LINE
  5
307
330
1F
100
AcDbEntity
  8
0
  6
Continuous
 62
     7
370
    15
100
AcDbLine
 10
6.739198316
 20
9.6814855491
 30
0.0
 11
6.739198316
 21
9.8111373979
 31
0.0
  0
LINE
  5
308
330
1F
100
AcDbEntity
  8
0
  6
Continuous
 62
     7
370
    15
100
AcDbLine
 10
6.774553655
 20
9.6610753463
 30
0.0
 11
6.774553655
 21
9.8315476007
 31
0.0
  0
LINE
  5
309
330
1F
100
AcDbEntity
  8
0
  6
Continuous
 62
     7
370
    15
100
AcDbLine
 10
6.9708966352
 20
9.7161060495
 30
0.0
 11
6.9708966352
 21
9.8417754054
 31
0.0
  0
LINE
  5
30A
330
1F
100
AcDbEntity
  8
0
  6
Continuous
 62
     7
370
    15
100
AcDbLine
 10
6.9893741719
 20
9.7097343604
 30
0.0
 11
6.9893741719
 21
9.8524422602
 31
0.0
  0
LINE
  5
30B
330
1F
100
AcDbEntity
  8
0
  6
Continuous
 62
     7
370
    15
100
AcDbLine
 10
6.75673278
 20
9.669986311
 30
0.0
 11
6.75673278
 21
9.8418353729
 31
0.0
  0
SPLINE
  5
30C
330
1F
100
AcDbEntity
  8
0
  6
Continuous
 62
     7
370
    15
100
AcDbSpline
210
0.0
220
0.0
230
1.0
 70
    11
 71
     3
 72
    22
 73
    18
 74
     0
 42
0.000000001
 43
0.00000001
 40
0.0
 40
0.0
 40
0.0
 40
0.0
 40
0.1250000000000001
 40
0.1250000000000001
 40
0.2500000000000002
 40
0.2500000000000002
 40
0.3750000000000002
 40
0.3750000000000002
 40
0.5000000000000001
 40
0.5000000000000001
 40
0.6250000000000001
 40
0.6250000000000001
 40
0.75
 40
0.75
 40
0.875
 40
0.875
 40
1.0
 40
1.0
 40
1.0
 40
1.0
 10
6.900989754400504
 20
9.761820545971855
 30
0.0
 10
6.897252686655271
 20
9.763980071155798
 30
0.0
 10
6.892057612137984
 20
9.765202263963623
 30
0.0
 10
6.881627305838324
 20
9.765202593227022
 30
0.0
 10
6.876404275312571
 20
9.763952590920885
 30
0.0
 10
6.869017525986237
 20
9.759697701667571
 30
0.0
 10
6.866848829785361
 20
9.75670530314722
 30
0.0
 10
6.866846405277895
 20
9.750613248883129
 30
0.0
 10
6.869014069383993
 20
9.747622361732791
 30
0.0
 10
6.87638955796535
 20
9.743366639316916
 30
0.0
 10
6.881610221325412
 20
9.74211269391376
 30
0.0
 10
6.892048790906669
 20
9.742109148119628
 30
0.0
 10
6.897239099196363
 20
9.743329088363135
 30
0.0
 10
6.904717178013139
 20
9.747645216664367
 30
0.0
 10
6.90684354518078
 20
9.750634155908752
 30
0.0
 10
6.906851676686314
 20
9.756661096842928
 30
0.0
 10
6.904726822145737
 20
9.759661020787915
 30
0.0
 10
6.900989754400504
 20
9.761820545971856
 30
0.0
  0
SPLINE
  5
30D
330
1F
100
AcDbEntity
  8
0
  6
Continuous
 62
     7
370
    15
100
AcDbSpline
210
0.0
220
0.0
230
1.0
 70
    11
 71
     3
 72
    22
 73
    18
 74
     0
 42
0.000000001
 43
0.00000001
 40
0.0
 40
0.0
 40
0.0
 40
0.0
 40
0.125
 40
0.125
 40
0.2499999999999999
 40
0.2499999999999999
 40
0.3749999999999999
 40
0.3749999999999999
 40
0.4999999999999999
 40
0.4999999999999999
 40
0.6249999999999999
 40
0.6249999999999999
 40
0.7499999999999999
 40
0.7499999999999999
 40
0.875
 40
0.875
 40
1.0
 40
1.0
 40
1.0
 40
1.0
 10
6.900989754400505
 20
9.663851572553133
 30
0.0
 10
6.897252686655271
 20
9.666011097737078
 30
0.0
 10
6.892057612137984
 20
9.667233290544901
 30
0.0
 10
6.881627305838324
 20
9.667233619808297
 30
0.0
 10
6.876404275312571
 20
9.66598361750216
 30
0.0
 10
6.869017525986237
 20
9.661728728248844
 30
0.0
 10
6.866848829785361
 20
9.658736329728487
 30
0.0
 10
6.866846405277895
 20
9.652644275464409
 30
0.0
 10
6.869014069383992
 20
9.649653388314064
 30
0.0
 10
6.876389557965349
 20
9.64539766589819
 30
0.0
 10
6.881610221325412
 20
9.644143720495032
 30
0.0
 10
6.892048790906669
 20
9.644140174700903
 30
0.0
 10
6.897239099196363
 20
9.64536011494441
 30
0.0
 10
6.904717178013139
 20
9.64967624324564
 30
0.0
 10
6.906843545180779
 20
9.652665182490026
 30
0.0
 10
6.906851676686314
 20
9.658692123424203
 30
0.0
 10
6.904726822145737
 20
9.661692047369186
 30
0.0
 10
6.900989754400504
 20
9.663851572553131
 30
0.0
  0
SPLINE
  5
30E
330
1F
100
AcDbEntity
  8
0
  6
Continuous
 62
     7
370
    15
100
AcDbSpline
210
0.0
220
0.0
230
1.0
 70
    11
 71
     3
 72
    22
 73
    18
 74
     0
 42
0.000000001
 43
0.00000001
 40
0.0
 40
0.0
 40
0.0
 40
0.0
 40
0.1250000000000002
 40
0.1250000000000002
 40
0.2500000000000003
 40
0.2500000000000003
 40
0.3750000000000004
 40
0.3750000000000004
 40
0.5000000000000003
 40
0.5000000000000003
 40
0.6250000000000003
 40
0.6250000000000003
 40
0.7500000000000002
 40
0.7500000000000002
 40
0.8750000000000002
 40
0.8750000000000002
 40
1.0
 40
1.0
 40
1.0
 40
1.0
 10
6.957558295131228
 20
9.696509397197936
 30
0.0
 10
6.961295365262527
 20
9.694352025018206
 30
0.0
 10
6.966490435181362
 20
9.693133457582224
 30
0.0
 10
6.976920732143348
 20
9.69313392855538
 30
0.0
 10
6.982143753626644
 20
9.694375354310678
 30
0.0
 10
6.98953051531122
 20
9.698636792437883
 30
0.0
 10
6.991699214419816
 20
9.701626727391618
 30
0.0
 10
6.991701646012107
 20
9.707719827902208
 30
0.0
 10
6.989533983333773
 20
9.710703240053048
 30
0.0
 10
6.982158501163534
 20
9.714963227121096
 30
0.0
 10
6.976937843357461
 20
9.716218417518677
 30
0.0
 10
6.966499262985251
 20
9.716224958876873
 30
0.0
 10
6.961308937445825
 20
9.714999200190846
 30
0.0
 10
6.953830875157423
 20
9.71068895354684
 30
0.0
 10
6.951704501151396
 20
9.707700226697993
 30
0.0
 10
6.951696372474458
 20
9.701676426660514
 30
0.0
 10
6.953821224999927
 20
9.698666769377663
 30
0.0
 10
6.957558295131227
 20
9.696509397197936
 30
0.0
  0
SPLINE
  5
30F
330
1F
100
AcDbEntity
  8
0
  6
Continuous
 62
     7
370
    15
100
AcDbSpline
210
0.0
220
0.0
230
1.0
 70
    11
 71
     3
 72
    22
 73
    18
 74
     0
 42
0.000000001
 43
0.00000001
 40
0.0
 40
0.0
 40
0.0
 40
0.0
 40
0.1250000000000001
 40
0.1250000000000001
 40
0.2500000000000001
 40
0.2500000000000001
 40
0.3750000000000002
 40
0.3750000000000002
 40
0.5000000000000002
 40
0.5000000000000002
 40
0.6250000000000002
 40
0.6250000000000002
 40
0.7500000000000002
 40
0.7500000000000002
 40
0.8750000000000001
 40
0.8750000000000001
 40
1.0
 40
1.0
 40
1.0
 40
1.0
 10
6.787852667646455
 20
9.696509397197936
 30
0.0
 10
6.791589737777755
 20
9.694352025018206
 30
0.0
 10
6.796784807696592
 20
9.693133457582224
 30
0.0
 10
6.807215104658576
 20
9.693133928555376
 30
0.0
 10
6.812438126141871
 20
9.694375354310687
 30
0.0
 10
6.819824887826449
 20
9.698636792437869
 30
0.0
 10
6.821993586935045
 20
9.701626727391616
 30
0.0
 10
6.821996018527336
 20
9.70771982790221
 30
0.0
 10
6.819828355849002
 20
9.710703240053048
 30
0.0
 10
6.812452873678763
 20
9.714963227121098
 30
0.0
 10
6.807232215872689
 20
9.716218417518677
 30
0.0
 10
6.79679363550048
 20
9.716224958876873
 30
0.0
 10
6.791603309961054
 20
9.71499920019085
 30
0.0
 10
6.784125247672652
 20
9.710688953546837
 30
0.0
 10
6.781998873666625
 20
9.707700226697995
 30
0.0
 10
6.781990744989686
 20
9.701676426660514
 30
0.0
 10
6.784115597515155
 20
9.698666769377667
 30
0.0
 10
6.787852667646455
 20
9.696509397197936
 30
0.0
  0
LINE
  5
310
330
1F
100
AcDbEntity
  8
0
  6
Continuous
 62
     7
370
    15
100
AcDbLine
 10
7.3067880696
 20
7.8601021981
 30
0.0
 11
7.306847617
 21
7.856019494
 31
0.0
  0
ARC
  5
311
330
1F
100
AcDbEntity
  8
0
  6
Continuous
 62
     7
370
    15
100
AcDbCircle
 10
6.6106279539
 20
7.8562251496
 30
0.0
 40
0.1437730741143691
100
AcDbArc
 50
178.4547492782
 51
198.1173891821
  0
ARC
  5
312
330
1F
100
AcDbEntity
  8
0
  6
Continuous
 62
     7
370
    15
100
AcDbCircle
 10
6.6118980564
 20
7.7013030737
 30
0.0
 40
0.1450510659023424
100
AcDbArc
 50
180.1684039432
 51
198.4071162915
  0
LWPOLYLINE
  5
313
330
1F
100
AcDbEntity
  8
0
  6
Continuous
 62
     7
370
    15
100
AcDbPolyline
 90
       21
 70
   128
 43
0.0
 10
6.7749179217
 20
7.4629775855
 10
6.779808404
 20
7.4609465193
 10
6.798767186
 20
7.4542619047
 10
6.8189624243
 20
7.4489186699
 10
6.8401106218
 20
7.4449918221
 10
6.8619149043
 20
7.4425364857
 10
6.8840691875
 20
7.4415871281
 10
6.9062624737
 20
7.4421570764
 10
6.9281832178
 20
7.4442383296
 10
6.9495237008
 20
7.4478016716
 10
6.9699843489
 20
7.4527970808
 10
6.9892779395
 20
7.4591544327
 10
7.007133633
 20
7.4667844839
 10
7.0233007744
 20
7.4755801253
 10
7.0375524126
 20
7.4854178853
 10
7.0496884859
 20
7.4961596633
 10
7.0595386303
 20
7.5076546684
 10
7.0669645714
 20
7.5197415358
 10
7.0718620653
 20
7.5322505925
 10
7.0741623619
 20
7.5450062387
 10
7.074347617
 20
7.5498166896
  0
LWPOLYLINE
  5
314
330
1F
100
AcDbEntity
  8
0
  6
Continuous
 62
     7
370
    15
100
AcDbPolyline
 90
       32
 70
   128
 43
0.0
 10
6.9317488976
 20
9.2309052847
 10
6.9217912044
 20
9.2355925316
 10
6.9104029167
 20
9.239026675
 10
6.8980502722
 20
9.2410671207
 10
6.8852389896
 20
9.2416303325
 10
6.8724935645
 20
9.2406932526
 10
6.860335796
 20
9.2382942451
 10
6.8492634245
 20
9.2345315256
 10
6.8397297543
 20
9.2295591404
 10
6.832125095
 20
9.2235806594
 10
6.8267607821
 20
9.2168408424
 10
6.8238564313
 20
9.2096156183
 10
6.823530947
 20
9.2022007886
 10
6.8257976546
 20
9.1948999172
 10
6.8305637549
 20
9.1880119028
 10
6.8376341231
 20
9.1818187415
 10
6.8467192976
 20
9.1765739819
 10
6.8574473301
 20
9.1724923452
 10
6.8693790138
 20
9.1697409341
 10
6.8820258643
 20
9.1684323916
 10
6.8948701178
 20
9.1686202897
 10
6.9073859292
 20
9.1702969357
 10
6.9190608997
 20
9.1733936876
 10
6.9294170546
 20
9.177783764
 10
6.9380304117
 20
9.1832874347
 10
6.9445483392
 20
9.1896793787
 10
6.9487039924
 20
9.1966979091
 10
6.9503272383
 20
9.2040556864
 10
6.949351621
 20
9.2114514823
 10
6.9458170825
 20
9.2185825122
 10
6.9398683271
 20
9.2251568308
 10
6.9317488976
 20
9.2309052847
  0
LWPOLYLINE
  5
315
330
1F
100
AcDbEntity
  8
0
  6
Continuous
 62
   144
370
     0
100
AcDbPolyline
 90
       19
 70
   128
 43
0.0
 10
6.803347617
 20
9.1543587968
 10
6.8043756406
 20
9.1468181044
 10
6.8080333589
 20
9.1384381822
 10
6.8142242324
 20
9.1305699616
 10
6.8227492812
 20
9.1234663338
 10
6.8333345032
 20
9.1173556152
 10
6.8456396808
 20
9.1124342093
 10
6.8592693153
 20
9.1088602941
 10
6.8737853392
 20
9.1067487383
 10
6.8887211954
 20
9.1061674088
 10
6.9035968332
 20
9.1071349903
 10
6.9179341375
 20
9.1096203838
 10
6.9312722954
 20
9.1135437066
 10
6.9431826076
 20
9.1187788601
 10
6.9532822668
 20
9.125157582
 10
6.9612466618
 20
9.1324748549
 10
6.9668198102
 20
9.1404954958
 10
6.9698225865
 20
9.1489617145
 10
6.970347617
 20
9.1543587968
  0
LINE
  5
316
330
1F
100
AcDbEntity
  8
0
  6
Continuous
 62
     7
370
    15
100
AcDbLine
 10
6.8550278119
 20
9.1906971852
 30
0.0
 11
6.8797765492
 21
9.2049843272
 31
0.0
  0
LINE
  5
317
330
1F
100
AcDbEntity
  8
0
  6
Continuous
 62
     7
370
    15
100
AcDbLine
 10
6.8620988797
 20
9.1866151447
 30
0.0
 11
6.8550278119
 21
9.1906971852
 31
0.0
  0
LINE
  5
318
330
1F
100
AcDbEntity
  8
0
  6
Continuous
 62
     7
370
    15
100
AcDbLine
 10
6.8620988797
 20
9.1866151447
 30
0.0
 11
6.886847617
 21
9.2009022866
 31
0.0
  0
LINE
  5
319
330
1F
100
AcDbEntity
  8
0
  6
Continuous
 62
     7
370
    15
100
AcDbLine
 10
6.9115963543
 20
9.1866151447
 30
0.0
 11
6.886847617
 21
9.2009022866
 31
0.0
  0
LINE
  5
31A
330
1F
100
AcDbEntity
  8
0
  6
Continuous
 62
     7
370
    15
100
AcDbLine
 10
6.9186674222
 20
9.1906971852
 30
0.0
 11
6.8939186848
 21
9.2049843272
 31
0.0
  0
LINE
  5
31B
330
1F
100
AcDbEntity
  8
0
  6
Continuous
 62
     7
370
    15
100
AcDbLine
 10
6.8939186848
 20
9.2049843272
 30
0.0
 11
6.9186674222
 21
9.2192714691
 31
0.0
  0
LINE
  5
31C
330
1F
100
AcDbEntity
  8
0
  6
Continuous
 62
     7
370
    15
100
AcDbLine
 10
6.9186674222
 20
9.2192714691
 30
0.0
 11
6.9115963543
 21
9.2233535097
 31
0.0
  0
LINE
  5
31D
330
1F
100
AcDbEntity
  8
0
  6
Continuous
 62
     7
370
    15
100
AcDbLine
 10
6.886847617
 20
9.2090663677
 30
0.0
 11
6.9115963543
 21
9.2233535097
 31
0.0
  0
LINE
  5
31E
330
1F
100
AcDbEntity
  8
0
  6
Continuous
 62
     7
370
    15
100
AcDbLine
 10
6.886847617
 20
9.2090663677
 30
0.0
 11
6.8620988797
 21
9.2233535097
 31
0.0
  0
LINE
  5
31F
330
1F
100
AcDbEntity
  8
0
  6
Continuous
 62
     7
370
    15
100
AcDbLine
 10
6.8550278119
 20
9.2192714691
 30
0.0
 11
6.8620988797
 21
9.2233535097
 31
0.0
  0
LINE
  5
320
330
1F
100
AcDbEntity
  8
0
  6
Continuous
 62
     7
370
    15
100
AcDbLine
 10
6.8797765492
 20
9.2049843272
 30
0.0
 11
6.8550278119
 21
9.2192714691
 31
0.0
  0
LINE
  5
321
330
1F
100
AcDbEntity
  8
0
  6
Continuous
 62
   144
370
     0
100
AcDbLine
 10
6.9115963543
 20
9.1866151447
 30
0.0
 11
6.9186674222
 21
9.1906971852
 31
0.0
  0
LINE
  5
322
330
1F
100
AcDbEntity
  8
0
  6
Continuous
 62
     7
370
    15
100
AcDbLine
 10
6.8797765492
 20
9.2049843272
 30
0.0
 11
6.8797765492
 21
9.1968202461
 31
0.0
  0
LINE
  5
323
330
1F
100
AcDbEntity
  8
0
  6
Continuous
 62
     7
370
    15
100
AcDbLine
 10
6.8939186848
 20
9.2049843272
 30
0.0
 11
6.8939186848
 21
9.1968202461
 31
0.0
  0
LINE
  5
324
330
1F
100
AcDbEntity
  8
0
  6
Continuous
 62
     7
370
    15
100
AcDbLine
 10
6.8620988797
 20
9.2233535097
 30
0.0
 11
6.8620988797
 21
9.2151894286
 31
0.0
  0
LINE
  5
325
330
1F
100
AcDbEntity
  8
0
  6
Continuous
 62
     7
370
    15
100
AcDbLine
 10
6.886847617
 20
9.2090663677
 30
0.0
 11
6.886847617
 21
9.2009022866
 31
0.0
  0
LINE
  5
326
330
1F
100
AcDbEntity
  8
0
  6
Continuous
 62
     7
370
    15
100
AcDbLine
 10
6.9115963543
 20
9.2233535097
 30
0.0
 11
6.9115963543
 21
9.2151894286
 31
0.0
  0
ARC
  5
327
330
1F
100
AcDbEntity
  8
0
  6
Continuous
 62
     8
370
    15
100
AcDbCircle
 10
6.4240200756
 20
9.4345682856
 30
0.0
 40
0.0408888251175429
100
AcDbArc
 50
185.6938755051
 51
246.6024547717
  0
LWPOLYLINE
  5
328
330
1F
100
AcDbEntity
  8
0
  6
Continuous
 62
     8
370
    15
100
AcDbPolyline
 90
       15
 70
   128
 43
0.0
 10
6.550320944
 20
9.4316669952
 10
6.5503051666
 20
9.4300451264
 10
6.5486290847
 20
9.4214576034
 10
6.5443237905
 20
9.4131808539
 10
6.5375276596
 20
9.4054808992
 10
6.5284591253
 20
9.3986052223
 10
6.5174096576
 20
9.3927748131
 10
6.5047343957
 20
9.3881770658
 10
6.4908407328
 20
9.3849597557
 10
6.4761752227
 20
9.3832262898
 10
6.461209227
 20
9.3830323832
 10
6.4464237651
 20
9.3843842681
 10
6.4322940538
 20
9.3872384939
 10
6.4192742338
 20
9.3915033234
 10
6.4077827728
 20
9.3970416815
  0
ARC
  5
329
330
1F
100
AcDbEntity
  8
0
  6
Continuous
 62
     8
370
    15
100
AcDbCircle
 10
7.2640629317
 20
9.4345682856
 30
0.0
 40
0.0408888251175456
100
AcDbArc
 50
185.6938755051
 51
246.6024547717
  0
LWPOLYLINE
  5
32A
330
1F
100
AcDbEntity
  8
0
  6
Continuous
 62
     8
370
    15
100
AcDbPolyline
 90
       15
 70
   128
 43
0.0
 10
7.3903638001
 20
9.4316669952
 10
7.3903480226
 20
9.4300451264
 10
7.3886719408
 20
9.4214576034
 10
7.3843666466
 20
9.4131808539
 10
7.3775705157
 20
9.4054808992
 10
7.3685019813
 20
9.3986052223
 10
7.3574525137
 20
9.3927748131
 10
7.3447772518
 20
9.3881770658
 10
7.3308835889
 20
9.3849597557
 10
7.3162180788
 20
9.3832262898
 10
7.3012520831
 20
9.3830323832
 10
7.2864666211
 20
9.3843842681
 10
7.2723369099
 20
9.3872384939
 10
7.2593170898
 20
9.3915033234
 10
7.2478256288
 20
9.3970416815
  0
LINE
  5
32B
330
1F
100
AcDbEntity
  8
0
  6
Continuous
 62
     8
370
    15
100
AcDbLine
 10
6.9639222562
 20
8.8632692296
 30
0.0
 11
6.9639222562
 21
9.0527077595
 31
0.0
  0
LINE
  5
32C
330
1F
100
AcDbEntity
  8
0
  6
Continuous
 62
     8
370
    15
100
AcDbLine
 10
6.8097729779
 20
8.8632692296
 30
0.0
 11
6.8097729779
 21
9.0527077595
 31
0.0
  0
LINE
  5
32D
330
1F
100
AcDbEntity
  8
0
  6
Continuous
 62
     8
370
    15
100
AcDbLine
 10
6.3897515498
 20
9.1057424388
 30
0.0
 11
6.3897515498
 21
9.2951809687
 31
0.0
  0
LINE
  5
32E
330
1F
100
AcDbEntity
  8
0
  6
Continuous
 62
     8
370
    15
100
AcDbLine
 10
7.3839436842
 20
9.1057424388
 30
0.0
 11
7.3839436842
 21
9.2951809687
 31
0.0
  0
LWPOLYLINE
  5
32F
330
1F
100
AcDbEntity
  8
0
  6
Continuous
 62
     8
370
    15
100
AcDbPolyline
 90
       39
 70
   128
 43
0.0
 10
7.306847617
 20
7.856019494
 10
7.3055528972
 20
7.8369962358
 10
7.3016767201
 20
7.8180902624
 10
7.2952429836
 20
7.7994181352
 10
7.2862913538
 20
7.7810949743
 10
7.2748770207
 20
7.7632337479
 10
7.2610703572
 20
7.7459445765
 10
7.244956486
 20
7.7293340536
 10
7.2266347546
 20
7.7135045886
 10
7.2062181226
 20
7.6985537753
 10
7.1838324651
 20
7.6845737905
 10
7.1596157973
 20
7.6716508256
 10
7.133717423
 20
7.6598645547
 10
7.1062970142
 20
7.6492876443
 10
7.0775236269
 20
7.6399853045
 10
7.0475746586
 20
7.6320148874
 10
7.0166347546
 20
7.6254255331
 10
6.9848946698
 20
7.6202578672
 10
6.9525500923
 20
7.6165437502
 10
6.9198004372
 20
7.6143060808
 10
6.886847617
 20
7.6135586549
 10
6.8538947968
 20
7.6143060808
 10
6.8211451417
 20
7.6165437502
 10
6.7888005642
 20
7.6202578672
 10
6.7570604794
 20
7.6254255331
 10
6.7261205754
 20
7.6320148874
 10
6.6961716071
 20
7.6399853045
 10
6.6673982198
 20
7.6492876443
 10
6.639977811
 20
7.6598645547
 10
6.6140794367
 20
7.6716508256
 10
6.5898627689
 20
7.6845737905
 10
6.5674771115
 20
7.6985537753
 10
6.5470604794
 20
7.7135045886
 10
6.528738748
 20
7.7293340536
 10
6.5126248768
 20
7.7459445765
 10
6.4988182133
 20
7.7632337479
 10
6.4874038802
 20
7.7810949743
 10
6.4784522504
 20
7.7994181352
 10
6.4739829478
 20
7.8115167707
  0
ARC
  5
330
330
1F
100
AcDbEntity
  8
0
  6
Continuous
 62
     8
370
    15
100
AcDbCircle
 10
6.6979902265
 20
7.7446038129
 30
0.0
 40
0.240812937502844
100
AcDbArc
 50
201.7162001424
 51
243.3198049109
  0
LWPOLYLINE
  5
331
330
1F
100
AcDbEntity
  8
0
  6
Continuous
 62
     8
370
    15
100
AcDbPolyline
 90
       31
 70
   128
 43
0.0
 10
7.306847617
 20
7.7008767398
 10
7.3055528972
 20
7.6818534816
 10
7.3016767201
 20
7.6629475081
 10
7.2952429836
 20
7.644275381
 10
7.2862913538
 20
7.62595222
 10
7.2748770207
 20
7.6080909937
 10
7.2610703572
 20
7.5908018223
 10
7.244956486
 20
7.5741912994
 10
7.2266347546
 20
7.5583618343
 10
7.2062181226
 20
7.543411021
 10
7.1838324651
 20
7.5294310363
 10
7.1596157973
 20
7.5165080713
 10
7.133717423
 20
7.5047218005
 10
7.1062970142
 20
7.4941448901
 10
7.0775236269
 20
7.4848425503
 10
7.0475746586
 20
7.4768721331
 10
7.0166347546
 20
7.4702827788
 10
6.9848946698
 20
7.465115113
 10
6.9525500923
 20
7.461400996
 10
6.9198004372
 20
7.4591633265
 10
6.886847617
 20
7.4584159007
 10
6.8538947968
 20
7.4591633265
 10
6.8211451417
 20
7.461400996
 10
6.7888005642
 20
7.465115113
 10
6.7570604794
 20
7.4702827788
 10
6.7261205754
 20
7.4768721331
 10
6.6961716071
 20
7.4848425503
 10
6.6673982198
 20
7.4941448901
 10
6.639977811
 20
7.5047218005
 10
6.6140794367
 20
7.5165080713
 10
6.5898627689
 20
7.5294310363
  0
SPLINE
  5
332
330
1F
100
AcDbEntity
  8
0
  6
Continuous
 62
     8
370
    15
100
AcDbSpline
210
0.0
220
0.0
230
1.0
 70
     8
 71
     3
 72
    17
 73
    13
 74
     0
 42
0.000000001
 43
0.00000001
 40
0.0
 40
0.0
 40
0.0
 40
0.0
 40
0.0303454962300897
 40
0.131467231440639
 40
0.2346889608455842
 40
0.3379623824775979
 40
0.4411841133608769
 40
0.5444575364707369
 40
0.6455286605732664
 40
0.7466503998578643
 40
0.8759449394574106
 40
1.0
 40
1.0
 40
1.0
 40
1.0
 10
6.500421473118414
 20
7.771056465262329
 30
0.0
 10
6.498929163746532
 20
7.768824436930011
 30
0.0
 10
6.492463961131734
 20
7.759154514806411
 30
0.0
 10
6.484981097028916
 20
7.741093852282316
 30
0.0
 10
6.478242822038679
 20
7.717147282846496
 30
0.0
 10
6.476138793484847
 20
7.692712701782506
 30
0.0
 10
6.478287687210578
 20
7.668290283170474
 30
0.0
 10
6.484797418762581
 20
7.644299226737079
 30
0.0
 10
6.495379454656104
 20
7.620965260675378
 30
0.0
 10
6.511335376273438
 20
7.596486039166139
 30
0.0
 10
6.533143320815516
 20
7.571409633699906
 30
0.0
 10
6.553461799731084
 20
7.555218681673941
 30
0.0
 10
6.563410937722974
 20
7.547290626793664
 30
0.0
  0
SPLINE
  5
333
330
1F
100
AcDbEntity
  8
0
  6
Continuous
 62
     8
370
    15
100
AcDbSpline
210
0.0
220
0.0
230
1.0
 70
     8
 71
     3
 72
    25
 73
    21
 74
     0
 42
0.000000001
 43
0.00000001
 40
0.0
 40
0.0
 40
0.0
 40
0.0
 40
0.0540951839956885
 40
0.108217458222411
 40
0.1611855784833386
 40
0.2141802245311616
 40
0.2819393276717355
 40
0.3478589938491622
 40
0.4118079978426319
 40
0.4757331988605635
 40
0.5416531735058813
 40
0.609435776585548
 40
0.6624038947115032
 40
0.7153985386236292
 40
0.7694937218446118
 40
0.8236159952967975
 40
0.8777111792925761
 40
0.9318334535192061
 40
0.9848015737802823
 40
1.0
 40
1.0
 40
1.0
 40
1.0
 10
6.886847617004156
 20
7.45602336969367
 30
0.0
 10
6.900946492590156
 20
7.456264027825314
 30
0.0
 10
6.929151304313002
 20
7.456745464607357
 30
0.0
 10
6.970711179542974
 20
7.460639467465885
 30
0.0
 10
7.011119565660054
 20
7.466721029999861
 30
0.0
 10
7.053572202660122
 20
7.475906069221004
 30
0.0
 10
7.096991693913693
 20
7.488725056640766
 30
0.0
 10
7.139577500730959
 20
7.5055665615936
 30
0.0
 10
7.177475394163936
 20
7.524930406751332
 30
0.0
 10
7.211018484069156
 20
7.546808381637311
 30
0.0
 10
7.240194312191449
 20
7.571391081422805
 30
0.0
 10
7.262405138274711
 20
7.596456466149283
 30
0.0
 10
7.278301511252198
 20
7.620966864591311
 30
0.0
 10
7.288898274139932
 20
7.644289842500331
 30
0.0
 10
7.295405975675163
 20
7.668286607099398
 30
0.0
 10
7.297556358209409
 20
7.692704388617603
 30
0.0
 10
7.29545427348061
 20
7.717143445134509
 30
0.0
 10
7.288712535160796
 20
7.741085081172016
 30
0.0
 10
7.281288684926626
 20
7.759045444086436
 30
0.0
 10
7.274898181341758
 20
7.768613951379006
 30
0.0
 10
7.273473353442213
 20
7.770747347592059
 30
0.0
  0
LWPOLYLINE
  5
334
330
1F
100
AcDbEntity
  8
0
  6
Continuous
 62
     8
370
    15
100
AcDbPolyline
 90
       19
 70
   128
 43
0.0
 10
6.9703408174
 20
9.1892686643
 10
6.9698225865
 20
9.1832564286
 10
6.9668198102
 20
9.1747902099
 10
6.9612466618
 20
9.166769569
 10
6.9532822668
 20
9.159452296
 10
6.9431826076
 20
9.1530735742
 10
6.9312722954
 20
9.1478384207
 10
6.9179341375
 20
9.1439150979
 10
6.9035968332
 20
9.1414297044
 10
6.8887211954
 20
9.1404621229
 10
6.8737853392
 20
9.1410434524
 10
6.8592693153
 20
9.1431550082
 10
6.8456396808
 20
9.1467289234
 10
6.8333345032
 20
9.1516503293
 10
6.8227492812
 20
9.1577610479
 10
6.8142242324
 20
9.1648646757
 10
6.8080333589
 20
9.1727328963
 10
6.8043756406
 20
9.1811128185
 10
6.803352862
 20
9.1881132359
  0
ENDSEC
  0
SECTION
  2
OBJECTS
  0
DICTIONARY
  5
C
330
0
100
AcDbDictionary
281
     1
  3
ACAD_GROUP
350
D
  3
ACAD_LAYOUT
350
1A
  3
ACAD_MLINESTYLE
350
17
  3
ACAD_PLOTSETTINGS
350
19
  3
ACAD_PLOTSTYLENAME
350
E
  3
ACAD_SCALELIST
350
47
  0
DICTIONARY
  5
D
102
{ACAD_REACTORS
330
C
102
}
330
C
100
AcDbDictionary
281
     1
  0
DICTIONARY
  5
1A
102
{ACAD_REACTORS
330
C
102
}
330
C
100
AcDbDictionary
281
     1
  3
Layout1
350
1E
  3
Layout2
350
26
  3
Model
350
22
  0
DICTIONARY
  5
17
102
{ACAD_REACTORS
330
C
102
}
330
C
100
AcDbDictionary
281
     1
  3
Standard
350
18
  0
DICTIONARY
  5
19
102
{ACAD_REACTORS
330
C
102
}
330
C
100
AcDbDictionary
281
     1
  0
ACDBDICTIONARYWDFLT
  5
E
102
{ACAD_REACTORS
330
C
102
}
330
C
100
AcDbDictionary
281
     1
  3
Normal
350
F
100
AcDbDictionaryWithDefault
340
F
  0
DICTIONARY
  5
47
102
{ACAD_REACTORS
330
C
102
}
330
C
100
AcDbDictionary
281
     1
  3
A0
350
48
  3
A1
350
49
  3
A2
350
4A
  3
A3
350
4B
  3
A4
350
4C
  3
A5
350
4D
  3
A6
350
4E
  3
A7
350
4F
  3
A8
350
50
  3
A9
350
51
  3
B0
350
52
  3
B1
350
53
  3
B2
350
54
  3
B3
350
55
  3
B4
350
56
  3
B5
350
57
  3
B6
350
58
  3
B7
350
59
  3
B8
350
5A
  3
B9
350
5B
  3
C0
350
5C
  3
C1
350
5D
  3
C2
350
5E
  3
C3
350
5F
  3
C4
350
60
  3
C5
350
61
  3
C6
350
62
  3
C7
350
63
  3
C8
350
64
  3
C9
350
65
  3
D0
350
66
  3
D1
350
67
  3
D2
350
68
  0
LAYOUT
  5
1E
102
{ACAD_REACTORS
330
1A
102
}
330
1A
100
AcDbPlotSettings
  1

  2
none_device
  4

  6

 40
0.0
 41
0.0
 42
0.0
 43
0.0
 44
0.0
 45
0.0
 46
0.0
 47
0.0
 48
0.0
 49
0.0
140
0.0
141
0.0
142
1.0
143
1.0
 70
   688
 72
     0
 73
     0
 74
     5
  7

 75
    16
147
1.0
148
0.0
149
0.0
100
AcDbLayout
  1
Layout1
 70
     1
 71
     1
 10
0.0
 20
0.0
 11
12.0
 21
9.0
 12
0.0
 22
0.0
 32
0.0
 14
1.0000000000E+20
 24
1.0000000000E+20
 34
1.0000000000E+20
 15
-1.0000000000E+20
 25
-1.0000000000E+20
 35
-1.0000000000E+20
146
0.0
 13
0.0
 23
0.0
 33
0.0
 16
1.0
 26
0.0
 36
0.0
 17
0.0
 27
1.0
 37
0.0
 76
     0
330
1B
  0
LAYOUT
  5
26
102
{ACAD_REACTORS
330
1A
102
}
330
1A
100
AcDbPlotSettings
  1

  2
none_device
  4

  6

 40
0.0
 41
0.0
 42
0.0
 43
0.0
 44
0.0
 45
0.0
 46
0.0
 47
0.0
 48
0.0
 49
0.0
140
0.0
141
0.0
142
1.0
143
1.0
 70
   688
 72
     0
 73
     0
 74
     5
  7

 75
    16
147
1.0
148
0.0
149
0.0
100
AcDbLayout
  1
Layout2
 70
     1
 71
     2
 10
0.0
 20
0.0
 11
0.0
 21
0.0
 12
0.0
 22
0.0
 32
0.0
 14
0.0
 24
0.0
 34
0.0
 15
0.0
 25
0.0
 35
0.0
146
0.0
 13
0.0
 23
0.0
 33
0.0
 16
1.0
 26
0.0
 36
0.0
 17
0.0
 27
1.0
 37
0.0
 76
     0
330
23
  0
LAYOUT
  5
22
102
{ACAD_REACTORS
330
1A
102
}
330
1A
100
AcDbPlotSettings
  1

  2
none_device
  4
Letter_(8.50_x_11.00_Inches)
  6

 40
6.35
 41
6.35
 42
6.35000508
 43
6.35000508
 44
215.9
 45
279.4
 46
0.0
 47
0.0
 48
0.0
 49
0.0
140
0.0
141
0.0
142
1.0
143
1.0
 70
  1712
 72
     0
 73
     0
 74
     0
  7

 75
     0
147
1.0
148
0.0
149
0.0
100
AcDbLayout
  1
Model
 70
     1
 71
     0
 10
0.0
 20
0.0
 11
8.5
 21
11.0
 12
0.0
 22
0.0
 32
0.0
 14
0.0
 24
0.0
 34
0.0
 15
8.5
 25
11.0
 35
0.0
146
0.0
 13
0.0
 23
0.0
 33
0.0
 16
1.0
 26
0.0
 36
0.0
 17
0.0
 27
1.0
 37
0.0
 76
     0
330
1F
331
29
  0
MLINESTYLE
  5
18
102
{ACAD_REACTORS
330
17
102
}
330
17
100
AcDbMlineStyle
  2
Standard
 70
     0
  3

 62
   256
 51
90.0
 52
90.0
 71
     2
 49
0.5
 62
   256
  6
BYLAYER
 49
-0.5
 62
   256
  6
BYLAYER
  0
ACDBPLACEHOLDER
  5
F
102
{ACAD_REACTORS
330
E
102
}
330
E
  0
SCALE
  5
48
102
{ACAD_REACTORS
330
47
102
}
330
47
100
AcDbScale
 70
     0
300
1:1
140
1.0
141
1.0
290
     1
  0
SCALE
  5
49
102
{ACAD_REACTORS
330
47
102
}
330
47
100
AcDbScale
 70
     0
300
1:2
140
1.0
141
2.0
290
     0
  0
SCALE
  5
4A
102
{ACAD_REACTORS
330
47
102
}
330
47
100
AcDbScale
 70
     0
300
1:4
140
1.0
141
4.0
290
     0
  0
SCALE
  5
4B
102
{ACAD_REACTORS
330
47
102
}
330
47
100
AcDbScale
 70
     0
300
1:5
140
1.0
141
5.0
290
     0
  0
SCALE
  5
4C
102
{ACAD_REACTORS
330
47
102
}
330
47
100
AcDbScale
 70
     0
300
1:8
140
1.0
141
8.0
290
     0
  0
SCALE
  5
4D
102
{ACAD_REACTORS
330
47
102
}
330
47
100
AcDbScale
 70
     0
300
1:10
140
1.0
141
10.0
290
     0
  0
SCALE
  5
4E
102
{ACAD_REACTORS
330
47
102
}
330
47
100
AcDbScale
 70
     0
300
1:16
140
1.0
141
16.0
290
     0
  0
SCALE
  5
4F
102
{ACAD_REACTORS
330
47
102
}
330
47
100
AcDbScale
 70
     0
300
1:20
140
1.0
141
20.0
290
     0
  0
SCALE
  5
50
102
{ACAD_REACTORS
330
47
102
}
330
47
100
AcDbScale
 70
     0
300
1:30
140
1.0
141
30.0
290
     0
  0
SCALE
  5
51
102
{ACAD_REACTORS
330
47
102
}
330
47
100
AcDbScale
 70
     0
300
1:40
140
1.0
141
40.0
290
     0
  0
SCALE
  5
52
102
{ACAD_REACTORS
330
47
102
}
330
47
100
AcDbScale
 70
     0
300
1:50
140
1.0
141
50.0
290
     0
  0
SCALE
  5
53
102
{ACAD_REACTORS
330
47
102
}
330
47
100
AcDbScale
 70
     0
300
1:100
140
1.0
141
100.0
290
     0
  0
SCALE
  5
54
102
{ACAD_REACTORS
330
47
102
}
330
47
100
AcDbScale
 70
     0
300
2:1
140
2.0
141
1.0
290
     0
  0
SCALE
  5
55
102
{ACAD_REACTORS
330
47
102
}
330
47
100
AcDbScale
 70
     0
300
4:1
140
4.0
141
1.0
290
     0
  0
SCALE
  5
56
102
{ACAD_REACTORS
330
47
102
}
330
47
100
AcDbScale
 70
     0
300
8:1
140
8.0
141
1.0
290
     0
  0
SCALE
  5
57
102
{ACAD_REACTORS
330
47
102
}
330
47
100
AcDbScale
 70
     0
300
10:1
140
10.0
141
1.0
290
     0
  0
SCALE
  5
58
102
{ACAD_REACTORS
330
47
102
}
330
47
100
AcDbScale
 70
     0
300
100:1
140
100.0
141
1.0
290
     0
  0
SCALE
  5
59
102
{ACAD_REACTORS
330
47
102
}
330
47
100
AcDbScale
 70
     0
300
1/128" = 1'-0"
140
0.0078125
141
12.0
290
     0
  0
SCALE
  5
5A
102
{ACAD_REACTORS
330
47
102
}
330
47
100
AcDbScale
 70
     0
300
1/64" = 1'-0"
140
0.015625
141
12.0
290
     0
  0
SCALE
  5
5B
102
{ACAD_REACTORS
330
47
102
}
330
47
100
AcDbScale
 70
     0
300
1/32" = 1'-0"
140
0.03125
141
12.0
290
     0
  0
SCALE
  5
5C
102
{ACAD_REACTORS
330
47
102
}
330
47
100
AcDbScale
 70
     0
300
1/16" = 1'-0"
140
0.0625
141
12.0
290
     0
  0
SCALE
  5
5D
102
{ACAD_REACTORS
330
47
102
}
330
47
100
AcDbScale
 70
     0
300
3/32" = 1'-0"
140
0.09375
141
12.0
290
     0
  0
SCALE
  5
5E
102
{ACAD_REACTORS
330
47
102
}
330
47
100
AcDbScale
 70
     0
300
1/8" = 1'-0"
140
0.125
141
12.0
290
     0
  0
SCALE
  5
5F
102
{ACAD_REACTORS
330
47
102
}
330
47
100
AcDbScale
 70
     0
300
3/16" = 1'-0"
140
0.1875
141
12.0
290
     0
  0
SCALE
  5
60
102
{ACAD_REACTORS
330
47
102
}
330
47
100
AcDbScale
 70
     0
300
1/4" = 1'-0"
140
0.25
141
12.0
290
     0
  0
SCALE
  5
61
102
{ACAD_REACTORS
330
47
102
}
330
47
100
AcDbScale
 70
     0
300
3/8" = 1'-0"
140
0.375
141
12.0
290
     0
  0
SCALE
  5
62
102
{ACAD_REACTORS
330
47
102
}
330
47
100
AcDbScale
 70
     0
300
1/2" = 1'-0"
140
0.5
141
12.0
290
     0
  0
SCALE
  5
63
102
{ACAD_REACTORS
330
47
102
}
330
47
100
AcDbScale
 70
     0
300
3/4" = 1'-0"
140
0.75
141
12.0
290
     0
  0
SCALE
  5
64
102
{ACAD_REACTORS
330
47
102
}
330
47
100
AcDbScale
 70
     0
300
1" = 1'-0"
140
1.0
141
12.0
290
     0
  0
SCALE
  5
65
102
{ACAD_REACTORS
330
47
102
}
330
47
100
AcDbScale
 70
     0
300
1-1/2" = 1'-0"
140
1.5
141
12.0
290
     0
  0
SCALE
  5
66
102
{ACAD_REACTORS
330
47
102
}
330
47
100
AcDbScale
 70
     0
300
3" = 1'-0"
140
3.0
141
12.0
290
     0
  0
SCALE
  5
67
102
{ACAD_REACTORS
330
47
102
}
330
47
100
AcDbScale
 70
     0
300
6" = 1'-0"
140
6.0
141
12.0
290
     0
  0
SCALE
  5
68
102
{ACAD_REACTORS
330
47
102
}
330
47
100
AcDbScale
 70
     0
300
1'-0" = 1'-0"
140
12.0
141
12.0
290
     0
  0
ENDSEC
  0
EOF
