  0
SECTION
  2
HEADER
  9
$ACADVER
  1
AC1015
  9
$ACADMAINTVER
 70
     6
  9
$DWGCODEPAGE
  3
ANSI_1252
  9
$INSBASE
 10
0.0
 20
0.0
 30
0.0
  9
$EXTMIN
 10
0.0
 20
0.0
 30
0.0
  9
$EXTMAX
 10
8.5
 20
11.0
 30
0.0
  9
$LIMMIN
 10
0.0
 20
0.0
  9
$LIMMAX
 10
8.5
 20
11.0
  9
$ORTHOMODE
 70
     0
  9
$REGENMODE
 70
     1
  9
$FILLMODE
 70
     1
  9
$QTEXTMODE
 70
     0
  9
$MIRRTEXT
 70
     1
  9
$LTSCALE
 40
1.0
  9
$ATTMODE
 70
     1
  9
$TEXTSIZE
 40
0.09
  9
$TRACEWID
 40
0.05
  9
$TEXTSTYLE
  7
Standard
  9
$CLAYER
  8
0
  9
$CELTYPE
  6
ByLayer
  9
$CECOLOR
 62
   256
  9
$CELTSCALE
 40
1.0
  9
$DISPSILH
 70
     0
  9
$DIMSCALE
 40
1.0
  9
$DIMASZ
 40
0.13
  9
$DIMEXO
 40
0.05
  9
$DIMDLI
 40
0.38
  9
$DIMRND
 40
0.0
  9
$DIMDLE
 40
0.0
  9
$DIMEXE
 40
0.125
  9
$DIMTP
 40
0.0
  9
$DIMTM
 40
0.0
  9
$DIMTXT
 40
0.09
  9
$DIMCEN
 40
0.09
  9
$DIMTSZ
 40
0.0
  9
$DIMTOL
 70
     0
  9
$DIMLIM
 70
     0
  9
$DIMTIH
 70
     1
  9
$DIMTOH
 70
     1
  9
$DIMSE1
 70
     0
  9
$DIMSE2
 70
     0
  9
$DIMTAD
 70
     1
  9
$DIMZIN
 70
     1
  9
$DIMBLK
  1

  9
$DIMASO
 70
     1
  9
$DIMSHO
 70
     1
  9
$DIMPOST
  1

  9
$DIMAPOST
  1

  9
$DIMALT
 70
     0
  9
$DIMALTD
 70
     2
  9
$DIMALTF
 40
25.4
  9
$DIMLFAC
 40
1.0
  9
$DIMTOFL
 70
     0
  9
$DIMTVP
 40
0.0
  9
$DIMTIX
 70
     0
  9
$DIMSOXD
 70
     0
  9
$DIMSAH
 70
     0
  9
$DIMBLK1
  1

  9
$DIMBLK2
  1

  9
$DIMSTYLE
  2
Standard
  9
$DIMCLRD
 70
     0
  9
$DIMCLRE
 70
     0
  9
$DIMCLRT
 70
     0
  9
$DIMTFAC
 40
1.0
  9
$DIMGAP
 40
0.06
  9
$DIMJUST
 70
     0
  9
$DIMSD1
 70
     0
  9
$DIMSD2
 70
     0
  9
$DIMTOLJ
 70
     1
  9
$DIMTZIN
 70
     1
  9
$DIMALTZ
 70
     0
  9
$DIMALTTZ
 70
     0
  9
$DIMUPT
 70
     0
  9
$DIMDEC
 70
     3
  9
$DIMTDEC
 70
     3
  9
$DIMALTU
 70
     2
  9
$DIMALTTD
 70
     2
  9
$DIMTXSTY
  7
Standard
  9
$DIMAUNIT
 70
     0
  9
$DIMADEC
 70
     3
  9
$DIMALTRND
 40
0.0
  9
$DIMAZIN
 70
     0
  9
$DIMDSEP
 70
    46
  9
$DIMATFIT
 70
     3
  9
$DIMFRAC
 70
     0
  9
$DIMLDRBLK
  1

  9
$DIMLUNIT
 70
     2
  9
$DIMLWD
 70
    -2
  9
$DIMLWE
 70
    -2
  9
$DIMTMOVE
 70
     0
  9
$LUNITS
 70
     2
  9
$LUPREC
 70
     3
  9
$SKETCHINC
 40
0.1
  9
$FILLETRAD
 40
0.5
  9
$AUNITS
 70
     0
  9
$AUPREC
 70
     2
  9
$MENU
  1
.
  9
$ELEVATION
 40
0.0
  9
$PELEVATION
 40
0.0
  9
$THICKNESS
 40
0.0
  9
$LIMCHECK
 70
     0
  9
$CHAMFERA
 40
0.0
  9
$CHAMFERB
 40
0.0
  9
$CHAMFERC
 40
0.0
  9
$CHAMFERD
 40
0.0
  9
$SKPOLY
 70
     0
  9
$TDCREATE
 40
2458645.594473125
  9
$TDUCREATE
 40
2458645.761139791
  9
$TDUPDATE
 40
2458645.594474375
  9
$TDUUPDATE
 40
2458645.761141042
  9
$TDINDWG
 40
0.0000000116
  9
$TDUSRTIMER
 40
0.0000000116
  9
$USRTIMER
 70
     1
  9
$ANGBASE
 50
0.0
  9
$ANGDIR
 70
     0
  9
$PDMODE
 70
     0
  9
$PDSIZE
 40
-1.0
  9
$PLINEWID
 40
0.0
  9
$SPLFRAME
 70
     0
  9
$SPLINETYPE
 70
     6
  9
$SPLINESEGS
 70
     8
  9
$HANDSEED
  5
542
  9
$SURFTAB1
 70
     6
  9
$SURFTAB2
 70
     6
  9
$SURFTYPE
 70
     6
  9
$SURFU
 70
     6
  9
$SURFV
 70
     6
  9
$UCSBASE
  2

  9
$UCSNAME
  2

  9
$UCSORG
 10
0.0
 20
0.0
 30
0.0
  9
$UCSXDIR
 10
1.0
 20
0.0
 30
0.0
  9
$UCSYDIR
 10
0.0
 20
1.0
 30
0.0
  9
$UCSORTHOREF
  2

  9
$UCSORTHOVIEW
 70
     0
  9
$UCSORGTOP
 10
0.0
 20
0.0
 30
0.0
  9
$UCSORGBOTTOM
 10
0.0
 20
0.0
 30
0.0
  9
$UCSORGLEFT
 10
0.0
 20
0.0
 30
0.0
  9
$UCSORGRIGHT
 10
0.0
 20
0.0
 30
0.0
  9
$UCSORGFRONT
 10
0.0
 20
0.0
 30
0.0
  9
$UCSORGBACK
 10
0.0
 20
0.0
 30
0.0
  9
$PUCSBASE
  2

  9
$PUCSNAME
  2

  9
$PUCSORG
 10
0.0
 20
0.0
 30
0.0
  9
$PUCSXDIR
 10
1.0
 20
0.0
 30
0.0
  9
$PUCSYDIR
 10
0.0
 20
1.0
 30
0.0
  9
$PUCSORTHOREF
  2

  9
$PUCSORTHOVIEW
 70
     0
  9
$PUCSORGTOP
 10
0.0
 20
0.0
 30
0.0
  9
$PUCSORGBOTTOM
 10
0.0
 20
0.0
 30
0.0
  9
$PUCSORGLEFT
 10
0.0
 20
0.0
 30
0.0
  9
$PUCSORGRIGHT
 10
0.0
 20
0.0
 30
0.0
  9
$PUCSORGFRONT
 10
0.0
 20
0.0
 30
0.0
  9
$PUCSORGBACK
 10
0.0
 20
0.0
 30
0.0
  9
$USERI1
 70
     0
  9
$USERI2
 70
     0
  9
$USERI3
 70
     0
  9
$USERI4
 70
     0
  9
$USERI5
 70
     0
  9
$USERR1
 40
0.0
  9
$USERR2
 40
0.0
  9
$USERR3
 40
0.0
  9
$USERR4
 40
0.0
  9
$USERR5
 40
0.0
  9
$WORLDVIEW
 70
     1
  9
$SHADEDGE
 70
     3
  9
$SHADEDIF
 70
    70
  9
$TILEMODE
 70
     1
  9
$MAXACTVP
 70
    64
  9
$PINSBASE
 10
0.0
 20
0.0
 30
0.0
  9
$PLIMCHECK
 70
     0
  9
$PEXTMIN
 10
1.0000000000E+20
 20
1.0000000000E+20
 30
1.0000000000E+20
  9
$PEXTMAX
 10
-1.0000000000E+20
 20
-1.0000000000E+20
 30
-1.0000000000E+20
  9
$PLIMMIN
 10
0.0
 20
0.0
  9
$PLIMMAX
 10
12.0
 20
9.0
  9
$UNITMODE
 70
     0
  9
$VISRETAIN
 70
     1
  9
$PLINEGEN
 70
     0
  9
$PSLTSCALE
 70
     1
  9
$TREEDEPTH
 70
  3020
  9
$CMLSTYLE
  2
Standard
  9
$CMLJUST
 70
     0
  9
$CMLSCALE
 40
1.0
  9
$PROXYGRAPHICS
 70
     1
  9
$MEASUREMENT
 70
     0
  9
$CELWEIGHT
370
    -1
  9
$ENDCAPS
280
     0
  9
$JOINSTYLE
280
     0
  9
$LWDISPLAY
290
     1
  9
$INSUNITS
 70
     1
  9
$HYPERLINKBASE
  1

  9
$STYLESHEET
  1

  9
$XEDIT
290
     1
  9
$CEPSNTYPE
380
     0
  9
$PSTYLEMODE
290
     1
  9
$FINGERPRINTGUID
  2
{0f18fd3c-9098-4e12-ba28-e6e1fda1385a}
  9
$VERSIONGUID
  2
{FAEB1C32-E019-11D5-929B-00C0DF256EC4}
  9
$EXTNAMES
290
     1
  9
$PSVPSCALE
 40
0.0
  9
$OLESTARTUP
290
     0
  0
ENDSEC
  0
SECTION
  2
CLASSES
  0
CLASS
  1
ACDBDICTIONARYWDFLT
  2
AcDbDictionaryWithDefault
  3
ObjectDBX Classes
 90
        0
280
     0
281
     0
  0
CLASS
  1
VISUALSTYLE
  2
AcDbVisualStyle
  3
ObjectDBX Classes
 90
     4095
280
     0
281
     0
  0
CLASS
  1
MATERIAL
  2
AcDbMaterial
  3
ObjectDBX Classes
 90
     1153
280
     0
281
     0
  0
CLASS
  1
SCALE
  2
AcDbScale
  3
ObjectDBX Classes
 90
     1153
280
     0
281
     0
  0
CLASS
  1
TABLESTYLE
  2
AcDbTableStyle
  3
ObjectDBX Classes
 90
     4095
280
     0
281
     0
  0
CLASS
  1
MLEADERSTYLE
  2
AcDbMLeaderStyle
  3
ACDB_MLEADERSTYLE_CLASS
 90
     4095
280
     0
281
     0
  0
CLASS
  1
SUN
  2
AcDbSun
  3
SCENEOE
 90
     1153
280
     0
281
     0
  0
CLASS
  1
ACDBPLACEHOLDER
  2
AcDbPlaceHolder
  3
ObjectDBX Classes
 90
        0
280
     0
281
     0
  0
CLASS
  1
LAYOUT
  2
AcDbLayout
  3
ObjectDBX Classes
 90
        0
280
     0
281
     0
  0
ENDSEC
  0
SECTION
  2
TABLES
  0
TABLE
  2
VPORT
  5
8
330
0
100
AcDbSymbolTable
 70
     1
  0
VPORT
  5
29
330
8
100
AcDbSymbolTableRecord
100
AcDbViewportTableRecord
  2
*Active
 70
     0
 10
0.0
 20
0.0
 11
1.0
 21
1.0
 12
4.25
 22
5.5
 13
0.0
 23
0.0
 14
0.5
 24
0.5
 15
0.5
 25
0.5
 16
0.0
 26
0.0
 36
1.0
 17
0.0
 27
0.0
 37
0.0
 40
11.0
 41
0.7727272727
 42
50.0
 43
0.0
 44
0.0
 50
0.0
 51
0.0
 71
     0
 72
  2000
 73
     1
 74
     3
 75
     0
 76
     0
 77
     0
 78
     0
281
     0
 65
     1
110
0.0
120
0.0
130
0.0
111
1.0
121
0.0
131
0.0
112
0.0
122
1.0
132
0.0
 79
     0
146
0.0
  0
ENDTAB
  0
TABLE
  2
LTYPE
  5
5
330
0
100
AcDbSymbolTable
 70
     6
  0
LTYPE
  5
14
330
5
100
AcDbSymbolTableRecord
100
AcDbLinetypeTableRecord
  2
ByBlock
 70
     0
  3

 72
    65
 73
     0
 40
0.0
  0
LTYPE
  5
15
330
5
100
AcDbSymbolTableRecord
100
AcDbLinetypeTableRecord
  2
ByLayer
 70
     0
  3

 72
    65
 73
     0
 40
0.0
  0
LTYPE
  5
16
330
5
100
AcDbSymbolTableRecord
100
AcDbLinetypeTableRecord
  2
Continuous
 70
     0
  3
Solid line
 72
    65
 73
     0
 40
0.0
  0
LTYPE
  5
6E
330
5
100
AcDbSymbolTableRecord
100
AcDbLinetypeTableRecord
  2
HIDDEN
 70
     0
  3
Hidden __ __ __ __ __ __ __ __ __ __ __ __ __ __
 72
    65
 73
     2
 40
0.075
 49
0.05
 74
     0
 49
-0.025
 74
     0
  0
LTYPE
  5
6F
330
5
100
AcDbSymbolTableRecord
100
AcDbLinetypeTableRecord
  2
PHANTOM
 70
     0
  3
Phantom ______  __  __  ______  __  __  ______
 72
    65
 73
     6
 40
0.5
 49
0.25
 74
     0
 49
-0.05
 74
     0
 49
0.05
 74
     0
 49
-0.05
 74
     0
 49
0.05
 74
     0
 49
-0.05
 74
     0
  0
LTYPE
  5
70
330
5
100
AcDbSymbolTableRecord
100
AcDbLinetypeTableRecord
  2
CENTER
 70
     0
  3
Center ____ _ ____ _ ____ _ ____ _ ____ _ ____
 72
    65
 73
     4
 40
0.4
 49
0.25
 74
     0
 49
-0.05
 74
     0
 49
0.05
 74
     0
 49
-0.05
 74
     0
  0
LTYPE
  5
71
330
5
100
AcDbSymbolTableRecord
100
AcDbLinetypeTableRecord
  2
CENTERX2
 70
     0
  3
Center (2x) ________  __  ________  __  _____
 72
    65
 73
     4
 40
0.8
 49
0.5
 74
     0
 49
-0.1
 74
     0
 49
0.1
 74
     0
 49
-0.1
 74
     0
  0
LTYPE
  5
72
330
5
100
AcDbSymbolTableRecord
100
AcDbLinetypeTableRecord
  2
DOT2
 70
     0
  3
Dot (.5x) ........................................
 72
    65
 73
     2
 40
0.025
 49
0.0
 74
     0
 49
-0.025
 74
     0
  0
ENDTAB
  0
TABLE
  2
LAYER
  5
2
330
0
100
AcDbSymbolTable
 70
     5
  0
LAYER
  5
10
330
2
100
AcDbSymbolTableRecord
100
AcDbLayerTableRecord
  2
0
 70
     0
 62
     7
  6
Continuous
370
    -3
390
F
  0
LAYER
  5
73
330
2
100
AcDbSymbolTableRecord
100
AcDbLayerTableRecord
  2
SLD-0
 70
     0
 62
   179
  6
Continuous
370
    -3
390
F
  0
LAYER
  5
74
330
2
100
AcDbSymbolTableRecord
100
AcDbLayerTableRecord
  2
3
 70
     0
 62
     7
  6
Continuous
370
    -3
390
F
  0
LAYER
  5
75
330
2
100
AcDbSymbolTableRecord
100
AcDbLayerTableRecord
  2
1
 70
     0
 62
   179
  6
Continuous
370
    -3
390
F
  0
LAYER
  5
76
330
2
100
AcDbSymbolTableRecord
100
AcDbLayerTableRecord
  2
FORMAT
 70
     0
 62
     7
  6
Continuous
370
    -3
390
F
  0
ENDTAB
  0
TABLE
  2
STYLE
  5
3
330
0
100
AcDbSymbolTable
 70
     1
  0
STYLE
  5
11
330
3
100
AcDbSymbolTableRecord
100
AcDbTextStyleTableRecord
  2
Standard
 70
     0
 40
0.0
 41
1.0
 50
0.0
 71
     0
 42
0.09
  3
txt
  4

  0
ENDTAB
  0
TABLE
  2
VIEW
  5
6
330
0
100
AcDbSymbolTable
 70
     0
  0
ENDTAB
  0
TABLE
  2
UCS
  5
7
330
0
100
AcDbSymbolTable
 70
     0
  0
ENDTAB
  0
TABLE
  2
APPID
  5
9
330
0
100
AcDbSymbolTable
 70
     1
  0
APPID
  5
12
330
9
100
AcDbSymbolTableRecord
100
AcDbRegAppTableRecord
  2
ACAD
 70
     0
  0
ENDTAB
  0
TABLE
  2
DIMSTYLE
  5
A
330
0
100
AcDbSymbolTable
 70
     1
100
AcDbDimStyleTable
  0
DIMSTYLE
105
27
330
A
100
AcDbSymbolTableRecord
100
AcDbDimStyleTableRecord
  2
Standard
 70
     0
178
     0
340
11
  0
ENDTAB
  0
TABLE
  2
BLOCK_RECORD
  5
1
330
0
100
AcDbSymbolTable
 70
     2
  0
BLOCK_RECORD
  5
1F
330
1
100
AcDbSymbolTableRecord
100
AcDbBlockTableRecord
  2
*Model_Space
340
22
  0
BLOCK_RECORD
  5
1B
330
1
100
AcDbSymbolTableRecord
100
AcDbBlockTableRecord
  2
*Paper_Space
340
1E
  0
BLOCK_RECORD
  5
23
330
1
100
AcDbSymbolTableRecord
100
AcDbBlockTableRecord
  2
*Paper_Space0
340
26
  0
BLOCK_RECORD
  5
35F
330
1
100
AcDbSymbolTableRecord
100
AcDbBlockTableRecord
  2
SW_CENTERMARKSYMBOL_0
340
0
102
{BLKREFS
331
36A
102
}
  0
ENDTAB
  0
ENDSEC
  0
SECTION
  2
BLOCKS
  0
BLOCK
  5
20
330
1F
100
AcDbEntity
  8
0
100
AcDbBlockBegin
  2
*Model_Space
 70
     0
 10
0.0
 20
0.0
 30
0.0
  3
*Model_Space
  1

  0
ENDBLK
  5
21
330
1F
100
AcDbEntity
  8
0
100
AcDbBlockEnd
  0
BLOCK
  5
1C
330
1B
100
AcDbEntity
 67
     1
  8
0
100
AcDbBlockBegin
  2
*Paper_Space
 70
     0
 10
0.0
 20
0.0
 30
0.0
  3
*Paper_Space
  1

  0
ENDBLK
  5
1D
330
1B
100
AcDbEntity
 67
     1
  8
0
100
AcDbBlockEnd
  0
BLOCK
  5
24
330
23
100
AcDbEntity
  8
0
100
AcDbBlockBegin
  2
*Paper_Space0
 70
     0
 10
0.0
 20
0.0
 30
0.0
  3
*Paper_Space0
  1

  0
ENDBLK
  5
25
330
23
100
AcDbEntity
  8
0
100
AcDbBlockEnd
  0
BLOCK
  5
360
330
35F
100
AcDbEntity
  8
0
100
AcDbBlockBegin
  2
SW_CENTERMARKSYMBOL_0
 70
     0
 10
0.0
 20
0.0
 30
0.0
  3
SW_CENTERMARKSYMBOL_0
  1

  0
LINE
  5
362
330
35F
100
AcDbEntity
  8
SLD-0
 62
     0
100
AcDbLine
 10
0.0
 20
0.0
 30
0.0
 11
0.0
 21
0.1
 31
0.0
  0
LINE
  5
363
330
35F
100
AcDbEntity
  8
SLD-0
 62
     0
100
AcDbLine
 10
0.0
 20
0.0
 30
0.0
 11
-0.1
 21
0.0
 31
0.0
  0
LINE
  5
364
330
35F
100
AcDbEntity
  8
SLD-0
 62
     0
100
AcDbLine
 10
0.0
 20
0.0
 30
0.0
 11
0.0
 21
-0.1
 31
0.0
  0
LINE
  5
365
330
35F
100
AcDbEntity
  8
SLD-0
 62
     0
100
AcDbLine
 10
0.0
 20
0.0
 30
0.0
 11
0.1
 21
0.0
 31
0.0
  0
LINE
  5
366
330
35F
100
AcDbEntity
  8
SLD-0
 62
     0
100
AcDbLine
 10
0.0
 20
0.2
 30
0.0
 11
0.0
 21
1.225
 31
0.0
  0
LINE
  5
367
330
35F
100
AcDbEntity
  8
SLD-0
 62
     0
100
AcDbLine
 10
-0.2
 20
0.0
 30
0.0
 11
-1.225
 21
0.0
 31
0.0
  0
LINE
  5
368
330
35F
100
AcDbEntity
  8
SLD-0
 62
     0
100
AcDbLine
 10
0.0
 20
-0.2
 30
0.0
 11
0.0
 21
-1.225
 31
0.0
  0
LINE
  5
369
330
35F
100
AcDbEntity
  8
SLD-0
 62
     0
100
AcDbLine
 10
0.2
 20
0.0
 30
0.0
 11
1.225
 21
0.0
 31
0.0
  0
ENDBLK
  5
361
330
35F
100
AcDbEntity
  8
0
100
AcDbBlockEnd
  0
ENDSEC
  0
SECTION
  2
ENTITIES
  0
LINE
  5
77
330
1F
100
AcDbEntity
  8
0
  6
Continuous
 62
     7
370
    25
100
AcDbLine
 10
2.0760109284
 20
2.7631334232
 30
0.0
 11
2.1835109284
 21
2.734328885
 31
0.0
  0
LINE
  5
78
330
1F
100
AcDbEntity
  8
0
  6
Continuous
 62
     7
370
    25
100
AcDbLine
 10
2.5305109284
 20
2.734328885
 30
0.0
 11
2.6380109284
 21
2.7631334232
 31
0.0
  0
LINE
  5
79
330
1F
100
AcDbEntity
  8
0
  6
Continuous
 62
     7
370
    25
100
AcDbLine
 10
2.1835109284
 20
2.734328885
 30
0.0
 11
2.1835109284
 21
2.639328885
 31
0.0
  0
LINE
  5
7A
330
1F
100
AcDbEntity
  8
0
  6
Continuous
 62
     7
370
    25
100
AcDbLine
 10
2.5305109284
 20
2.639328885
 30
0.0
 11
2.5305109284
 21
2.734328885
 31
0.0
  0
LINE
  5
7B
330
1F
100
AcDbEntity
  8
0
  6
Continuous
 62
     7
370
    25
100
AcDbLine
 10
2.1835109284
 20
2.639328885
 30
0.0
 11
2.1877064265
 21
2.634328885
 31
0.0
  0
LINE
  5
7C
330
1F
100
AcDbEntity
  8
0
  6
Continuous
 62
     7
370
    25
100
AcDbLine
 10
2.5263154302
 20
2.634328885
 30
0.0
 11
2.5305109284
 21
2.639328885
 31
0.0
  0
LINE
  5
7D
330
1F
100
AcDbEntity
  8
0
  6
Continuous
 62
     7
370
    25
100
AcDbLine
 10
2.0757609284
 20
2.309328885
 30
0.0
 11
2.0757609284
 21
1.789328885
 31
0.0
  0
LINE
  5
7E
330
1F
100
AcDbEntity
  8
0
  6
Continuous
 62
     7
370
    25
100
AcDbLine
 10
2.6382609284
 20
1.789328885
 30
0.0
 11
2.6382609284
 21
2.309328885
 31
0.0
  0
ARC
  5
7F
330
1F
100
AcDbEntity
  8
0
  6
Continuous
 62
     7
370
    25
100
AcDbCircle
 10
2.0800109284
 20
3.190328885
 30
0.0
 40
0.0460000000000002
100
AcDbArc
 50
193.835223614
 51
265.0114580244
  0
LINE
  5
80
330
1F
100
AcDbEntity
  8
0
  6
Continuous
 62
     7
370
    25
100
AcDbLine
 10
1.3745109284
 20
3.244328885
 30
0.0
 11
1.3745109284
 21
3.179328885
 31
0.0
  0
LINE
  5
81
330
1F
100
AcDbEntity
  8
0
  6
Continuous
 62
     7
370
    25
100
AcDbLine
 10
2.0695109284
 20
3.179328885
 30
0.0
 11
2.0695109284
 21
3.226328885
 31
0.0
  0
ARC
  5
82
330
1F
100
AcDbEntity
  8
0
  6
Continuous
 62
     7
370
    25
100
AcDbCircle
 10
1.2720109284
 20
4.2662496285
 30
0.0
 40
0.0400000000000009
100
AcDbArc
 50
90.0
 51
180.0
  0
ARC
  5
83
330
1F
100
AcDbEntity
  8
0
  6
Continuous
 62
     7
370
    25
100
AcDbCircle
 10
3.4420109284
 20
4.2662496285
 30
0.0
 40
0.0400000000000009
100
AcDbArc
 50
0.0
 51
90.0
  0
LINE
  5
84
330
1F
100
AcDbEntity
  8
0
  6
Continuous
 62
     7
370
    25
100
AcDbLine
 10
1.2320109284
 20
4.2662496285
 30
0.0
 11
1.2320109284
 21
4.2062496285
 31
0.0
  0
LINE
  5
85
330
1F
100
AcDbEntity
  8
0
  6
Continuous
 62
     7
370
    25
100
AcDbLine
 10
3.4820109284
 20
4.2062496285
 30
0.0
 11
3.4820109284
 21
4.2662496285
 31
0.0
  0
LINE
  5
86
330
1F
100
AcDbEntity
  8
0
  6
Continuous
 62
     7
370
    25
100
AcDbLine
 10
3.3720109284
 20
4.3062496285
 30
0.0
 11
3.3500716182
 21
4.3442496285
 31
0.0
  0
LINE
  5
87
330
1F
100
AcDbEntity
  8
0
  6
Continuous
 62
     7
370
    25
100
AcDbLine
 10
1.3639502386
 20
4.3442496285
 30
0.0
 11
1.3420109284
 21
4.3062496285
 31
0.0
  0
LINE
  5
88
330
1F
100
AcDbEntity
  8
0
  6
Continuous
 62
     7
370
    25
100
AcDbLine
 10
1.2095109284
 20
4.2062496285
 30
0.0
 11
1.2095109284
 21
3.9262496285
 31
0.0
  0
LINE
  5
89
330
1F
100
AcDbEntity
  8
0
  6
Continuous
 62
     7
370
    25
100
AcDbLine
 10
3.5045109284
 20
3.9262496285
 30
0.0
 11
3.5045109284
 21
4.2062496285
 31
0.0
  0
LINE
  5
8A
330
1F
100
AcDbEntity
  8
0
  6
Continuous
 62
     7
370
    25
100
AcDbLine
 10
2.6790109284
 20
3.190328885
 30
0.0
 11
2.6790109284
 21
3.226328885
 31
0.0
  0
ARC
  5
8B
330
1F
100
AcDbEntity
  8
0
  6
Continuous
 62
     7
370
    25
100
AcDbCircle
 10
2.6330109284
 20
3.190328885
 30
0.0
 40
0.0460000000000003
100
AcDbArc
 50
276.2401310983
 51
0.0
  0
LINE
  5
8C
330
1F
100
AcDbEntity
  8
0
  6
Continuous
 62
     7
370
    25
100
AcDbLine
 10
3.2321590384
 20
3.226328885
 30
0.0
 11
3.2321590384
 21
3.244328885
 31
0.0
  0
LINE
  5
8D
330
1F
100
AcDbEntity
  8
0
  6
Continuous
 62
     7
370
    25
100
AcDbLine
 10
1.5615007679
 20
3.244328885
 30
0.0
 11
1.5615007679
 21
3.226328885
 31
0.0
  0
LINE
  5
8E
330
1F
100
AcDbEntity
  8
0
  6
Continuous
 62
     7
370
    25
100
AcDbLine
 10
3.4195109284
 20
3.304328885
 30
0.0
 11
3.4195109284
 21
3.9262496285
 31
0.0
  0
LINE
  5
8F
330
1F
100
AcDbEntity
  8
0
  6
Continuous
 62
     7
370
    25
100
AcDbLine
 10
1.2945109284
 20
3.9262496285
 30
0.0
 11
1.2945109284
 21
3.304328885
 31
0.0
  0
ARC
  5
90
330
1F
100
AcDbEntity
  8
0
  6
Continuous
 62
     7
370
    25
100
AcDbCircle
 10
3.3595109284
 20
3.304328885
 30
0.0
 40
0.0600000000000001
100
AcDbArc
 50
270.0
 51
0.0
  0
ARC
  5
91
330
1F
100
AcDbEntity
  8
0
  6
Continuous
 62
     7
370
    25
100
AcDbCircle
 10
1.3545109284
 20
3.304328885
 30
0.0
 40
0.0600000000000003
100
AcDbArc
 50
180.0
 51
270.0
  0
LINE
  5
92
330
1F
100
AcDbEntity
  8
0
  6
Continuous
 62
     7
370
    25
100
AcDbLine
 10
2.6045109284
 20
1.779328885
 30
0.0
 11
2.5945109284
 21
1.789328885
 31
0.0
  0
LINE
  5
93
330
1F
100
AcDbEntity
  8
0
  6
Continuous
 62
     7
370
    25
100
AcDbLine
 10
2.1195109284
 20
1.789328885
 30
0.0
 11
2.1095109284
 21
1.779328885
 31
0.0
  0
LINE
  5
94
330
1F
100
AcDbEntity
  8
0
  6
Continuous
 62
     7
370
    25
100
AcDbLine
 10
2.1095109284
 20
1.779328885
 30
0.0
 11
2.1095109284
 21
1.7392496285
 31
0.0
  0
LINE
  5
95
330
1F
100
AcDbEntity
  8
0
  6
Continuous
 62
     7
370
    25
100
AcDbLine
 10
2.6045109284
 20
1.7392496285
 30
0.0
 11
2.6045109284
 21
1.779328885
 31
0.0
  0
LINE
  5
96
330
1F
100
AcDbEntity
  8
0
  6
Continuous
 62
     7
370
    25
100
AcDbLine
 10
2.1095109284
 20
1.7392496285
 30
0.0
 11
2.1190109284
 21
1.7292496285
 31
0.0
  0
LINE
  5
97
330
1F
100
AcDbEntity
  8
0
  6
Continuous
 62
     7
370
    25
100
AcDbLine
 10
2.5950109284
 20
1.7292496285
 30
0.0
 11
2.6045109284
 21
1.7392496285
 31
0.0
  0
ARC
  5
98
330
1F
100
AcDbEntity
  8
0
  6
Continuous
 62
     7
370
    25
100
AcDbCircle
 10
2.1190109284
 20
1.7142496285
 30
0.0
 40
0.0150000000013004
100
AcDbArc
 50
0.0
 51
90.0000000013
  0
ARC
  5
99
330
1F
100
AcDbEntity
  8
0
  6
Continuous
 62
     7
370
    25
100
AcDbCircle
 10
2.5950109284
 20
1.7142496285
 30
0.0
 40
0.0150000000013004
100
AcDbArc
 50
89.9999999987
 51
180.0
  0
LINE
  5
9A
330
1F
100
AcDbEntity
  8
0
  6
Continuous
 62
     7
370
    25
100
AcDbLine
 10
2.1340109284
 20
1.6442496285
 30
0.0
 11
2.1440109284
 21
1.6342496285
 31
0.0
  0
LINE
  5
9B
330
1F
100
AcDbEntity
  8
0
  6
Continuous
 62
     7
370
    25
100
AcDbLine
 10
2.5700109284
 20
1.6342496285
 30
0.0
 11
2.5800109284
 21
1.6442496285
 31
0.0
  0
LINE
  5
9C
330
1F
100
AcDbEntity
  8
0
  6
Continuous
 62
     7
370
    25
100
AcDbLine
 10
2.1340109284
 20
1.7142496285
 30
0.0
 11
2.1340109284
 21
1.6442496285
 31
0.0
  0
LINE
  5
9D
330
1F
100
AcDbEntity
  8
0
  6
Continuous
 62
     7
370
    25
100
AcDbLine
 10
2.5800109284
 20
1.6442496285
 30
0.0
 11
2.5800109284
 21
1.7142496285
 31
0.0
  0
LINE
  5
9E
330
1F
100
AcDbEntity
  8
0
  6
Continuous
 62
     7
370
    25
100
AcDbLine
 10
2.1673287515
 20
1.6342496285
 30
0.0
 11
2.1763816392
 21
1.618569567
 31
0.0
  0
LINE
  5
9F
330
1F
100
AcDbEntity
  8
0
  6
Continuous
 62
     7
370
    25
100
AcDbLine
 10
2.5376402176
 20
1.618569567
 30
0.0
 11
2.5466931053
 21
1.6342496285
 31
0.0
  0
ARC
  5
A0
330
1F
100
AcDbEntity
  8
0
  6
Continuous
 62
     7
370
    25
100
AcDbCircle
 10
2.2023624013
 20
1.633569567
 30
0.0
 40
0.0300000000000368
100
AcDbArc
 50
209.9999999971
 51
257.7770805714
  0
ARC
  5
A1
330
1F
100
AcDbEntity
  8
0
  6
Continuous
 62
     7
370
    25
100
AcDbCircle
 10
2.5116594554
 20
1.633569567
 30
0.0
 40
0.0300000000000368
100
AcDbArc
 50
282.2229194286
 51
330.0000000029
  0
LINE
  5
A2
330
1F
100
AcDbEntity
  8
0
  6
Continuous
 62
     7
370
    25
100
AcDbLine
 10
2.5305109284
 20
2.509328885
 30
0.0
 11
2.5305109284
 21
2.634328885
 31
0.0
  0
LINE
  5
A3
330
1F
100
AcDbEntity
  8
0
  6
Continuous
 62
     7
370
    25
100
AcDbLine
 10
2.1835109284
 20
2.634328885
 30
0.0
 11
2.1835109284
 21
2.509328885
 31
0.0
  0
SPLINE
  5
A4
330
1F
100
AcDbEntity
  8
0
  6
Continuous
 62
     7
370
    25
100
AcDbSpline
210
0.0
220
0.0
230
1.0
 70
     8
 71
     3
 72
    14
 73
    10
 74
     0
 42
0.000000001
 43
0.00000001
 40
0.0
 40
0.0
 40
0.0
 40
0.0
 40
0.25
 40
0.25
 40
0.5
 40
0.5
 40
0.75
 40
0.75
 40
1.0
 40
1.0
 40
1.0
 40
1.0
 10
2.076010928389166
 20
2.794321104485204
 30
0.0
 10
2.122500069902675
 20
2.785512867697785
 30
0.0
 10
2.16930714823643
 20
2.777689530886116
 30
0.0
 10
2.262938663866495
 20
2.766444849002654
 30
0.0
 10
2.309807606728328
 20
2.763145052704998
 30
0.0
 10
2.403696088487847
 20
2.763121857753863
 30
0.0
 10
2.450715759580878
 20
2.766404231955904
 30
0.0
 10
2.544863528968142
 20
2.777703901744288
 30
0.0
 10
2.591586515395832
 20
2.785525131725772
 30
0.0
 10
2.638010928389166
 20
2.794321104485204
 30
0.0
  0
LINE
  5
A5
330
1F
100
AcDbEntity
  8
0
  6
Continuous
 62
     7
370
    25
100
AcDbLine
 10
2.0760109284
 20
2.7943211045
 30
0.0
 11
2.0760109284
 21
3.226328885
 31
0.0
  0
LINE
  5
A6
330
1F
100
AcDbEntity
  8
0
  6
Continuous
 62
     7
370
    25
100
AcDbLine
 10
2.6380109284
 20
2.7943211045
 30
0.0
 11
2.6380109284
 21
3.226328885
 31
0.0
  0
LINE
  5
A7
330
1F
100
AcDbEntity
  8
0
  6
Continuous
 62
     7
370
    25
100
AcDbLine
 10
2.1835109284
 20
2.734328885
 30
0.0
 11
2.5305109284
 21
2.734328885
 31
0.0
  0
SPLINE
  5
A8
330
1F
100
AcDbEntity
  8
0
  6
Continuous
 62
     7
370
    25
100
AcDbSpline
210
0.0
220
0.0
230
1.0
 70
    24
 71
     3
 72
    11
 73
     7
 74
     0
 42
0.000000001
 43
0.00000001
 40
0.0
 40
0.0
 40
0.0
 40
0.0
 40
0.2634732621313341
 40
0.52724796351987
 40
0.868807844543592
 40
1.0
 40
1.0
 40
1.0
 40
1.0
 10
2.076010928389166
 20
2.794321104485204
 30
0.0
 10
2.076010928389166
 20
2.789842457482333
 30
0.0
 10
2.076010928389167
 20
2.780880039465088
 30
0.0
 10
2.076010928389168
 20
2.769787657777077
 30
0.0
 10
2.076010928389168
 20
2.7631107651485
 30
0.0
 10
2.076010928389169
 20
2.764003547810507
 30
0.0
 10
2.07601092838917
 20
2.764251301543425
 30
0.0
  0
SPLINE
  5
A9
330
1F
100
AcDbEntity
  8
0
  6
Continuous
 62
     7
370
    25
100
AcDbSpline
210
0.0
220
0.0
230
1.0
 70
    24
 71
     3
 72
    11
 73
     7
 74
     0
 42
0.000000001
 43
0.00000001
 40
0.0
 40
0.0
 40
0.0
 40
0.0
 40
0.2634732623097834
 40
0.5272479638775247
 40
0.8688078448136431
 40
1.0
 40
1.0
 40
1.0
 40
1.0
 10
2.638010928389166
 20
2.794321104485204
 30
0.0
 10
2.638010928389166
 20
2.789842457479381
 30
0.0
 10
2.638010928389166
 20
2.78088003945622
 30
0.0
 10
2.638010928389168
 20
2.769787657768567
 30
0.0
 10
2.638010928389169
 20
2.763110765145927
 30
0.0
 10
2.638010928389169
 20
2.764003547809256
 30
0.0
 10
2.63801092838917
 20
2.764251301542219
 30
0.0
  0
LINE
  5
AA
330
1F
100
AcDbEntity
  8
0
  6
Continuous
 62
     7
370
    25
100
AcDbLine
 10
2.1835109284
 20
2.639328885
 30
0.0
 11
2.5305109284
 21
2.639328885
 31
0.0
  0
LINE
  5
AB
330
1F
100
AcDbEntity
  8
0
  6
Continuous
 62
     7
370
    25
100
AcDbLine
 10
2.4732757327
 20
2.309328885
 30
0.0
 11
2.4732757327
 21
2.509328885
 31
0.0
  0
LINE
  5
AC
330
1F
100
AcDbEntity
  8
0
  6
Continuous
 62
     7
370
    25
100
AcDbLine
 10
2.4732757327
 20
2.309328885
 30
0.0
 11
2.1193087122
 21
2.309328885
 31
0.0
  0
LINE
  5
AD
330
1F
100
AcDbEntity
  8
0
  6
Continuous
 62
     7
370
    25
100
AcDbLine
 10
2.1193087122
 20
2.309328885
 30
0.0
 11
2.1193087122
 21
2.509328885
 31
0.0
  0
LINE
  5
AE
330
1F
100
AcDbEntity
  8
0
  6
Continuous
 62
     7
370
    25
100
AcDbLine
 10
2.4732757327
 20
2.509328885
 30
0.0
 11
2.1193087122
 21
2.509328885
 31
0.0
  0
LINE
  5
AF
330
1F
100
AcDbEntity
  8
0
  6
Continuous
 62
     7
370
    25
100
AcDbLine
 10
2.710977949
 20
2.309328885
 30
0.0
 11
2.710977949
 21
2.509328885
 31
0.0
  0
LINE
  5
B0
330
1F
100
AcDbEntity
  8
0
  6
Continuous
 62
     7
370
    25
100
AcDbLine
 10
2.710977949
 20
2.309328885
 30
0.0
 11
2.4732757327
 21
2.309328885
 31
0.0
  0
LINE
  5
B1
330
1F
100
AcDbEntity
  8
0
  6
Continuous
 62
     7
370
    25
100
AcDbLine
 10
2.710977949
 20
2.509328885
 30
0.0
 11
2.4732757327
 21
2.509328885
 31
0.0
  0
LINE
  5
B2
330
1F
100
AcDbEntity
  8
0
  6
Continuous
 62
     7
370
    25
100
AcDbLine
 10
2.302364093
 20
1.789328885
 30
0.0
 11
2.0757609284
 21
1.789328885
 31
0.0
  0
LINE
  5
B3
330
1F
100
AcDbEntity
  8
0
  6
Continuous
 62
     7
370
    25
100
AcDbLine
 10
2.6382609284
 20
1.789328885
 30
0.0
 11
2.302364093
 21
1.789328885
 31
0.0
  0
LINE
  5
B4
330
1F
100
AcDbEntity
  8
0
  6
Continuous
 62
     7
370
    25
100
AcDbLine
 10
2.0030439078
 20
2.309328885
 30
0.0
 11
2.0030439078
 21
2.509328885
 31
0.0
  0
LINE
  5
B5
330
1F
100
AcDbEntity
  8
0
  6
Continuous
 62
     7
370
    25
100
AcDbLine
 10
2.1193087122
 20
2.309328885
 30
0.0
 11
2.0030439078
 21
2.309328885
 31
0.0
  0
LINE
  5
B6
330
1F
100
AcDbEntity
  8
0
  6
Continuous
 62
     7
370
    25
100
AcDbLine
 10
2.1193087122
 20
2.509328885
 30
0.0
 11
2.0030439078
 21
2.509328885
 31
0.0
  0
LINE
  5
B7
330
1F
100
AcDbEntity
  8
0
  6
Continuous
 62
     7
370
    25
100
AcDbLine
 10
1.7220109284
 20
3.179328885
 30
0.0
 11
2.0695109284
 21
3.179328885
 31
0.0
  0
LINE
  5
B8
330
1F
100
AcDbEntity
  8
0
  6
Continuous
 62
     7
370
    25
100
AcDbLine
 10
1.3745109284
 20
3.179328885
 30
0.0
 11
1.7220109284
 21
3.179328885
 31
0.0
  0
LINE
  5
B9
330
1F
100
AcDbEntity
  8
0
  6
Continuous
 62
     7
370
    25
100
AcDbLine
 10
2.3285059722
 20
3.9262496285
 30
0.0
 11
2.3285059722
 21
4.2062496285
 31
0.0
  0
LINE
  5
BA
330
1F
100
AcDbEntity
  8
0
  6
Continuous
 62
     7
370
    25
100
AcDbLine
 10
2.3505004968
 20
4.2062496285
 30
0.0
 11
2.3285059722
 21
4.2062496285
 31
0.0
  0
LINE
  5
BB
330
1F
100
AcDbEntity
  8
0
  6
Continuous
 62
     7
370
    25
100
AcDbLine
 10
2.3613052632
 20
4.2062496285
 30
0.0
 11
2.3613052632
 21
3.9262496285
 31
0.0
  0
LINE
  5
BC
330
1F
100
AcDbEntity
  8
0
  6
Continuous
 62
     7
370
    25
100
AcDbLine
 10
2.3285059722
 20
3.9262496285
 30
0.0
 11
2.3613052632
 21
3.9262496285
 31
0.0
  0
LINE
  5
BD
330
1F
100
AcDbEntity
  8
0
  6
Continuous
 62
     7
370
    25
100
AcDbLine
 10
2.3285059722
 20
3.9262496285
 30
0.0
 11
2.314264263
 21
3.9262496285
 31
0.0
  0
LINE
  5
BE
330
1F
100
AcDbEntity
  8
0
  6
Continuous
 62
     7
370
    25
100
AcDbLine
 10
2.314264263
 20
4.2062496285
 30
0.0
 11
2.314264263
 21
3.9262496285
 31
0.0
  0
LINE
  5
BF
330
1F
100
AcDbEntity
  8
0
  6
Continuous
 62
     7
370
    25
100
AcDbLine
 10
2.314264263
 20
4.2062496285
 30
0.0
 11
2.3285059722
 21
4.2062496285
 31
0.0
  0
LINE
  5
C0
330
1F
100
AcDbEntity
  8
0
  6
Continuous
 62
     7
370
    25
100
AcDbLine
 10
2.4085962618
 20
3.9262496285
 30
0.0
 11
2.4085962618
 21
4.2062496285
 31
0.0
  0
LINE
  5
C1
330
1F
100
AcDbEntity
  8
0
  6
Continuous
 62
     7
370
    25
100
AcDbLine
 10
2.394358386
 20
4.2062496285
 30
0.0
 11
2.394358386
 21
3.9262496285
 31
0.0
  0
LINE
  5
C2
330
1F
100
AcDbEntity
  8
0
  6
Continuous
 62
     7
370
    25
100
AcDbLine
 10
2.394358386
 20
4.2062496285
 30
0.0
 11
2.4085962618
 21
4.2062496285
 31
0.0
  0
LINE
  5
C3
330
1F
100
AcDbEntity
  8
0
  6
Continuous
 62
     7
370
    25
100
AcDbLine
 10
2.4085962618
 20
3.9262496285
 30
0.0
 11
2.394358386
 21
3.9262496285
 31
0.0
  0
LINE
  5
C4
330
1F
100
AcDbEntity
  8
0
  6
Continuous
 62
     7
370
    25
100
AcDbLine
 10
2.394358386
 20
4.2062496285
 30
0.0
 11
2.3721936471
 21
4.2062496285
 31
0.0
  0
LINE
  5
C5
330
1F
100
AcDbEntity
  8
0
  6
Continuous
 62
     7
370
    25
100
AcDbLine
 10
2.3613052632
 20
3.9262496285
 30
0.0
 11
2.394358386
 21
3.9262496285
 31
0.0
  0
LINE
  5
C6
330
1F
100
AcDbEntity
  8
0
  6
Continuous
 62
     7
370
    25
100
AcDbLine
 10
2.2835796188
 20
4.2062496285
 30
0.0
 11
2.2835796188
 21
3.9262496285
 31
0.0
  0
LINE
  5
C7
330
1F
100
AcDbEntity
  8
0
  6
Continuous
 62
     7
370
    25
100
AcDbLine
 10
2.2835796188
 20
3.9262496285
 30
0.0
 11
2.314264263
 21
3.9262496285
 31
0.0
  0
LINE
  5
C8
330
1F
100
AcDbEntity
  8
0
  6
Continuous
 62
     7
370
    25
100
AcDbLine
 10
2.314264263
 20
4.2062496285
 30
0.0
 11
2.2936877767
 21
4.2062496285
 31
0.0
  0
LINE
  5
C9
330
1F
100
AcDbEntity
  8
0
  6
Continuous
 62
     7
370
    25
100
AcDbLine
 10
2.439009986
 20
4.2062496285
 30
0.0
 11
2.439009986
 21
3.9262496285
 31
0.0
  0
LINE
  5
CA
330
1F
100
AcDbEntity
  8
0
  6
Continuous
 62
     7
370
    25
100
AcDbLine
 10
2.4289910747
 20
4.2062496285
 30
0.0
 11
2.4085962618
 21
4.2062496285
 31
0.0
  0
LINE
  5
CB
330
1F
100
AcDbEntity
  8
0
  6
Continuous
 62
     7
370
    25
100
AcDbLine
 10
2.4085962618
 20
3.9262496285
 30
0.0
 11
2.439009986
 21
3.9262496285
 31
0.0
  0
LINE
  5
CC
330
1F
100
AcDbEntity
  8
0
  6
Continuous
 62
     7
370
    25
100
AcDbLine
 10
2.248554556
 20
3.9262496285
 30
0.0
 11
2.248554556
 21
4.2062496285
 31
0.0
  0
LINE
  5
CD
330
1F
100
AcDbEntity
  8
0
  6
Continuous
 62
     7
370
    25
100
AcDbLine
 10
2.2343783974
 20
4.2062496285
 30
0.0
 11
2.2343783974
 21
3.9262496285
 31
0.0
  0
LINE
  5
CE
330
1F
100
AcDbEntity
  8
0
  6
Continuous
 62
     7
370
    25
100
AcDbLine
 10
2.2343783974
 20
4.2062496285
 30
0.0
 11
2.248554556
 21
4.2062496285
 31
0.0
  0
LINE
  5
CF
330
1F
100
AcDbEntity
  8
0
  6
Continuous
 62
     7
370
    25
100
AcDbLine
 10
2.248554556
 20
3.9262496285
 30
0.0
 11
2.2343783974
 21
3.9262496285
 31
0.0
  0
LINE
  5
D0
330
1F
100
AcDbEntity
  8
0
  6
Continuous
 62
     7
370
    25
100
AcDbLine
 10
2.272041637
 20
4.2062496285
 30
0.0
 11
2.248554556
 21
4.2062496285
 31
0.0
  0
LINE
  5
D1
330
1F
100
AcDbEntity
  8
0
  6
Continuous
 62
     7
370
    25
100
AcDbLine
 10
2.248554556
 20
3.9262496285
 30
0.0
 11
2.2835796188
 21
3.9262496285
 31
0.0
  0
LINE
  5
D2
330
1F
100
AcDbEntity
  8
0
  6
Continuous
 62
     7
370
    25
100
AcDbLine
 10
2.474270556
 20
4.2062496285
 30
0.0
 11
2.474270556
 21
3.9262496285
 31
0.0
  0
LINE
  5
D3
330
1F
100
AcDbEntity
  8
0
  6
Continuous
 62
     7
370
    25
100
AcDbLine
 10
2.474270556
 20
4.2062496285
 30
0.0
 11
2.4506255487
 21
4.2062496285
 31
0.0
  0
LINE
  5
D4
330
1F
100
AcDbEntity
  8
0
  6
Continuous
 62
     7
370
    25
100
AcDbLine
 10
2.439009986
 20
3.9262496285
 30
0.0
 11
2.474270556
 21
3.9262496285
 31
0.0
  0
LINE
  5
D5
330
1F
100
AcDbEntity
  8
0
  6
Continuous
 62
     7
370
    25
100
AcDbLine
 10
2.4884352328
 20
3.9262496285
 30
0.0
 11
2.4884352328
 21
4.2062496285
 31
0.0
  0
LINE
  5
D6
330
1F
100
AcDbEntity
  8
0
  6
Continuous
 62
     7
370
    25
100
AcDbLine
 10
2.474270556
 20
4.2062496285
 30
0.0
 11
2.4884352328
 21
4.2062496285
 31
0.0
  0
LINE
  5
D7
330
1F
100
AcDbEntity
  8
0
  6
Continuous
 62
     7
370
    25
100
AcDbLine
 10
2.4884352328
 20
3.9262496285
 30
0.0
 11
2.474270556
 21
3.9262496285
 31
0.0
  0
LINE
  5
D8
330
1F
100
AcDbEntity
  8
0
  6
Continuous
 62
     7
370
    25
100
AcDbLine
 10
2.2062117243
 20
4.2062496285
 30
0.0
 11
2.2062117243
 21
3.9262496285
 31
0.0
  0
LINE
  5
D9
330
1F
100
AcDbEntity
  8
0
  6
Continuous
 62
     7
370
    25
100
AcDbLine
 10
2.2343783974
 20
4.2062496285
 30
0.0
 11
2.2154904104
 21
4.2062496285
 31
0.0
  0
LINE
  5
DA
330
1F
100
AcDbEntity
  8
0
  6
Continuous
 62
     7
370
    25
100
AcDbLine
 10
2.2062117243
 20
3.9262496285
 30
0.0
 11
2.2343783974
 21
3.9262496285
 31
0.0
  0
LINE
  5
DB
330
1F
100
AcDbEntity
  8
0
  6
Continuous
 62
     7
370
    25
100
AcDbLine
 10
2.5163152176
 20
4.2062496285
 30
0.0
 11
2.5163152176
 21
3.9262496285
 31
0.0
  0
LINE
  5
DC
330
1F
100
AcDbEntity
  8
0
  6
Continuous
 62
     7
370
    25
100
AcDbLine
 10
2.5071309726
 20
4.2062496285
 30
0.0
 11
2.4884352328
 21
4.2062496285
 31
0.0
  0
LINE
  5
DD
330
1F
100
AcDbEntity
  8
0
  6
Continuous
 62
     7
370
    25
100
AcDbLine
 10
2.4884352328
 20
3.9262496285
 30
0.0
 11
2.5163152176
 21
3.9262496285
 31
0.0
  0
LINE
  5
DE
330
1F
100
AcDbEntity
  8
0
  6
Continuous
 62
     7
370
    25
100
AcDbLine
 10
2.1691315283
 20
3.9262496285
 30
0.0
 11
2.1691315283
 21
4.2062496285
 31
0.0
  0
LINE
  5
DF
330
1F
100
AcDbEntity
  8
0
  6
Continuous
 62
     7
370
    25
100
AcDbLine
 10
2.1550899852
 20
4.2062496285
 30
0.0
 11
2.1550899852
 21
3.9262496285
 31
0.0
  0
LINE
  5
E0
330
1F
100
AcDbEntity
  8
0
  6
Continuous
 62
     7
370
    25
100
AcDbLine
 10
2.1550899852
 20
4.2062496285
 30
0.0
 11
2.1691315283
 21
4.2062496285
 31
0.0
  0
LINE
  5
E1
330
1F
100
AcDbEntity
  8
0
  6
Continuous
 62
     7
370
    25
100
AcDbLine
 10
2.1691315283
 20
3.9262496285
 30
0.0
 11
2.1550899852
 21
3.9262496285
 31
0.0
  0
LINE
  5
E2
330
1F
100
AcDbEntity
  8
0
  6
Continuous
 62
     7
370
    25
100
AcDbLine
 10
2.193996739
 20
4.2062496285
 30
0.0
 11
2.1691315283
 21
4.2062496285
 31
0.0
  0
LINE
  5
E3
330
1F
100
AcDbEntity
  8
0
  6
Continuous
 62
     7
370
    25
100
AcDbLine
 10
2.1691315283
 20
3.9262496285
 30
0.0
 11
2.2062117243
 21
3.9262496285
 31
0.0
  0
LINE
  5
E4
330
1F
100
AcDbEntity
  8
0
  6
Continuous
 62
     7
370
    25
100
AcDbLine
 10
2.5676339178
 20
3.9262496285
 30
0.0
 11
2.5676339178
 21
4.2062496285
 31
0.0
  0
LINE
  5
E5
330
1F
100
AcDbEntity
  8
0
  6
Continuous
 62
     7
370
    25
100
AcDbLine
 10
2.5536114488
 20
4.2062496285
 30
0.0
 11
2.5536114488
 21
3.9262496285
 31
0.0
  0
LINE
  5
E6
330
1F
100
AcDbEntity
  8
0
  6
Continuous
 62
     7
370
    25
100
AcDbLine
 10
2.5536114488
 20
4.2062496285
 30
0.0
 11
2.5676339178
 21
4.2062496285
 31
0.0
  0
LINE
  5
E7
330
1F
100
AcDbEntity
  8
0
  6
Continuous
 62
     7
370
    25
100
AcDbLine
 10
2.5676339178
 20
3.9262496285
 30
0.0
 11
2.5536114488
 21
3.9262496285
 31
0.0
  0
LINE
  5
E8
330
1F
100
AcDbEntity
  8
0
  6
Continuous
 62
     7
370
    25
100
AcDbLine
 10
2.5536114488
 20
4.2062496285
 30
0.0
 11
2.5286013694
 21
4.2062496285
 31
0.0
  0
LINE
  5
E9
330
1F
100
AcDbEntity
  8
0
  6
Continuous
 62
     7
370
    25
100
AcDbLine
 10
2.5163152176
 20
3.9262496285
 30
0.0
 11
2.5536114488
 21
3.9262496285
 31
0.0
  0
LINE
  5
EA
330
1F
100
AcDbEntity
  8
0
  6
Continuous
 62
     7
370
    25
100
AcDbLine
 10
2.1295785085
 20
4.2062496285
 30
0.0
 11
2.1295785085
 21
3.9262496285
 31
0.0
  0
LINE
  5
EB
330
1F
100
AcDbEntity
  8
0
  6
Continuous
 62
     7
370
    25
100
AcDbLine
 10
2.1550899852
 20
4.2062496285
 30
0.0
 11
2.1379825178
 21
4.2062496285
 31
0.0
  0
LINE
  5
EC
330
1F
100
AcDbEntity
  8
0
  6
Continuous
 62
     7
370
    25
100
AcDbLine
 10
2.1295785085
 20
3.9262496285
 30
0.0
 11
2.1550899852
 21
3.9262496285
 31
0.0
  0
LINE
  5
ED
330
1F
100
AcDbEntity
  8
0
  6
Continuous
 62
     7
370
    25
100
AcDbLine
 10
2.5928443348
 20
4.2062496285
 30
0.0
 11
2.5928443348
 21
3.9262496285
 31
0.0
  0
LINE
  5
EE
330
1F
100
AcDbEntity
  8
0
  6
Continuous
 62
     7
370
    25
100
AcDbLine
 10
2.5845395008
 20
4.2062496285
 30
0.0
 11
2.5676339178
 21
4.2062496285
 31
0.0
  0
LINE
  5
EF
330
1F
100
AcDbEntity
  8
0
  6
Continuous
 62
     7
370
    25
100
AcDbLine
 10
2.5676339178
 20
3.9262496285
 30
0.0
 11
2.5928443348
 21
3.9262496285
 31
0.0
  0
LINE
  5
F0
330
1F
100
AcDbEntity
  8
0
  6
Continuous
 62
     7
370
    25
100
AcDbLine
 10
1.2720109284
 20
4.3062496285
 30
0.0
 11
3.4420109284
 21
4.3062496285
 31
0.0
  0
LINE
  5
F1
330
1F
100
AcDbEntity
  8
0
  6
Continuous
 62
     7
370
    25
100
AcDbLine
 10
3.3362159422
 20
4.2062496285
 30
0.0
 11
3.3387921377
 21
4.2062496285
 31
0.0
  0
LINE
  5
F2
330
1F
100
AcDbEntity
  8
0
  6
Continuous
 62
     7
370
    25
100
AcDbLine
 10
3.2920982121
 20
4.2062496285
 30
0.0
 11
3.2980833264
 21
4.2062496285
 31
0.0
  0
LINE
  5
F3
330
1F
100
AcDbEntity
  8
0
  6
Continuous
 62
     7
370
    25
100
AcDbLine
 10
3.2434248307
 20
4.2062496285
 30
0.0
 11
3.2527897049
 21
4.2062496285
 31
0.0
  0
LINE
  5
F4
330
1F
100
AcDbEntity
  8
0
  6
Continuous
 62
     7
370
    25
100
AcDbLine
 10
3.19043293
 20
4.2062496285
 30
0.0
 11
3.2031319393
 21
4.2062496285
 31
0.0
  0
LINE
  5
F5
330
1F
100
AcDbEntity
  8
0
  6
Continuous
 62
     7
370
    25
100
AcDbLine
 10
3.1338052964
 20
4.2062496285
 30
0.0
 11
3.1493519572
 21
4.2062496285
 31
0.0
  0
LINE
  5
F6
330
1F
100
AcDbEntity
  8
0
  6
Continuous
 62
     7
370
    25
100
AcDbLine
 10
3.0751476003
 20
4.2062496285
 30
0.0
 11
3.0917117693
 21
4.2062496285
 31
0.0
  0
LINE
  5
F7
330
1F
100
AcDbEntity
  8
0
  6
Continuous
 62
     7
370
    25
100
AcDbLine
 10
3.0129912145
 20
4.2062496285
 30
0.0
 11
3.0304921927
 21
4.2062496285
 31
0.0
  0
LINE
  5
F8
330
1F
100
AcDbEntity
  8
0
  6
Continuous
 62
     7
370
    25
100
AcDbLine
 10
2.9476389588
 20
4.2062496285
 30
0.0
 11
2.965991483
 21
4.2062496285
 31
0.0
  0
LINE
  5
F9
330
1F
100
AcDbEntity
  8
0
  6
Continuous
 62
     7
370
    25
100
AcDbLine
 10
2.8794092226
 20
4.2062496285
 30
0.0
 11
2.8985238814
 21
4.2062496285
 31
0.0
  0
LINE
  5
FA
330
1F
100
AcDbEntity
  8
0
  6
Continuous
 62
     7
370
    25
100
AcDbLine
 10
2.8086344144
 20
4.2062496285
 30
0.0
 11
2.828418083
 21
4.2062496285
 31
0.0
  0
LINE
  5
FB
330
1F
100
AcDbEntity
  8
0
  6
Continuous
 62
     7
370
    25
100
AcDbLine
 10
2.735659342
 20
4.2062496285
 30
0.0
 11
2.7560156364
 21
4.2062496285
 31
0.0
  0
LINE
  5
FC
330
1F
100
AcDbEntity
  8
0
  6
Continuous
 62
     7
370
    25
100
AcDbLine
 10
2.6608395326
 20
4.2062496285
 30
0.0
 11
2.6816692789
 21
4.2062496285
 31
0.0
  0
LINE
  5
FD
330
1F
100
AcDbEntity
  8
0
  6
Continuous
 62
     7
370
    25
100
AcDbLine
 10
2.5845395008
 20
4.2062496285
 30
0.0
 11
2.6057412187
 21
4.2062496285
 31
0.0
  0
LINE
  5
FE
330
1F
100
AcDbEntity
  8
0
  6
Continuous
 62
     7
370
    25
100
AcDbLine
 10
2.5071309726
 20
4.2062496285
 30
0.0
 11
2.5286013694
 21
4.2062496285
 31
0.0
  0
LINE
  5
FF
330
1F
100
AcDbEntity
  8
0
  6
Continuous
 62
     7
370
    25
100
AcDbLine
 10
2.4289910747
 20
4.2062496285
 30
0.0
 11
2.4506255487
 21
4.2062496285
 31
0.0
  0
LINE
  5
100
330
1F
100
AcDbEntity
  8
0
  6
Continuous
 62
     7
370
    25
100
AcDbLine
 10
2.272041637
 20
4.2062496285
 30
0.0
 11
2.2936877767
 21
4.2062496285
 31
0.0
  0
LINE
  5
101
330
1F
100
AcDbEntity
  8
0
  6
Continuous
 62
     7
370
    25
100
AcDbLine
 10
2.193996739
 20
4.2062496285
 30
0.0
 11
2.2154904104
 21
4.2062496285
 31
0.0
  0
LINE
  5
102
330
1F
100
AcDbEntity
  8
0
  6
Continuous
 62
     7
370
    25
100
AcDbLine
 10
2.1167460298
 20
4.2062496285
 30
0.0
 11
2.1379825178
 21
4.2062496285
 31
0.0
  0
LINE
  5
103
330
1F
100
AcDbEntity
  8
0
  6
Continuous
 62
     7
370
    25
100
AcDbLine
 10
2.0406658671
 20
4.2062496285
 30
0.0
 11
2.0615417096
 21
4.2062496285
 31
0.0
  0
LINE
  5
104
330
1F
100
AcDbEntity
  8
0
  6
Continuous
 62
     7
370
    25
100
AcDbLine
 10
1.9661269057
 20
4.2062496285
 30
0.0
 11
1.9865403978
 21
4.2062496285
 31
0.0
  0
LINE
  5
105
330
1F
100
AcDbEntity
  8
0
  6
Continuous
 62
     7
370
    25
100
AcDbLine
 10
1.8934922919
 20
4.2062496285
 30
0.0
 11
1.9133439811
 21
4.2062496285
 31
0.0
  0
LINE
  5
106
330
1F
100
AcDbEntity
  8
0
  6
Continuous
 62
     7
370
    25
100
AcDbLine
 10
1.8231158943
 20
4.2062496285
 30
0.0
 11
1.8423090652
 21
4.2062496285
 31
0.0
  0
LINE
  5
107
330
1F
100
AcDbEntity
  8
0
  6
Continuous
 62
     7
370
    25
100
AcDbLine
 10
1.7553405797
 20
4.2062496285
 30
0.0
 11
1.7737817251
 21
4.2062496285
 31
0.0
  0
LINE
  5
108
330
1F
100
AcDbEntity
  8
0
  6
Continuous
 62
     7
370
    25
100
AcDbLine
 10
1.6904965426
 20
4.2062496285
 30
0.0
 11
1.708095819
 21
4.2062496285
 31
0.0
  0
LINE
  5
109
330
1F
100
AcDbEntity
  8
0
  6
Continuous
 62
     7
370
    25
100
AcDbLine
 10
1.6288996965
 20
4.2062496285
 30
0.0
 11
1.645571362
 21
4.2062496285
 31
0.0
  0
LINE
  5
10A
330
1F
100
AcDbEntity
  8
0
  6
Continuous
 62
     7
370
    25
100
AcDbLine
 10
1.5708501352
 20
4.2062496285
 30
0.0
 11
1.5865129672
 21
4.2062496285
 31
0.0
  0
LINE
  5
10B
330
1F
100
AcDbEntity
  8
0
  6
Continuous
 62
     7
370
    25
100
AcDbLine
 10
1.5166306702
 20
4.2062496285
 30
0.0
 11
1.5296943491
 21
4.2062496285
 31
0.0
  0
LINE
  5
10C
330
1F
100
AcDbEntity
  8
0
  6
Continuous
 62
     7
370
    25
100
AcDbLine
 10
1.4665054534
 20
4.2062496285
 30
0.0
 11
1.4762410358
 21
4.2062496285
 31
0.0
  0
LINE
  5
10D
330
1F
100
AcDbEntity
  8
0
  6
Continuous
 62
     7
370
    25
100
AcDbLine
 10
1.4207186897
 20
4.2062496285
 30
0.0
 11
1.427078745
 21
4.2062496285
 31
0.0
  0
LINE
  5
10E
330
1F
100
AcDbEntity
  8
0
  6
Continuous
 62
     7
370
    25
100
AcDbLine
 10
1.3794934477
 20
4.2062496285
 30
0.0
 11
1.3824469902
 21
4.2062496285
 31
0.0
  0
LINE
  5
10F
330
1F
100
AcDbEntity
  8
0
  6
Continuous
 62
     7
370
    25
100
AcDbLine
 10
2.3505004968
 20
4.2062496285
 30
0.0
 11
2.3721936471
 21
4.2062496285
 31
0.0
  0
LINE
  5
110
330
1F
100
AcDbEntity
  8
0
  6
Continuous
 62
     7
370
    25
100
AcDbLine
 10
2.0906238301
 20
3.9262496285
 30
0.0
 11
2.0906238301
 21
4.2062496285
 31
0.0
  0
LINE
  5
111
330
1F
100
AcDbEntity
  8
0
  6
Continuous
 62
     7
370
    25
100
AcDbLine
 10
2.1167460298
 20
4.2062496285
 30
0.0
 11
2.0906238301
 21
4.2062496285
 31
0.0
  0
LINE
  5
112
330
1F
100
AcDbEntity
  8
0
  6
Continuous
 62
     7
370
    25
100
AcDbLine
 10
2.0906238301
 20
3.9262496285
 30
0.0
 11
2.1295785085
 21
3.9262496285
 31
0.0
  0
LINE
  5
113
330
1F
100
AcDbEntity
  8
0
  6
Continuous
 62
     7
370
    25
100
AcDbLine
 10
2.0767853116
 20
4.2062496285
 30
0.0
 11
2.0767853116
 21
3.9262496285
 31
0.0
  0
LINE
  5
114
330
1F
100
AcDbEntity
  8
0
  6
Continuous
 62
     7
370
    25
100
AcDbLine
 10
2.0767853116
 20
4.2062496285
 30
0.0
 11
2.0906238301
 21
4.2062496285
 31
0.0
  0
LINE
  5
115
330
1F
100
AcDbEntity
  8
0
  6
Continuous
 62
     7
370
    25
100
AcDbLine
 10
2.0906238301
 20
3.9262496285
 30
0.0
 11
2.0767853116
 21
3.9262496285
 31
0.0
  0
LINE
  5
116
330
1F
100
AcDbEntity
  8
0
  6
Continuous
 62
     7
370
    25
100
AcDbLine
 10
2.6319945237
 20
4.2062496285
 30
0.0
 11
2.6319945237
 21
3.9262496285
 31
0.0
  0
LINE
  5
117
330
1F
100
AcDbEntity
  8
0
  6
Continuous
 62
     7
370
    25
100
AcDbLine
 10
2.6319945237
 20
4.2062496285
 30
0.0
 11
2.6057412187
 21
4.2062496285
 31
0.0
  0
LINE
  5
118
330
1F
100
AcDbEntity
  8
0
  6
Continuous
 62
     7
370
    25
100
AcDbLine
 10
2.5928443348
 20
3.9262496285
 30
0.0
 11
2.6319945237
 21
3.9262496285
 31
0.0
  0
LINE
  5
119
330
1F
100
AcDbEntity
  8
0
  6
Continuous
 62
     7
370
    25
100
AcDbLine
 10
2.6458064687
 20
3.9262496285
 30
0.0
 11
2.6458064687
 21
4.2062496285
 31
0.0
  0
LINE
  5
11A
330
1F
100
AcDbEntity
  8
0
  6
Continuous
 62
     7
370
    25
100
AcDbLine
 10
2.6319945237
 20
4.2062496285
 30
0.0
 11
2.6458064687
 21
4.2062496285
 31
0.0
  0
LINE
  5
11B
330
1F
100
AcDbEntity
  8
0
  6
Continuous
 62
     7
370
    25
100
AcDbLine
 10
2.6458064687
 20
3.9262496285
 30
0.0
 11
2.6319945237
 21
3.9262496285
 31
0.0
  0
LINE
  5
11C
330
1F
100
AcDbEntity
  8
0
  6
Continuous
 62
     7
370
    25
100
AcDbLine
 10
2.0540533205
 20
4.2062496285
 30
0.0
 11
2.0540533205
 21
3.9262496285
 31
0.0
  0
LINE
  5
11D
330
1F
100
AcDbEntity
  8
0
  6
Continuous
 62
     7
370
    25
100
AcDbLine
 10
2.0767853116
 20
4.2062496285
 30
0.0
 11
2.0615417096
 21
4.2062496285
 31
0.0
  0
LINE
  5
11E
330
1F
100
AcDbEntity
  8
0
  6
Continuous
 62
     7
370
    25
100
AcDbLine
 10
2.0540533205
 20
3.9262496285
 30
0.0
 11
2.0767853116
 21
3.9262496285
 31
0.0
  0
LINE
  5
11F
330
1F
100
AcDbEntity
  8
0
  6
Continuous
 62
     7
370
    25
100
AcDbLine
 10
2.6682244953
 20
4.2062496285
 30
0.0
 11
2.6682244953
 21
3.9262496285
 31
0.0
  0
LINE
  5
120
330
1F
100
AcDbEntity
  8
0
  6
Continuous
 62
     7
370
    25
100
AcDbLine
 10
2.6608395326
 20
4.2062496285
 30
0.0
 11
2.6458064687
 21
4.2062496285
 31
0.0
  0
LINE
  5
121
330
1F
100
AcDbEntity
  8
0
  6
Continuous
 62
     7
370
    25
100
AcDbLine
 10
2.6458064687
 20
3.9262496285
 30
0.0
 11
2.6682244953
 21
3.9262496285
 31
0.0
  0
LINE
  5
122
330
1F
100
AcDbEntity
  8
0
  6
Continuous
 62
     7
370
    25
100
AcDbLine
 10
2.0134139431
 20
3.9262496285
 30
0.0
 11
2.0134139431
 21
4.2062496285
 31
0.0
  0
LINE
  5
123
330
1F
100
AcDbEntity
  8
0
  6
Continuous
 62
     7
370
    25
100
AcDbLine
 10
2.0406658671
 20
4.2062496285
 30
0.0
 11
2.0134139431
 21
4.2062496285
 31
0.0
  0
LINE
  5
124
330
1F
100
AcDbEntity
  8
0
  6
Continuous
 62
     7
370
    25
100
AcDbLine
 10
2.0134139431
 20
3.9262496285
 30
0.0
 11
2.0540533205
 21
3.9262496285
 31
0.0
  0
LINE
  5
125
330
1F
100
AcDbEntity
  8
0
  6
Continuous
 62
     7
370
    25
100
AcDbLine
 10
1.999845869
 20
4.2062496285
 30
0.0
 11
1.999845869
 21
3.9262496285
 31
0.0
  0
LINE
  5
126
330
1F
100
AcDbEntity
  8
0
  6
Continuous
 62
     7
370
    25
100
AcDbLine
 10
1.999845869
 20
4.2062496285
 30
0.0
 11
2.0134139431
 21
4.2062496285
 31
0.0
  0
LINE
  5
127
330
1F
100
AcDbEntity
  8
0
  6
Continuous
 62
     7
370
    25
100
AcDbLine
 10
2.0134139431
 20
3.9262496285
 30
0.0
 11
1.999845869
 21
3.9262496285
 31
0.0
  0
LINE
  5
128
330
1F
100
AcDbEntity
  8
0
  6
Continuous
 62
     7
370
    25
100
AcDbLine
 10
2.7225720368
 20
3.9262496285
 30
0.0
 11
2.7225720368
 21
4.2062496285
 31
0.0
  0
LINE
  5
129
330
1F
100
AcDbEntity
  8
0
  6
Continuous
 62
     7
370
    25
100
AcDbLine
 10
2.7090379061
 20
4.2062496285
 30
0.0
 11
2.7090379061
 21
3.9262496285
 31
0.0
  0
LINE
  5
12A
330
1F
100
AcDbEntity
  8
0
  6
Continuous
 62
     7
370
    25
100
AcDbLine
 10
2.7090379061
 20
4.2062496285
 30
0.0
 11
2.7225720368
 21
4.2062496285
 31
0.0
  0
LINE
  5
12B
330
1F
100
AcDbEntity
  8
0
  6
Continuous
 62
     7
370
    25
100
AcDbLine
 10
2.7225720368
 20
3.9262496285
 30
0.0
 11
2.7090379061
 21
3.9262496285
 31
0.0
  0
LINE
  5
12C
330
1F
100
AcDbEntity
  8
0
  6
Continuous
 62
     7
370
    25
100
AcDbLine
 10
2.7090379061
 20
4.2062496285
 30
0.0
 11
2.6816692789
 21
4.2062496285
 31
0.0
  0
LINE
  5
12D
330
1F
100
AcDbEntity
  8
0
  6
Continuous
 62
     7
370
    25
100
AcDbLine
 10
2.6682244953
 20
3.9262496285
 30
0.0
 11
2.7090379061
 21
3.9262496285
 31
0.0
  0
LINE
  5
12E
330
1F
100
AcDbEntity
  8
0
  6
Continuous
 62
     7
370
    25
100
AcDbLine
 10
1.9800041115
 20
4.2062496285
 30
0.0
 11
1.9800041115
 21
3.9262496285
 31
0.0
  0
LINE
  5
12F
330
1F
100
AcDbEntity
  8
0
  6
Continuous
 62
     7
370
    25
100
AcDbLine
 10
1.999845869
 20
4.2062496285
 30
0.0
 11
1.9865403978
 21
4.2062496285
 31
0.0
  0
LINE
  5
130
330
1F
100
AcDbEntity
  8
0
  6
Continuous
 62
     7
370
    25
100
AcDbLine
 10
1.9800041115
 20
3.9262496285
 30
0.0
 11
1.999845869
 21
3.9262496285
 31
0.0
  0
LINE
  5
131
330
1F
100
AcDbEntity
  8
0
  6
Continuous
 62
     7
370
    25
100
AcDbLine
 10
2.7420884546
 20
4.2062496285
 30
0.0
 11
2.7420884546
 21
3.9262496285
 31
0.0
  0
LINE
  5
132
330
1F
100
AcDbEntity
  8
0
  6
Continuous
 62
     7
370
    25
100
AcDbLine
 10
2.735659342
 20
4.2062496285
 30
0.0
 11
2.7225720368
 21
4.2062496285
 31
0.0
  0
LINE
  5
133
330
1F
100
AcDbEntity
  8
0
  6
Continuous
 62
     7
370
    25
100
AcDbLine
 10
2.7225720368
 20
3.9262496285
 30
0.0
 11
2.7420884546
 21
3.9262496285
 31
0.0
  0
LINE
  5
134
330
1F
100
AcDbEntity
  8
0
  6
Continuous
 62
     7
370
    25
100
AcDbLine
 10
1.9378780261
 20
3.9262496285
 30
0.0
 11
1.9378780261
 21
4.2062496285
 31
0.0
  0
LINE
  5
135
330
1F
100
AcDbEntity
  8
0
  6
Continuous
 62
     7
370
    25
100
AcDbLine
 10
1.9661269057
 20
4.2062496285
 30
0.0
 11
1.9378780261
 21
4.2062496285
 31
0.0
  0
LINE
  5
136
330
1F
100
AcDbEntity
  8
0
  6
Continuous
 62
     7
370
    25
100
AcDbLine
 10
1.9378780261
 20
3.9262496285
 30
0.0
 11
1.9800041115
 21
3.9262496285
 31
0.0
  0
LINE
  5
137
330
1F
100
AcDbEntity
  8
0
  6
Continuous
 62
     7
370
    25
100
AcDbLine
 10
1.9246464986
 20
4.2062496285
 30
0.0
 11
1.9246464986
 21
3.9262496285
 31
0.0
  0
LINE
  5
138
330
1F
100
AcDbEntity
  8
0
  6
Continuous
 62
     7
370
    25
100
AcDbLine
 10
1.9246464986
 20
4.2062496285
 30
0.0
 11
1.9378780261
 21
4.2062496285
 31
0.0
  0
LINE
  5
139
330
1F
100
AcDbEntity
  8
0
  6
Continuous
 62
     7
370
    25
100
AcDbLine
 10
1.9378780261
 20
3.9262496285
 30
0.0
 11
1.9246464986
 21
3.9262496285
 31
0.0
  0
LINE
  5
13A
330
1F
100
AcDbEntity
  8
0
  6
Continuous
 62
     7
370
    25
100
AcDbLine
 10
2.7843662485
 20
4.2062496285
 30
0.0
 11
2.7843662485
 21
3.9262496285
 31
0.0
  0
LINE
  5
13B
330
1F
100
AcDbEntity
  8
0
  6
Continuous
 62
     7
370
    25
100
AcDbLine
 10
2.7843662485
 20
4.2062496285
 30
0.0
 11
2.7560156364
 21
4.2062496285
 31
0.0
  0
LINE
  5
13C
330
1F
100
AcDbEntity
  8
0
  6
Continuous
 62
     7
370
    25
100
AcDbLine
 10
2.7420884546
 20
3.9262496285
 30
0.0
 11
2.7843662485
 21
3.9262496285
 31
0.0
  0
LINE
  5
13D
330
1F
100
AcDbEntity
  8
0
  6
Continuous
 62
     7
370
    25
100
AcDbLine
 10
2.7975566279
 20
3.9262496285
 30
0.0
 11
2.7975566279
 21
4.2062496285
 31
0.0
  0
LINE
  5
13E
330
1F
100
AcDbEntity
  8
0
  6
Continuous
 62
     7
370
    25
100
AcDbLine
 10
2.7843662485
 20
4.2062496285
 30
0.0
 11
2.7975566279
 21
4.2062496285
 31
0.0
  0
LINE
  5
13F
330
1F
100
AcDbEntity
  8
0
  6
Continuous
 62
     7
370
    25
100
AcDbLine
 10
2.7975566279
 20
3.9262496285
 30
0.0
 11
2.7843662485
 21
3.9262496285
 31
0.0
  0
LINE
  5
140
330
1F
100
AcDbEntity
  8
0
  6
Continuous
 62
     7
370
    25
100
AcDbLine
 10
1.9077916419
 20
4.2062496285
 30
0.0
 11
1.9077916419
 21
3.9262496285
 31
0.0
  0
LINE
  5
141
330
1F
100
AcDbEntity
  8
0
  6
Continuous
 62
     7
370
    25
100
AcDbLine
 10
1.9246464986
 20
4.2062496285
 30
0.0
 11
1.9133439811
 21
4.2062496285
 31
0.0
  0
LINE
  5
142
330
1F
100
AcDbEntity
  8
0
  6
Continuous
 62
     7
370
    25
100
AcDbLine
 10
1.9077916419
 20
3.9262496285
 30
0.0
 11
1.9246464986
 21
3.9262496285
 31
0.0
  0
LINE
  5
143
330
1F
100
AcDbEntity
  8
0
  6
Continuous
 62
     7
370
    25
100
AcDbLine
 10
2.814076355
 20
4.2062496285
 30
0.0
 11
2.814076355
 21
3.9262496285
 31
0.0
  0
LINE
  5
144
330
1F
100
AcDbEntity
  8
0
  6
Continuous
 62
     7
370
    25
100
AcDbLine
 10
2.8086344144
 20
4.2062496285
 30
0.0
 11
2.7975566279
 21
4.2062496285
 31
0.0
  0
LINE
  5
145
330
1F
100
AcDbEntity
  8
0
  6
Continuous
 62
     7
370
    25
100
AcDbLine
 10
2.7975566279
 20
3.9262496285
 30
0.0
 11
2.814076355
 21
3.9262496285
 31
0.0
  0
LINE
  5
146
330
1F
100
AcDbEntity
  8
0
  6
Continuous
 62
     7
370
    25
100
AcDbLine
 10
1.8643840824
 20
3.9262496285
 30
0.0
 11
1.8643840824
 21
4.2062496285
 31
0.0
  0
LINE
  5
147
330
1F
100
AcDbEntity
  8
0
  6
Continuous
 62
     7
370
    25
100
AcDbLine
 10
1.8934922919
 20
4.2062496285
 30
0.0
 11
1.8643840824
 21
4.2062496285
 31
0.0
  0
LINE
  5
148
330
1F
100
AcDbEntity
  8
0
  6
Continuous
 62
     7
370
    25
100
AcDbLine
 10
1.8643840824
 20
3.9262496285
 30
0.0
 11
1.9077916419
 21
3.9262496285
 31
0.0
  0
LINE
  5
149
330
1F
100
AcDbEntity
  8
0
  6
Continuous
 62
     7
370
    25
100
AcDbLine
 10
1.8515535643
 20
4.2062496285
 30
0.0
 11
1.8515535643
 21
3.9262496285
 31
0.0
  0
LINE
  5
14A
330
1F
100
AcDbEntity
  8
0
  6
Continuous
 62
     7
370
    25
100
AcDbLine
 10
1.8515535643
 20
4.2062496285
 30
0.0
 11
1.8643840824
 21
4.2062496285
 31
0.0
  0
LINE
  5
14B
330
1F
100
AcDbEntity
  8
0
  6
Continuous
 62
     7
370
    25
100
AcDbLine
 10
1.8643840824
 20
3.9262496285
 30
0.0
 11
1.8515535643
 21
3.9262496285
 31
0.0
  0
LINE
  5
14C
330
1F
100
AcDbEntity
  8
0
  6
Continuous
 62
     7
370
    25
100
AcDbLine
 10
2.8576125587
 20
4.2062496285
 30
0.0
 11
2.8576125587
 21
3.9262496285
 31
0.0
  0
LINE
  5
14D
330
1F
100
AcDbEntity
  8
0
  6
Continuous
 62
     7
370
    25
100
AcDbLine
 10
2.8576125587
 20
4.2062496285
 30
0.0
 11
2.828418083
 21
4.2062496285
 31
0.0
  0
LINE
  5
14E
330
1F
100
AcDbEntity
  8
0
  6
Continuous
 62
     7
370
    25
100
AcDbLine
 10
2.814076355
 20
3.9262496285
 30
0.0
 11
2.8576125587
 21
3.9262496285
 31
0.0
  0
LINE
  5
14F
330
1F
100
AcDbEntity
  8
0
  6
Continuous
 62
     7
370
    25
100
AcDbLine
 10
2.8703949247
 20
3.9262496285
 30
0.0
 11
2.8703949247
 21
4.2062496285
 31
0.0
  0
LINE
  5
150
330
1F
100
AcDbEntity
  8
0
  6
Continuous
 62
     7
370
    25
100
AcDbLine
 10
2.8576125587
 20
4.2062496285
 30
0.0
 11
2.8703949247
 21
4.2062496285
 31
0.0
  0
LINE
  5
151
330
1F
100
AcDbEntity
  8
0
  6
Continuous
 62
     7
370
    25
100
AcDbLine
 10
2.8703949247
 20
3.9262496285
 30
0.0
 11
2.8576125587
 21
3.9262496285
 31
0.0
  0
LINE
  5
152
330
1F
100
AcDbEntity
  8
0
  6
Continuous
 62
     7
370
    25
100
AcDbLine
 10
1.8377677234
 20
4.2062496285
 30
0.0
 11
1.8377677234
 21
3.9262496285
 31
0.0
  0
LINE
  5
153
330
1F
100
AcDbEntity
  8
0
  6
Continuous
 62
     7
370
    25
100
AcDbLine
 10
1.8515535643
 20
4.2062496285
 30
0.0
 11
1.8423090652
 21
4.2062496285
 31
0.0
  0
LINE
  5
154
330
1F
100
AcDbEntity
  8
0
  6
Continuous
 62
     7
370
    25
100
AcDbLine
 10
1.8377677234
 20
3.9262496285
 30
0.0
 11
1.8515535643
 21
3.9262496285
 31
0.0
  0
LINE
  5
155
330
1F
100
AcDbEntity
  8
0
  6
Continuous
 62
     7
370
    25
100
AcDbLine
 10
2.8838374784
 20
4.2062496285
 30
0.0
 11
2.8838374784
 21
3.9262496285
 31
0.0
  0
LINE
  5
156
330
1F
100
AcDbEntity
  8
0
  6
Continuous
 62
     7
370
    25
100
AcDbLine
 10
2.8794092226
 20
4.2062496285
 30
0.0
 11
2.8703949247
 21
4.2062496285
 31
0.0
  0
LINE
  5
157
330
1F
100
AcDbEntity
  8
0
  6
Continuous
 62
     7
370
    25
100
AcDbLine
 10
2.8703949247
 20
3.9262496285
 30
0.0
 11
2.8838374784
 21
3.9262496285
 31
0.0
  0
LINE
  5
158
330
1F
100
AcDbEntity
  8
0
  6
Continuous
 62
     7
370
    25
100
AcDbLine
 10
3.1650650145
 20
4.3442496285
 30
0.0
 11
3.3500716182
 21
4.3442496285
 31
0.0
  0
LINE
  5
159
330
1F
100
AcDbEntity
  8
0
  6
Continuous
 62
     7
370
    25
100
AcDbLine
 10
1.3639502386
 20
4.3442496285
 30
0.0
 11
3.1650650145
 21
4.3442496285
 31
0.0
  0
LINE
  5
15A
330
1F
100
AcDbEntity
  8
0
  6
Continuous
 62
     7
370
    25
100
AcDbLine
 10
1.7932901672
 20
3.9262496285
 30
0.0
 11
1.7932901672
 21
4.2062496285
 31
0.0
  0
LINE
  5
15B
330
1F
100
AcDbEntity
  8
0
  6
Continuous
 62
     7
370
    25
100
AcDbLine
 10
1.7809231675
 20
4.2062496285
 30
0.0
 11
1.7809231675
 21
3.9262496285
 31
0.0
  0
LINE
  5
15C
330
1F
100
AcDbEntity
  8
0
  6
Continuous
 62
     7
370
    25
100
AcDbLine
 10
1.7809231675
 20
4.2062496285
 30
0.0
 11
1.7932901672
 21
4.2062496285
 31
0.0
  0
LINE
  5
15D
330
1F
100
AcDbEntity
  8
0
  6
Continuous
 62
     7
370
    25
100
AcDbLine
 10
1.7932901672
 20
3.9262496285
 30
0.0
 11
1.7809231675
 21
3.9262496285
 31
0.0
  0
LINE
  5
15E
330
1F
100
AcDbEntity
  8
0
  6
Continuous
 62
     7
370
    25
100
AcDbLine
 10
1.8231158943
 20
4.2062496285
 30
0.0
 11
1.7932901672
 21
4.2062496285
 31
0.0
  0
LINE
  5
15F
330
1F
100
AcDbEntity
  8
0
  6
Continuous
 62
     7
370
    25
100
AcDbLine
 10
1.7932901672
 20
3.9262496285
 30
0.0
 11
1.8377677234
 21
3.9262496285
 31
0.0
  0
LINE
  5
160
330
1F
100
AcDbEntity
  8
0
  6
Continuous
 62
     7
370
    25
100
AcDbLine
 10
2.9284199881
 20
4.2062496285
 30
0.0
 11
2.9284199881
 21
3.9262496285
 31
0.0
  0
LINE
  5
161
330
1F
100
AcDbEntity
  8
0
  6
Continuous
 62
     7
370
    25
100
AcDbLine
 10
2.9284199881
 20
4.2062496285
 30
0.0
 11
2.8985238814
 21
4.2062496285
 31
0.0
  0
LINE
  5
162
330
1F
100
AcDbEntity
  8
0
  6
Continuous
 62
     7
370
    25
100
AcDbLine
 10
2.8838374784
 20
3.9262496285
 30
0.0
 11
2.9284199881
 21
3.9262496285
 31
0.0
  0
LINE
  5
163
330
1F
100
AcDbEntity
  8
0
  6
Continuous
 62
     7
370
    25
100
AcDbLine
 10
2.9407320663
 20
3.9262496285
 30
0.0
 11
2.9407320663
 21
4.2062496285
 31
0.0
  0
LINE
  5
164
330
1F
100
AcDbEntity
  8
0
  6
Continuous
 62
     7
370
    25
100
AcDbLine
 10
2.9284199881
 20
4.2062496285
 30
0.0
 11
2.9407320663
 21
4.2062496285
 31
0.0
  0
LINE
  5
165
330
1F
100
AcDbEntity
  8
0
  6
Continuous
 62
     7
370
    25
100
AcDbLine
 10
2.9407320663
 20
3.9262496285
 30
0.0
 11
2.9284199881
 21
3.9262496285
 31
0.0
  0
LINE
  5
166
330
1F
100
AcDbEntity
  8
0
  6
Continuous
 62
     7
370
    25
100
AcDbLine
 10
1.7702735057
 20
4.2062496285
 30
0.0
 11
1.7702735057
 21
3.9262496285
 31
0.0
  0
LINE
  5
167
330
1F
100
AcDbEntity
  8
0
  6
Continuous
 62
     7
370
    25
100
AcDbLine
 10
1.7809231675
 20
4.2062496285
 30
0.0
 11
1.7737817251
 21
4.2062496285
 31
0.0
  0
LINE
  5
168
330
1F
100
AcDbEntity
  8
0
  6
Continuous
 62
     7
370
    25
100
AcDbLine
 10
1.7702735057
 20
3.9262496285
 30
0.0
 11
1.7809231675
 21
3.9262496285
 31
0.0
  0
LINE
  5
169
330
1F
100
AcDbEntity
  8
0
  6
Continuous
 62
     7
370
    25
100
AcDbLine
 10
2.9510319559
 20
4.2062496285
 30
0.0
 11
2.9510319559
 21
3.9262496285
 31
0.0
  0
LINE
  5
16A
330
1F
100
AcDbEntity
  8
0
  6
Continuous
 62
     7
370
    25
100
AcDbLine
 10
2.9476389588
 20
4.2062496285
 30
0.0
 11
2.9407320663
 21
4.2062496285
 31
0.0
  0
LINE
  5
16B
330
1F
100
AcDbEntity
  8
0
  6
Continuous
 62
     7
370
    25
100
AcDbLine
 10
2.9407320663
 20
3.9262496285
 30
0.0
 11
2.9510319559
 21
3.9262496285
 31
0.0
  0
LINE
  5
16C
330
1F
100
AcDbEntity
  8
0
  6
Continuous
 62
     7
370
    25
100
AcDbLine
 10
1.7249426429
 20
3.9262496285
 30
0.0
 11
1.7249426429
 21
4.2062496285
 31
0.0
  0
LINE
  5
16D
330
1F
100
AcDbEntity
  8
0
  6
Continuous
 62
     7
370
    25
100
AcDbLine
 10
1.7130994123
 20
4.2062496285
 30
0.0
 11
1.7130994123
 21
3.9262496285
 31
0.0
  0
LINE
  5
16E
330
1F
100
AcDbEntity
  8
0
  6
Continuous
 62
     7
370
    25
100
AcDbLine
 10
1.7130994123
 20
4.2062496285
 30
0.0
 11
1.7249426429
 21
4.2062496285
 31
0.0
  0
LINE
  5
16F
330
1F
100
AcDbEntity
  8
0
  6
Continuous
 62
     7
370
    25
100
AcDbLine
 10
1.7249426429
 20
3.9262496285
 30
0.0
 11
1.7130994123
 21
3.9262496285
 31
0.0
  0
LINE
  5
170
330
1F
100
AcDbEntity
  8
0
  6
Continuous
 62
     7
370
    25
100
AcDbLine
 10
1.7553405797
 20
4.2062496285
 30
0.0
 11
1.7249426429
 21
4.2062496285
 31
0.0
  0
LINE
  5
171
330
1F
100
AcDbEntity
  8
0
  6
Continuous
 62
     7
370
    25
100
AcDbLine
 10
1.7249426429
 20
3.9262496285
 30
0.0
 11
1.7702735057
 21
3.9262496285
 31
0.0
  0
LINE
  5
172
330
1F
100
AcDbEntity
  8
0
  6
Continuous
 62
     7
370
    25
100
AcDbLine
 10
2.99644357
 20
4.2062496285
 30
0.0
 11
2.99644357
 21
3.9262496285
 31
0.0
  0
LINE
  5
173
330
1F
100
AcDbEntity
  8
0
  6
Continuous
 62
     7
370
    25
100
AcDbLine
 10
2.99644357
 20
4.2062496285
 30
0.0
 11
2.965991483
 21
4.2062496285
 31
0.0
  0
LINE
  5
174
330
1F
100
AcDbEntity
  8
0
  6
Continuous
 62
     7
370
    25
100
AcDbLine
 10
2.9510319559
 20
3.9262496285
 30
0.0
 11
2.99644357
 21
3.9262496285
 31
0.0
  0
LINE
  5
175
330
1F
100
AcDbEntity
  8
0
  6
Continuous
 62
     7
370
    25
100
AcDbLine
 10
3.0082253771
 20
3.9262496285
 30
0.0
 11
3.0082253771
 21
4.2062496285
 31
0.0
  0
LINE
  5
176
330
1F
100
AcDbEntity
  8
0
  6
Continuous
 62
     7
370
    25
100
AcDbLine
 10
2.99644357
 20
4.2062496285
 30
0.0
 11
3.0082253771
 21
4.2062496285
 31
0.0
  0
LINE
  5
177
330
1F
100
AcDbEntity
  8
0
  6
Continuous
 62
     7
370
    25
100
AcDbLine
 10
3.0082253771
 20
3.9262496285
 30
0.0
 11
2.99644357
 21
3.9262496285
 31
0.0
  0
LINE
  5
178
330
1F
100
AcDbEntity
  8
0
  6
Continuous
 62
     7
370
    25
100
AcDbLine
 10
1.7056378137
 20
4.2062496285
 30
0.0
 11
1.7056378137
 21
3.9262496285
 31
0.0
  0
LINE
  5
179
330
1F
100
AcDbEntity
  8
0
  6
Continuous
 62
     7
370
    25
100
AcDbLine
 10
1.7130994123
 20
4.2062496285
 30
0.0
 11
1.708095819
 21
4.2062496285
 31
0.0
  0
LINE
  5
17A
330
1F
100
AcDbEntity
  8
0
  6
Continuous
 62
     7
370
    25
100
AcDbLine
 10
1.7056378137
 20
3.9262496285
 30
0.0
 11
1.7130994123
 21
3.9262496285
 31
0.0
  0
LINE
  5
17B
330
1F
100
AcDbEntity
  8
0
  6
Continuous
 62
     7
370
    25
100
AcDbLine
 10
3.0153324227
 20
4.2062496285
 30
0.0
 11
3.0153324227
 21
3.9262496285
 31
0.0
  0
LINE
  5
17C
330
1F
100
AcDbEntity
  8
0
  6
Continuous
 62
     7
370
    25
100
AcDbLine
 10
3.0129912145
 20
4.2062496285
 30
0.0
 11
3.0082253771
 21
4.2062496285
 31
0.0
  0
LINE
  5
17D
330
1F
100
AcDbEntity
  8
0
  6
Continuous
 62
     7
370
    25
100
AcDbLine
 10
3.0082253771
 20
3.9262496285
 30
0.0
 11
3.0153324227
 21
3.9262496285
 31
0.0
  0
LINE
  5
17E
330
1F
100
AcDbEntity
  8
0
  6
Continuous
 62
     7
370
    25
100
AcDbLine
 10
1.6596744918
 20
3.9262496285
 30
0.0
 11
1.6596744918
 21
4.2062496285
 31
0.0
  0
LINE
  5
17F
330
1F
100
AcDbEntity
  8
0
  6
Continuous
 62
     7
370
    25
100
AcDbLine
 10
1.6904965426
 20
4.2062496285
 30
0.0
 11
1.6596744918
 21
4.2062496285
 31
0.0
  0
LINE
  5
180
330
1F
100
AcDbEntity
  8
0
  6
Continuous
 62
     7
370
    25
100
AcDbLine
 10
1.6596744918
 20
3.9262496285
 30
0.0
 11
1.7056378137
 21
3.9262496285
 31
0.0
  0
LINE
  5
181
330
1F
100
AcDbEntity
  8
0
  6
Continuous
 62
     7
370
    25
100
AcDbLine
 10
1.6484127293
 20
4.2062496285
 30
0.0
 11
1.6484127293
 21
3.9262496285
 31
0.0
  0
LINE
  5
182
330
1F
100
AcDbEntity
  8
0
  6
Continuous
 62
     7
370
    25
100
AcDbLine
 10
1.6484127293
 20
4.2062496285
 30
0.0
 11
1.6596744918
 21
4.2062496285
 31
0.0
  0
LINE
  5
183
330
1F
100
AcDbEntity
  8
0
  6
Continuous
 62
     7
370
    25
100
AcDbLine
 10
1.6596744918
 20
3.9262496285
 30
0.0
 11
1.6484127293
 21
3.9262496285
 31
0.0
  0
LINE
  5
184
330
1F
100
AcDbEntity
  8
0
  6
Continuous
 62
     7
370
    25
100
AcDbLine
 10
3.0613519003
 20
4.2062496285
 30
0.0
 11
3.0613519003
 21
3.9262496285
 31
0.0
  0
LINE
  5
185
330
1F
100
AcDbEntity
  8
0
  6
Continuous
 62
     7
370
    25
100
AcDbLine
 10
3.0613519003
 20
4.2062496285
 30
0.0
 11
3.0304921927
 21
4.2062496285
 31
0.0
  0
LINE
  5
186
330
1F
100
AcDbEntity
  8
0
  6
Continuous
 62
     7
370
    25
100
AcDbLine
 10
3.0153324227
 20
3.9262496285
 30
0.0
 11
3.0613519003
 21
3.9262496285
 31
0.0
  0
LINE
  5
187
330
1F
100
AcDbEntity
  8
0
  6
Continuous
 62
     7
370
    25
100
AcDbLine
 10
3.0725460366
 20
3.9262496285
 30
0.0
 11
3.0725460366
 21
4.2062496285
 31
0.0
  0
LINE
  5
188
330
1F
100
AcDbEntity
  8
0
  6
Continuous
 62
     7
370
    25
100
AcDbLine
 10
3.0613519003
 20
4.2062496285
 30
0.0
 11
3.0725460366
 21
4.2062496285
 31
0.0
  0
LINE
  5
189
330
1F
100
AcDbEntity
  8
0
  6
Continuous
 62
     7
370
    25
100
AcDbLine
 10
3.0725460366
 20
3.9262496285
 30
0.0
 11
3.0613519003
 21
3.9262496285
 31
0.0
  0
LINE
  5
18A
330
1F
100
AcDbEntity
  8
0
  6
Continuous
 62
     7
370
    25
100
AcDbLine
 10
1.644175546
 20
4.2062496285
 30
0.0
 11
1.644175546
 21
3.9262496285
 31
0.0
  0
LINE
  5
18B
330
1F
100
AcDbEntity
  8
0
  6
Continuous
 62
     7
370
    25
100
AcDbLine
 10
1.6484127293
 20
4.2062496285
 30
0.0
 11
1.645571362
 21
4.2062496285
 31
0.0
  0
LINE
  5
18C
330
1F
100
AcDbEntity
  8
0
  6
Continuous
 62
     7
370
    25
100
AcDbLine
 10
1.644175546
 20
3.9262496285
 30
0.0
 11
1.6484127293
 21
3.9262496285
 31
0.0
  0
LINE
  5
18D
330
1F
100
AcDbEntity
  8
0
  6
Continuous
 62
     7
370
    25
100
AcDbLine
 10
3.0764256133
 20
4.2062496285
 30
0.0
 11
3.0764256133
 21
3.9262496285
 31
0.0
  0
LINE
  5
18E
330
1F
100
AcDbEntity
  8
0
  6
Continuous
 62
     7
370
    25
100
AcDbLine
 10
3.0751476003
 20
4.2062496285
 30
0.0
 11
3.0725460366
 21
4.2062496285
 31
0.0
  0
LINE
  5
18F
330
1F
100
AcDbEntity
  8
0
  6
Continuous
 62
     7
370
    25
100
AcDbLine
 10
3.0725460366
 20
3.9262496285
 30
0.0
 11
3.0764256133
 21
3.9262496285
 31
0.0
  0
LINE
  5
190
330
1F
100
AcDbEntity
  8
0
  6
Continuous
 62
     7
370
    25
100
AcDbLine
 10
1.5978036937
 20
3.9262496285
 30
0.0
 11
1.5978036937
 21
4.2062496285
 31
0.0
  0
LINE
  5
191
330
1F
100
AcDbEntity
  8
0
  6
Continuous
 62
     7
370
    25
100
AcDbLine
 10
1.5871782655
 20
4.2062496285
 30
0.0
 11
1.5871782655
 21
3.9262496285
 31
0.0
  0
LINE
  5
192
330
1F
100
AcDbEntity
  8
0
  6
Continuous
 62
     7
370
    25
100
AcDbLine
 10
1.5871782655
 20
4.2062496285
 30
0.0
 11
1.5978036937
 21
4.2062496285
 31
0.0
  0
LINE
  5
193
330
1F
100
AcDbEntity
  8
0
  6
Continuous
 62
     7
370
    25
100
AcDbLine
 10
1.5978036937
 20
3.9262496285
 30
0.0
 11
1.5871782655
 21
3.9262496285
 31
0.0
  0
LINE
  5
194
330
1F
100
AcDbEntity
  8
0
  6
Continuous
 62
     7
370
    25
100
AcDbLine
 10
1.6288996965
 20
4.2062496285
 30
0.0
 11
1.5978036937
 21
4.2062496285
 31
0.0
  0
LINE
  5
195
330
1F
100
AcDbEntity
  8
0
  6
Continuous
 62
     7
370
    25
100
AcDbLine
 10
1.5978036937
 20
3.9262496285
 30
0.0
 11
1.644175546
 21
3.9262496285
 31
0.0
  0
LINE
  5
196
330
1F
100
AcDbEntity
  8
0
  6
Continuous
 62
     7
370
    25
100
AcDbLine
 10
3.1228287522
 20
4.2062496285
 30
0.0
 11
3.1228287522
 21
3.9262496285
 31
0.0
  0
LINE
  5
197
330
1F
100
AcDbEntity
  8
0
  6
Continuous
 62
     7
370
    25
100
AcDbLine
 10
3.1228287522
 20
4.2062496285
 30
0.0
 11
3.0917117693
 21
4.2062496285
 31
0.0
  0
LINE
  5
198
330
1F
100
AcDbEntity
  8
0
  6
Continuous
 62
     7
370
    25
100
AcDbLine
 10
3.0764256133
 20
3.9262496285
 30
0.0
 11
3.1228287522
 21
3.9262496285
 31
0.0
  0
LINE
  5
199
330
1F
100
AcDbEntity
  8
0
  6
Continuous
 62
     7
370
    25
100
AcDbLine
 10
3.133380681
 20
3.9262496285
 30
0.0
 11
3.133380681
 21
4.2062496285
 31
0.0
  0
LINE
  5
19A
330
1F
100
AcDbEntity
  8
0
  6
Continuous
 62
     7
370
    25
100
AcDbLine
 10
3.1228287522
 20
4.2062496285
 30
0.0
 11
3.133380681
 21
4.2062496285
 31
0.0
  0
LINE
  5
19B
330
1F
100
AcDbEntity
  8
0
  6
Continuous
 62
     7
370
    25
100
AcDbLine
 10
3.133380681
 20
3.9262496285
 30
0.0
 11
3.1228287522
 21
3.9262496285
 31
0.0
  0
LINE
  5
19C
330
1F
100
AcDbEntity
  8
0
  6
Continuous
 62
     7
370
    25
100
AcDbLine
 10
1.5861861407
 20
4.2062496285
 30
0.0
 11
1.5861861407
 21
3.9262496285
 31
0.0
  0
LINE
  5
19D
330
1F
100
AcDbEntity
  8
0
  6
Continuous
 62
     7
370
    25
100
AcDbLine
 10
1.5871782655
 20
4.2062496285
 30
0.0
 11
1.5865129672
 21
4.2062496285
 31
0.0
  0
LINE
  5
19E
330
1F
100
AcDbEntity
  8
0
  6
Continuous
 62
     7
370
    25
100
AcDbLine
 10
1.5861861407
 20
3.9262496285
 30
0.0
 11
1.5871782655
 21
3.9262496285
 31
0.0
  0
LINE
  5
19F
330
1F
100
AcDbEntity
  8
0
  6
Continuous
 62
     7
370
    25
100
AcDbLine
 10
3.1340138879
 20
4.2062496285
 30
0.0
 11
3.1340138879
 21
3.9262496285
 31
0.0
  0
LINE
  5
1A0
330
1F
100
AcDbEntity
  8
0
  6
Continuous
 62
     7
370
    25
100
AcDbLine
 10
3.1338052964
 20
4.2062496285
 30
0.0
 11
3.133380681
 21
4.2062496285
 31
0.0
  0
LINE
  5
1A1
330
1F
100
AcDbEntity
  8
0
  6
Continuous
 62
     7
370
    25
100
AcDbLine
 10
3.133380681
 20
3.9262496285
 30
0.0
 11
3.1340138879
 21
3.9262496285
 31
0.0
  0
LINE
  5
1A2
330
1F
100
AcDbEntity
  8
0
  6
Continuous
 62
     7
370
    25
100
AcDbLine
 10
1.5396316769
 20
3.9262496285
 30
0.0
 11
1.5396316769
 21
4.2062496285
 31
0.0
  0
LINE
  5
1A3
330
1F
100
AcDbEntity
  8
0
  6
Continuous
 62
     7
370
    25
100
AcDbLine
 10
1.5708501352
 20
4.2062496285
 30
0.0
 11
1.5396316769
 21
4.2062496285
 31
0.0
  0
LINE
  5
1A4
330
1F
100
AcDbEntity
  8
0
  6
Continuous
 62
     7
370
    25
100
AcDbLine
 10
1.5396316769
 20
3.9262496285
 30
0.0
 11
1.5861861407
 21
3.9262496285
 31
0.0
  0
LINE
  5
1A5
330
1F
100
AcDbEntity
  8
0
  6
Continuous
 62
     7
370
    25
100
AcDbLine
 10
1.5296943491
 20
4.2062496285
 30
0.0
 11
1.5296943491
 21
3.9262496285
 31
0.0
  0
LINE
  5
1A6
330
1F
100
AcDbEntity
  8
0
  6
Continuous
 62
     7
370
    25
100
AcDbLine
 10
1.5296943491
 20
4.2062496285
 30
0.0
 11
1.5396316769
 21
4.2062496285
 31
0.0
  0
LINE
  5
1A7
330
1F
100
AcDbEntity
  8
0
  6
Continuous
 62
     7
370
    25
100
AcDbLine
 10
1.5396316769
 20
3.9262496285
 30
0.0
 11
1.5296943491
 21
3.9262496285
 31
0.0
  0
LINE
  5
1A8
330
1F
100
AcDbEntity
  8
0
  6
Continuous
 62
     7
370
    25
100
AcDbLine
 10
3.1805746167
 20
4.2062496285
 30
0.0
 11
3.1805746167
 21
3.9262496285
 31
0.0
  0
LINE
  5
1A9
330
1F
100
AcDbEntity
  8
0
  6
Continuous
 62
     7
370
    25
100
AcDbLine
 10
3.1805746167
 20
4.2062496285
 30
0.0
 11
3.1493519572
 21
4.2062496285
 31
0.0
  0
LINE
  5
1AA
330
1F
100
AcDbEntity
  8
0
  6
Continuous
 62
     7
370
    25
100
AcDbLine
 10
3.1340138879
 20
3.9262496285
 30
0.0
 11
3.1805746167
 21
3.9262496285
 31
0.0
  0
LINE
  5
1AB
330
1F
100
AcDbEntity
  8
0
  6
Continuous
 62
     7
370
    25
100
AcDbLine
 10
3.19043293
 20
3.9262496285
 30
0.0
 11
3.19043293
 21
4.2062496285
 31
0.0
  0
LINE
  5
1AC
330
1F
100
AcDbEntity
  8
0
  6
Continuous
 62
     7
370
    25
100
AcDbLine
 10
3.1805746167
 20
4.2062496285
 30
0.0
 11
3.19043293
 21
4.2062496285
 31
0.0
  0
LINE
  5
1AD
330
1F
100
AcDbEntity
  8
0
  6
Continuous
 62
     7
370
    25
100
AcDbLine
 10
3.19043293
 20
3.9262496285
 30
0.0
 11
3.1805746167
 21
3.9262496285
 31
0.0
  0
LINE
  5
1AE
330
1F
100
AcDbEntity
  8
0
  6
Continuous
 62
     7
370
    25
100
AcDbLine
 10
1.4854418496
 20
3.9262496285
 30
0.0
 11
1.4854418496
 21
4.2062496285
 31
0.0
  0
LINE
  5
1AF
330
1F
100
AcDbEntity
  8
0
  6
Continuous
 62
     7
370
    25
100
AcDbLine
 10
1.5166306702
 20
4.2062496285
 30
0.0
 11
1.4854418496
 21
4.2062496285
 31
0.0
  0
LINE
  5
1B0
330
1F
100
AcDbEntity
  8
0
  6
Continuous
 62
     7
370
    25
100
AcDbLine
 10
1.4854418496
 20
3.9262496285
 30
0.0
 11
1.5296943491
 21
3.9262496285
 31
0.0
  0
LINE
  5
1B1
330
1F
100
AcDbEntity
  8
0
  6
Continuous
 62
     7
370
    25
100
AcDbLine
 10
1.4762410358
 20
4.2062496285
 30
0.0
 11
1.4762410358
 21
3.9262496285
 31
0.0
  0
LINE
  5
1B2
330
1F
100
AcDbEntity
  8
0
  6
Continuous
 62
     7
370
    25
100
AcDbLine
 10
1.4762410358
 20
4.2062496285
 30
0.0
 11
1.4854418496
 21
4.2062496285
 31
0.0
  0
LINE
  5
1B3
330
1F
100
AcDbEntity
  8
0
  6
Continuous
 62
     7
370
    25
100
AcDbLine
 10
1.4854418496
 20
3.9262496285
 30
0.0
 11
1.4762410358
 21
3.9262496285
 31
0.0
  0
LINE
  5
1B4
330
1F
100
AcDbEntity
  8
0
  6
Continuous
 62
     7
370
    25
100
AcDbLine
 10
3.2343081616
 20
4.2062496285
 30
0.0
 11
3.2343081616
 21
3.9262496285
 31
0.0
  0
LINE
  5
1B5
330
1F
100
AcDbEntity
  8
0
  6
Continuous
 62
     7
370
    25
100
AcDbLine
 10
3.2343081616
 20
4.2062496285
 30
0.0
 11
3.2031319393
 21
4.2062496285
 31
0.0
  0
LINE
  5
1B6
330
1F
100
AcDbEntity
  8
0
  6
Continuous
 62
     7
370
    25
100
AcDbLine
 10
3.19043293
 20
3.9262496285
 30
0.0
 11
3.2343081616
 21
3.9262496285
 31
0.0
  0
LINE
  5
1B7
330
1F
100
AcDbEntity
  8
0
  6
Continuous
 62
     7
370
    25
100
AcDbLine
 10
3.2434248307
 20
3.9262496285
 30
0.0
 11
3.2434248307
 21
4.2062496285
 31
0.0
  0
LINE
  5
1B8
330
1F
100
AcDbEntity
  8
0
  6
Continuous
 62
     7
370
    25
100
AcDbLine
 10
3.2343081616
 20
4.2062496285
 30
0.0
 11
3.2434248307
 21
4.2062496285
 31
0.0
  0
LINE
  5
1B9
330
1F
100
AcDbEntity
  8
0
  6
Continuous
 62
     7
370
    25
100
AcDbLine
 10
3.2434248307
 20
3.9262496285
 30
0.0
 11
3.2343081616
 21
3.9262496285
 31
0.0
  0
LINE
  5
1BA
330
1F
100
AcDbEntity
  8
0
  6
Continuous
 62
     7
370
    25
100
AcDbLine
 10
1.4354982193
 20
3.9262496285
 30
0.0
 11
1.4354982193
 21
4.2062496285
 31
0.0
  0
LINE
  5
1BB
330
1F
100
AcDbEntity
  8
0
  6
Continuous
 62
     7
370
    25
100
AcDbLine
 10
1.4665054534
 20
4.2062496285
 30
0.0
 11
1.4354982193
 21
4.2062496285
 31
0.0
  0
LINE
  5
1BC
330
1F
100
AcDbEntity
  8
0
  6
Continuous
 62
     7
370
    25
100
AcDbLine
 10
1.4354982193
 20
3.9262496285
 30
0.0
 11
1.4762410358
 21
3.9262496285
 31
0.0
  0
LINE
  5
1BD
330
1F
100
AcDbEntity
  8
0
  6
Continuous
 62
     7
370
    25
100
AcDbLine
 10
1.427078745
 20
4.2062496285
 30
0.0
 11
1.427078745
 21
3.9262496285
 31
0.0
  0
LINE
  5
1BE
330
1F
100
AcDbEntity
  8
0
  6
Continuous
 62
     7
370
    25
100
AcDbLine
 10
1.427078745
 20
4.2062496285
 30
0.0
 11
1.4354982193
 21
4.2062496285
 31
0.0
  0
LINE
  5
1BF
330
1F
100
AcDbEntity
  8
0
  6
Continuous
 62
     7
370
    25
100
AcDbLine
 10
1.4354982193
 20
3.9262496285
 30
0.0
 11
1.427078745
 21
3.9262496285
 31
0.0
  0
LINE
  5
1C0
330
1F
100
AcDbEntity
  8
0
  6
Continuous
 62
     7
370
    25
100
AcDbLine
 10
3.2837676027
 20
4.2062496285
 30
0.0
 11
3.2837676027
 21
3.9262496285
 31
0.0
  0
LINE
  5
1C1
330
1F
100
AcDbEntity
  8
0
  6
Continuous
 62
     7
370
    25
100
AcDbLine
 10
3.2837676027
 20
4.2062496285
 30
0.0
 11
3.2527897049
 21
4.2062496285
 31
0.0
  0
LINE
  5
1C2
330
1F
100
AcDbEntity
  8
0
  6
Continuous
 62
     7
370
    25
100
AcDbLine
 10
3.2434248307
 20
3.9262496285
 30
0.0
 11
3.2837676027
 21
3.9262496285
 31
0.0
  0
LINE
  5
1C3
330
1F
100
AcDbEntity
  8
0
  6
Continuous
 62
     7
370
    25
100
AcDbLine
 10
3.2920982121
 20
3.9262496285
 30
0.0
 11
3.2920982121
 21
4.2062496285
 31
0.0
  0
LINE
  5
1C4
330
1F
100
AcDbEntity
  8
0
  6
Continuous
 62
     7
370
    25
100
AcDbLine
 10
3.2837676027
 20
4.2062496285
 30
0.0
 11
3.2920982121
 21
4.2062496285
 31
0.0
  0
LINE
  5
1C5
330
1F
100
AcDbEntity
  8
0
  6
Continuous
 62
     7
370
    25
100
AcDbLine
 10
3.2920982121
 20
3.9262496285
 30
0.0
 11
3.2837676027
 21
3.9262496285
 31
0.0
  0
LINE
  5
1C6
330
1F
100
AcDbEntity
  8
0
  6
Continuous
 62
     7
370
    25
100
AcDbLine
 10
1.3900441063
 20
3.9262496285
 30
0.0
 11
1.3900441063
 21
4.2062496285
 31
0.0
  0
LINE
  5
1C7
330
1F
100
AcDbEntity
  8
0
  6
Continuous
 62
     7
370
    25
100
AcDbLine
 10
1.4207186897
 20
4.2062496285
 30
0.0
 11
1.3900441063
 21
4.2062496285
 31
0.0
  0
LINE
  5
1C8
330
1F
100
AcDbEntity
  8
0
  6
Continuous
 62
     7
370
    25
100
AcDbLine
 10
1.3900441063
 20
3.9262496285
 30
0.0
 11
1.427078745
 21
3.9262496285
 31
0.0
  0
LINE
  5
1C9
330
1F
100
AcDbEntity
  8
0
  6
Continuous
 62
     7
370
    25
100
AcDbLine
 10
3.3287119783
 20
4.2062496285
 30
0.0
 11
3.3287119783
 21
3.9262496285
 31
0.0
  0
LINE
  5
1CA
330
1F
100
AcDbEntity
  8
0
  6
Continuous
 62
     7
370
    25
100
AcDbLine
 10
3.3287119783
 20
4.2062496285
 30
0.0
 11
3.2980833264
 21
4.2062496285
 31
0.0
  0
LINE
  5
1CB
330
1F
100
AcDbEntity
  8
0
  6
Continuous
 62
     7
370
    25
100
AcDbLine
 10
3.2920982121
 20
3.9262496285
 30
0.0
 11
3.3287119783
 21
3.9262496285
 31
0.0
  0
LINE
  5
1CC
330
1F
100
AcDbEntity
  8
0
  6
Continuous
 62
     7
370
    25
100
AcDbLine
 10
1.3824469902
 20
4.2062496285
 30
0.0
 11
1.3824469902
 21
3.9262496285
 31
0.0
  0
LINE
  5
1CD
330
1F
100
AcDbEntity
  8
0
  6
Continuous
 62
     7
370
    25
100
AcDbLine
 10
1.3824469902
 20
4.2062496285
 30
0.0
 11
1.3900441063
 21
4.2062496285
 31
0.0
  0
LINE
  5
1CE
330
1F
100
AcDbEntity
  8
0
  6
Continuous
 62
     7
370
    25
100
AcDbLine
 10
1.3900441063
 20
3.9262496285
 30
0.0
 11
1.3824469902
 21
3.9262496285
 31
0.0
  0
LINE
  5
1CF
330
1F
100
AcDbEntity
  8
0
  6
Continuous
 62
     7
370
    25
100
AcDbLine
 10
3.3362159422
 20
3.9262496285
 30
0.0
 11
3.3362159422
 21
4.2062496285
 31
0.0
  0
LINE
  5
1D0
330
1F
100
AcDbEntity
  8
0
  6
Continuous
 62
     7
370
    25
100
AcDbLine
 10
3.3287119783
 20
4.2062496285
 30
0.0
 11
3.3362159422
 21
4.2062496285
 31
0.0
  0
LINE
  5
1D1
330
1F
100
AcDbEntity
  8
0
  6
Continuous
 62
     7
370
    25
100
AcDbLine
 10
3.3362159422
 20
3.9262496285
 30
0.0
 11
3.3287119783
 21
3.9262496285
 31
0.0
  0
LINE
  5
1D2
330
1F
100
AcDbEntity
  8
0
  6
Continuous
 62
     7
370
    25
100
AcDbLine
 10
1.3493009585
 20
3.9262496285
 30
0.0
 11
1.3493009585
 21
4.2062496285
 31
0.0
  0
LINE
  5
1D3
330
1F
100
AcDbEntity
  8
0
  6
Continuous
 62
     7
370
    25
100
AcDbLine
 10
1.3794934477
 20
4.2062496285
 30
0.0
 11
1.3493009585
 21
4.2062496285
 31
0.0
  0
LINE
  5
1D4
330
1F
100
AcDbEntity
  8
0
  6
Continuous
 62
     7
370
    25
100
AcDbLine
 10
1.3493009585
 20
3.9262496285
 30
0.0
 11
1.3824469902
 21
3.9262496285
 31
0.0
  0
LINE
  5
1D5
330
1F
100
AcDbEntity
  8
0
  6
Continuous
 62
     7
370
    25
100
AcDbLine
 10
3.3689223242
 20
4.2062496285
 30
0.0
 11
3.3689223242
 21
3.9262496285
 31
0.0
  0
LINE
  5
1D6
330
1F
100
AcDbEntity
  8
0
  6
Continuous
 62
     7
370
    25
100
AcDbLine
 10
3.3689223242
 20
4.2062496285
 30
0.0
 11
3.3387921377
 21
4.2062496285
 31
0.0
  0
LINE
  5
1D7
330
1F
100
AcDbEntity
  8
0
  6
Continuous
 62
     7
370
    25
100
AcDbLine
 10
3.3362159422
 20
3.9262496285
 30
0.0
 11
3.3689223242
 21
3.9262496285
 31
0.0
  0
LINE
  5
1D8
330
1F
100
AcDbEntity
  8
0
  6
Continuous
 62
     7
370
    25
100
AcDbLine
 10
1.3425632131
 20
4.2062496285
 30
0.0
 11
1.3425632131
 21
3.9262496285
 31
0.0
  0
LINE
  5
1D9
330
1F
100
AcDbEntity
  8
0
  6
Continuous
 62
     7
370
    25
100
AcDbLine
 10
1.3425632131
 20
4.2062496285
 30
0.0
 11
1.3493009585
 21
4.2062496285
 31
0.0
  0
LINE
  5
1DA
330
1F
100
AcDbEntity
  8
0
  6
Continuous
 62
     7
370
    25
100
AcDbLine
 10
1.3493009585
 20
3.9262496285
 30
0.0
 11
1.3425632131
 21
3.9262496285
 31
0.0
  0
LINE
  5
1DB
330
1F
100
AcDbEntity
  8
0
  6
Continuous
 62
     7
370
    25
100
AcDbLine
 10
3.3755630839
 20
3.9262496285
 30
0.0
 11
3.3755630839
 21
4.2062496285
 31
0.0
  0
LINE
  5
1DC
330
1F
100
AcDbEntity
  8
0
  6
Continuous
 62
     7
370
    25
100
AcDbLine
 10
3.3689223242
 20
4.2062496285
 30
0.0
 11
3.3755630839
 21
4.2062496285
 31
0.0
  0
LINE
  5
1DD
330
1F
100
AcDbEntity
  8
0
  6
Continuous
 62
     7
370
    25
100
AcDbLine
 10
3.3755630839
 20
3.9262496285
 30
0.0
 11
3.3689223242
 21
3.9262496285
 31
0.0
  0
LINE
  5
1DE
330
1F
100
AcDbEntity
  8
0
  6
Continuous
 62
     7
370
    25
100
AcDbLine
 10
1.3134672723
 20
3.9262496285
 30
0.0
 11
1.3134672723
 21
4.2062496285
 31
0.0
  0
LINE
  5
1DF
330
1F
100
AcDbEntity
  8
0
  6
Continuous
 62
     7
370
    25
100
AcDbLine
 10
1.3425632131
 20
4.2062496285
 30
0.0
 11
1.3134672723
 21
4.2062496285
 31
0.0
  0
LINE
  5
1E0
330
1F
100
AcDbEntity
  8
0
  6
Continuous
 62
     7
370
    25
100
AcDbLine
 10
1.3134672723
 20
3.9262496285
 30
0.0
 11
1.3425632131
 21
3.9262496285
 31
0.0
  0
LINE
  5
1E1
330
1F
100
AcDbEntity
  8
0
  6
Continuous
 62
     7
370
    25
100
AcDbLine
 10
3.4042027394
 20
4.2062496285
 30
0.0
 11
3.4042027394
 21
3.9262496285
 31
0.0
  0
LINE
  5
1E2
330
1F
100
AcDbEntity
  8
0
  6
Continuous
 62
     7
370
    25
100
AcDbLine
 10
3.4042027394
 20
4.2062496285
 30
0.0
 11
3.3755630839
 21
4.2062496285
 31
0.0
  0
LINE
  5
1E3
330
1F
100
AcDbEntity
  8
0
  6
Continuous
 62
     7
370
    25
100
AcDbLine
 10
3.3755630839
 20
3.9262496285
 30
0.0
 11
3.4042027394
 21
3.9262496285
 31
0.0
  0
LINE
  5
1E4
330
1F
100
AcDbEntity
  8
0
  6
Continuous
 62
     7
370
    25
100
AcDbLine
 10
1.3076217232
 20
4.2062496285
 30
0.0
 11
1.3076217232
 21
3.9262496285
 31
0.0
  0
LINE
  5
1E5
330
1F
100
AcDbEntity
  8
0
  6
Continuous
 62
     7
370
    25
100
AcDbLine
 10
1.3076217232
 20
4.2062496285
 30
0.0
 11
1.3134672723
 21
4.2062496285
 31
0.0
  0
LINE
  5
1E6
330
1F
100
AcDbEntity
  8
0
  6
Continuous
 62
     7
370
    25
100
AcDbLine
 10
1.3134672723
 20
3.9262496285
 30
0.0
 11
1.3076217232
 21
3.9262496285
 31
0.0
  0
LINE
  5
1E7
330
1F
100
AcDbEntity
  8
0
  6
Continuous
 62
     7
370
    25
100
AcDbLine
 10
3.4099479418
 20
3.9262496285
 30
0.0
 11
3.4099479418
 21
4.2062496285
 31
0.0
  0
LINE
  5
1E8
330
1F
100
AcDbEntity
  8
0
  6
Continuous
 62
     7
370
    25
100
AcDbLine
 10
3.4042027394
 20
4.2062496285
 30
0.0
 11
3.4099479418
 21
4.2062496285
 31
0.0
  0
LINE
  5
1E9
330
1F
100
AcDbEntity
  8
0
  6
Continuous
 62
     7
370
    25
100
AcDbLine
 10
3.4099479418
 20
3.9262496285
 30
0.0
 11
3.4042027394
 21
3.9262496285
 31
0.0
  0
LINE
  5
1EA
330
1F
100
AcDbEntity
  8
0
  6
Continuous
 62
     7
370
    25
100
AcDbLine
 10
1.2827176259
 20
3.9262496285
 30
0.0
 11
1.2827176259
 21
4.2062496285
 31
0.0
  0
LINE
  5
1EB
330
1F
100
AcDbEntity
  8
0
  6
Continuous
 62
     7
370
    25
100
AcDbLine
 10
1.3076217232
 20
4.2062496285
 30
0.0
 11
1.2827176259
 21
4.2062496285
 31
0.0
  0
LINE
  5
1EC
330
1F
100
AcDbEntity
  8
0
  6
Continuous
 62
     7
370
    25
100
AcDbLine
 10
1.2827176259
 20
3.9262496285
 30
0.0
 11
1.3076217232
 21
3.9262496285
 31
0.0
  0
LINE
  5
1ED
330
1F
100
AcDbEntity
  8
0
  6
Continuous
 62
     7
370
    25
100
AcDbLine
 10
3.4343813414
 20
4.2062496285
 30
0.0
 11
3.4343813414
 21
3.9262496285
 31
0.0
  0
LINE
  5
1EE
330
1F
100
AcDbEntity
  8
0
  6
Continuous
 62
     7
370
    25
100
AcDbLine
 10
3.4343813414
 20
4.2062496285
 30
0.0
 11
3.4099479418
 21
4.2062496285
 31
0.0
  0
LINE
  5
1EF
330
1F
100
AcDbEntity
  8
0
  6
Continuous
 62
     7
370
    25
100
AcDbLine
 10
3.4099479418
 20
3.9262496285
 30
0.0
 11
3.4343813414
 21
3.9262496285
 31
0.0
  0
LINE
  5
1F0
330
1F
100
AcDbEntity
  8
0
  6
Continuous
 62
     7
370
    25
100
AcDbLine
 10
1.277792752
 20
4.2062496285
 30
0.0
 11
1.277792752
 21
3.9262496285
 31
0.0
  0
LINE
  5
1F1
330
1F
100
AcDbEntity
  8
0
  6
Continuous
 62
     7
370
    25
100
AcDbLine
 10
1.277792752
 20
4.2062496285
 30
0.0
 11
1.2827176259
 21
4.2062496285
 31
0.0
  0
LINE
  5
1F2
330
1F
100
AcDbEntity
  8
0
  6
Continuous
 62
     7
370
    25
100
AcDbLine
 10
1.2827176259
 20
3.9262496285
 30
0.0
 11
1.277792752
 21
3.9262496285
 31
0.0
  0
LINE
  5
1F3
330
1F
100
AcDbEntity
  8
0
  6
Continuous
 62
     7
370
    25
100
AcDbLine
 10
3.4392029965
 20
3.9262496285
 30
0.0
 11
3.4392029965
 21
4.2062496285
 31
0.0
  0
LINE
  5
1F4
330
1F
100
AcDbEntity
  8
0
  6
Continuous
 62
     7
370
    25
100
AcDbLine
 10
3.4343813414
 20
4.2062496285
 30
0.0
 11
3.4392029965
 21
4.2062496285
 31
0.0
  0
LINE
  5
1F5
330
1F
100
AcDbEntity
  8
0
  6
Continuous
 62
     7
370
    25
100
AcDbLine
 10
3.4392029965
 20
3.9262496285
 30
0.0
 11
3.4343813414
 21
3.9262496285
 31
0.0
  0
LINE
  5
1F6
330
1F
100
AcDbEntity
  8
0
  6
Continuous
 62
     7
370
    25
100
AcDbLine
 10
1.2572018285
 20
3.9262496285
 30
0.0
 11
1.2572018285
 21
4.2062496285
 31
0.0
  0
LINE
  5
1F7
330
1F
100
AcDbEntity
  8
0
  6
Continuous
 62
     7
370
    25
100
AcDbLine
 10
1.277792752
 20
4.2062496285
 30
0.0
 11
1.2572018285
 21
4.2062496285
 31
0.0
  0
LINE
  5
1F8
330
1F
100
AcDbEntity
  8
0
  6
Continuous
 62
     7
370
    25
100
AcDbLine
 10
1.2572018285
 20
3.9262496285
 30
0.0
 11
1.277792752
 21
3.9262496285
 31
0.0
  0
LINE
  5
1F9
330
1F
100
AcDbEntity
  8
0
  6
Continuous
 62
     7
370
    25
100
AcDbLine
 10
3.459311103
 20
4.2062496285
 30
0.0
 11
3.459311103
 21
3.9262496285
 31
0.0
  0
LINE
  5
1FA
330
1F
100
AcDbEntity
  8
0
  6
Continuous
 62
     7
370
    25
100
AcDbLine
 10
3.459311103
 20
4.2062496285
 30
0.0
 11
3.4392029965
 21
4.2062496285
 31
0.0
  0
LINE
  5
1FB
330
1F
100
AcDbEntity
  8
0
  6
Continuous
 62
     7
370
    25
100
AcDbLine
 10
3.4392029965
 20
3.9262496285
 30
0.0
 11
3.459311103
 21
3.9262496285
 31
0.0
  0
LINE
  5
1FC
330
1F
100
AcDbEntity
  8
0
  6
Continuous
 62
     7
370
    25
100
AcDbLine
 10
1.2532216233
 20
4.2062496285
 30
0.0
 11
1.2532216233
 21
3.9262496285
 31
0.0
  0
LINE
  5
1FD
330
1F
100
AcDbEntity
  8
0
  6
Continuous
 62
     7
370
    25
100
AcDbLine
 10
1.2532216233
 20
4.2062496285
 30
0.0
 11
1.2572018285
 21
4.2062496285
 31
0.0
  0
LINE
  5
1FE
330
1F
100
AcDbEntity
  8
0
  6
Continuous
 62
     7
370
    25
100
AcDbLine
 10
1.2572018285
 20
3.9262496285
 30
0.0
 11
1.2532216233
 21
3.9262496285
 31
0.0
  0
LINE
  5
1FF
330
1F
100
AcDbEntity
  8
0
  6
Continuous
 62
     7
370
    25
100
AcDbLine
 10
3.4631857202
 20
3.9262496285
 30
0.0
 11
3.4631857202
 21
4.2062496285
 31
0.0
  0
LINE
  5
200
330
1F
100
AcDbEntity
  8
0
  6
Continuous
 62
     7
370
    25
100
AcDbLine
 10
3.459311103
 20
4.2062496285
 30
0.0
 11
3.4631857202
 21
4.2062496285
 31
0.0
  0
LINE
  5
201
330
1F
100
AcDbEntity
  8
0
  6
Continuous
 62
     7
370
    25
100
AcDbLine
 10
3.4631857202
 20
3.9262496285
 30
0.0
 11
3.459311103
 21
3.9262496285
 31
0.0
  0
LINE
  5
202
330
1F
100
AcDbEntity
  8
0
  6
Continuous
 62
     7
370
    25
100
AcDbLine
 10
1.2370441905
 20
3.9262496285
 30
0.0
 11
1.2370441905
 21
4.2062496285
 31
0.0
  0
LINE
  5
203
330
1F
100
AcDbEntity
  8
0
  6
Continuous
 62
     7
370
    25
100
AcDbLine
 10
1.2532216233
 20
4.2062496285
 30
0.0
 11
1.2370441905
 21
4.2062496285
 31
0.0
  0
LINE
  5
204
330
1F
100
AcDbEntity
  8
0
  6
Continuous
 62
     7
370
    25
100
AcDbLine
 10
1.2370441905
 20
3.9262496285
 30
0.0
 11
1.2532216233
 21
3.9262496285
 31
0.0
  0
LINE
  5
205
330
1F
100
AcDbEntity
  8
0
  6
Continuous
 62
     7
370
    25
100
AcDbLine
 10
3.478870569
 20
4.2062496285
 30
0.0
 11
3.478870569
 21
3.9262496285
 31
0.0
  0
LINE
  5
206
330
1F
100
AcDbEntity
  8
0
  6
Continuous
 62
     7
370
    25
100
AcDbLine
 10
3.478870569
 20
4.2062496285
 30
0.0
 11
3.4631857202
 21
4.2062496285
 31
0.0
  0
LINE
  5
207
330
1F
100
AcDbEntity
  8
0
  6
Continuous
 62
     7
370
    25
100
AcDbLine
 10
3.4631857202
 20
3.9262496285
 30
0.0
 11
3.478870569
 21
3.9262496285
 31
0.0
  0
LINE
  5
208
330
1F
100
AcDbEntity
  8
0
  6
Continuous
 62
     7
370
    25
100
AcDbLine
 10
1.2340280452
 20
4.2062496285
 30
0.0
 11
1.2340280452
 21
3.9262496285
 31
0.0
  0
LINE
  5
209
330
1F
100
AcDbEntity
  8
0
  6
Continuous
 62
     7
370
    25
100
AcDbLine
 10
1.2340280452
 20
4.2062496285
 30
0.0
 11
1.2370441905
 21
4.2062496285
 31
0.0
  0
LINE
  5
20A
330
1F
100
AcDbEntity
  8
0
  6
Continuous
 62
     7
370
    25
100
AcDbLine
 10
1.2370441905
 20
3.9262496285
 30
0.0
 11
1.2340280452
 21
3.9262496285
 31
0.0
  0
LINE
  5
20B
330
1F
100
AcDbEntity
  8
0
  6
Continuous
 62
     7
370
    25
100
AcDbLine
 10
3.4817792715
 20
3.9262496285
 30
0.0
 11
3.4817792715
 21
4.2062496285
 31
0.0
  0
LINE
  5
20C
330
1F
100
AcDbEntity
  8
0
  6
Continuous
 62
     7
370
    25
100
AcDbLine
 10
3.478870569
 20
4.2062496285
 30
0.0
 11
3.4817792715
 21
4.2062496285
 31
0.0
  0
LINE
  5
20D
330
1F
100
AcDbEntity
  8
0
  6
Continuous
 62
     7
370
    25
100
AcDbLine
 10
3.4817792715
 20
3.9262496285
 30
0.0
 11
3.478870569
 21
3.9262496285
 31
0.0
  0
LINE
  5
20E
330
1F
100
AcDbEntity
  8
0
  6
Continuous
 62
     7
370
    25
100
AcDbLine
 10
1.2223429179
 20
3.9262496285
 30
0.0
 11
1.2223429179
 21
4.2062496285
 31
0.0
  0
LINE
  5
20F
330
1F
100
AcDbEntity
  8
0
  6
Continuous
 62
     7
370
    25
100
AcDbLine
 10
1.2340280452
 20
4.2062496285
 30
0.0
 11
1.2223429179
 21
4.2062496285
 31
0.0
  0
LINE
  5
210
330
1F
100
AcDbEntity
  8
0
  6
Continuous
 62
     7
370
    25
100
AcDbLine
 10
1.2223429179
 20
3.9262496285
 30
0.0
 11
1.2340280452
 21
3.9262496285
 31
0.0
  0
LINE
  5
211
330
1F
100
AcDbEntity
  8
0
  6
Continuous
 62
     7
370
    25
100
AcDbLine
 10
3.4929644475
 20
4.2062496285
 30
0.0
 11
3.4929644475
 21
3.9262496285
 31
0.0
  0
LINE
  5
212
330
1F
100
AcDbEntity
  8
0
  6
Continuous
 62
     7
370
    25
100
AcDbLine
 10
3.4929644475
 20
4.2062496285
 30
0.0
 11
3.4817792715
 21
4.2062496285
 31
0.0
  0
LINE
  5
213
330
1F
100
AcDbEntity
  8
0
  6
Continuous
 62
     7
370
    25
100
AcDbLine
 10
3.4817792715
 20
3.9262496285
 30
0.0
 11
3.4929644475
 21
3.9262496285
 31
0.0
  0
LINE
  5
214
330
1F
100
AcDbEntity
  8
0
  6
Continuous
 62
     7
370
    25
100
AcDbLine
 10
1.2203055267
 20
4.2062496285
 30
0.0
 11
1.2203055267
 21
3.9262496285
 31
0.0
  0
LINE
  5
215
330
1F
100
AcDbEntity
  8
0
  6
Continuous
 62
     7
370
    25
100
AcDbLine
 10
1.2203055267
 20
4.2062496285
 30
0.0
 11
1.2223429179
 21
4.2062496285
 31
0.0
  0
LINE
  5
216
330
1F
100
AcDbEntity
  8
0
  6
Continuous
 62
     7
370
    25
100
AcDbLine
 10
1.2223429179
 20
3.9262496285
 30
0.0
 11
1.2203055267
 21
3.9262496285
 31
0.0
  0
LINE
  5
217
330
1F
100
AcDbEntity
  8
0
  6
Continuous
 62
     7
370
    25
100
AcDbLine
 10
3.4948930645
 20
3.9262496285
 30
0.0
 11
3.4948930645
 21
4.2062496285
 31
0.0
  0
LINE
  5
218
330
1F
100
AcDbEntity
  8
0
  6
Continuous
 62
     7
370
    25
100
AcDbLine
 10
3.4929644475
 20
4.2062496285
 30
0.0
 11
3.4948930645
 21
4.2062496285
 31
0.0
  0
LINE
  5
219
330
1F
100
AcDbEntity
  8
0
  6
Continuous
 62
     7
370
    25
100
AcDbLine
 10
3.4948930645
 20
3.9262496285
 30
0.0
 11
3.4929644475
 21
3.9262496285
 31
0.0
  0
LINE
  5
21A
330
1F
100
AcDbEntity
  8
0
  6
Continuous
 62
     7
370
    25
100
AcDbLine
 10
1.2131696337
 20
3.9262496285
 30
0.0
 11
1.2131696337
 21
4.2062496285
 31
0.0
  0
LINE
  5
21B
330
1F
100
AcDbEntity
  8
0
  6
Continuous
 62
     7
370
    25
100
AcDbLine
 10
1.2203055267
 20
4.2062496285
 30
0.0
 11
1.2131696337
 21
4.2062496285
 31
0.0
  0
LINE
  5
21C
330
1F
100
AcDbEntity
  8
0
  6
Continuous
 62
     7
370
    25
100
AcDbLine
 10
1.2131696337
 20
3.9262496285
 30
0.0
 11
1.2203055267
 21
3.9262496285
 31
0.0
  0
LINE
  5
21D
330
1F
100
AcDbEntity
  8
0
  6
Continuous
 62
     7
370
    25
100
AcDbLine
 10
3.5015240748
 20
4.2062496285
 30
0.0
 11
3.5015240748
 21
3.9262496285
 31
0.0
  0
LINE
  5
21E
330
1F
100
AcDbEntity
  8
0
  6
Continuous
 62
     7
370
    25
100
AcDbLine
 10
3.5015240748
 20
4.2062496285
 30
0.0
 11
3.4948930645
 21
4.2062496285
 31
0.0
  0
LINE
  5
21F
330
1F
100
AcDbEntity
  8
0
  6
Continuous
 62
     7
370
    25
100
AcDbLine
 10
3.4948930645
 20
3.9262496285
 30
0.0
 11
3.5015240748
 21
3.9262496285
 31
0.0
  0
LINE
  5
220
330
1F
100
AcDbEntity
  8
0
  6
Continuous
 62
     7
370
    25
100
AcDbLine
 10
1.2121209228
 20
4.2062496285
 30
0.0
 11
1.2121209228
 21
3.9262496285
 31
0.0
  0
LINE
  5
221
330
1F
100
AcDbEntity
  8
0
  6
Continuous
 62
     7
370
    25
100
AcDbLine
 10
1.2121209228
 20
4.2062496285
 30
0.0
 11
1.2131696337
 21
4.2062496285
 31
0.0
  0
LINE
  5
222
330
1F
100
AcDbEntity
  8
0
  6
Continuous
 62
     7
370
    25
100
AcDbLine
 10
1.2131696337
 20
3.9262496285
 30
0.0
 11
1.2121209228
 21
3.9262496285
 31
0.0
  0
LINE
  5
223
330
1F
100
AcDbEntity
  8
0
  6
Continuous
 62
     7
370
    25
100
AcDbLine
 10
3.5024632102
 20
3.9262496285
 30
0.0
 11
3.5024632102
 21
4.2062496285
 31
0.0
  0
LINE
  5
224
330
1F
100
AcDbEntity
  8
0
  6
Continuous
 62
     7
370
    25
100
AcDbLine
 10
3.5015240748
 20
4.2062496285
 30
0.0
 11
3.5024632102
 21
4.2062496285
 31
0.0
  0
LINE
  5
225
330
1F
100
AcDbEntity
  8
0
  6
Continuous
 62
     7
370
    25
100
AcDbLine
 10
3.5024632102
 20
3.9262496285
 30
0.0
 11
3.5015240748
 21
3.9262496285
 31
0.0
  0
LINE
  5
226
330
1F
100
AcDbEntity
  8
0
  6
Continuous
 62
     7
370
    25
100
AcDbLine
 10
1.2095690294
 20
3.9262496285
 30
0.0
 11
1.2095690294
 21
4.2062496285
 31
0.0
  0
LINE
  5
227
330
1F
100
AcDbEntity
  8
0
  6
Continuous
 62
     7
370
    25
100
AcDbLine
 10
1.2121209228
 20
4.2062496285
 30
0.0
 11
1.2095690294
 21
4.2062496285
 31
0.0
  0
LINE
  5
228
330
1F
100
AcDbEntity
  8
0
  6
Continuous
 62
     7
370
    25
100
AcDbLine
 10
1.2095690294
 20
3.9262496285
 30
0.0
 11
1.2121209228
 21
3.9262496285
 31
0.0
  0
LINE
  5
229
330
1F
100
AcDbEntity
  8
0
  6
Continuous
 62
     7
370
    25
100
AcDbLine
 10
3.504507749
 20
4.2062496285
 30
0.0
 11
3.504507749
 21
3.9262496285
 31
0.0
  0
LINE
  5
22A
330
1F
100
AcDbEntity
  8
0
  6
Continuous
 62
     7
370
    25
100
AcDbLine
 10
3.504507749
 20
4.2062496285
 30
0.0
 11
3.5024632102
 21
4.2062496285
 31
0.0
  0
LINE
  5
22B
330
1F
100
AcDbEntity
  8
0
  6
Continuous
 62
     7
370
    25
100
AcDbLine
 10
3.5024632102
 20
3.9262496285
 30
0.0
 11
3.504507749
 21
3.9262496285
 31
0.0
  0
LINE
  5
22C
330
1F
100
AcDbEntity
  8
0
  6
Continuous
 62
     7
370
    25
100
AcDbLine
 10
1.2095109284
 20
4.2062496285
 30
0.0
 11
1.2095690294
 21
4.2062496285
 31
0.0
  0
LINE
  5
22D
330
1F
100
AcDbEntity
  8
0
  6
Continuous
 62
     7
370
    25
100
AcDbLine
 10
1.2095690294
 20
3.9262496285
 30
0.0
 11
1.2095109284
 21
3.9262496285
 31
0.0
  0
LINE
  5
22E
330
1F
100
AcDbEntity
  8
0
  6
Continuous
 62
     7
370
    25
100
AcDbLine
 10
3.504507749
 20
4.2062496285
 30
0.0
 11
3.5045109284
 21
4.2062496285
 31
0.0
  0
LINE
  5
22F
330
1F
100
AcDbEntity
  8
0
  6
Continuous
 62
     7
370
    25
100
AcDbLine
 10
3.5045109284
 20
3.9262496285
 30
0.0
 11
3.504507749
 21
3.9262496285
 31
0.0
  0
SPLINE
  5
230
330
1F
100
AcDbEntity
  8
0
  6
Continuous
 62
     7
370
    25
100
AcDbSpline
210
0.0
220
0.0
230
1.0
 70
     8
 71
     3
 72
    12
 73
     8
 74
     0
 42
0.000000001
 43
0.00000001
 40
0.0
 40
0.0
 40
0.0
 40
0.0
 40
0.2012884687677672
 40
0.4028739231127819
 40
0.6039860444993502
 40
0.8061992786944546
 40
1.0
 40
1.0
 40
1.0
 40
1.0
 10
2.657824009728684
 20
3.190328885040399
 30
0.0
 10
2.657662099866289
 20
3.187278776922056
 30
0.0
 10
2.657338041256012
 20
3.181174060486597
 30
0.0
 10
2.654694900015978
 20
3.172375146059415
 30
0.0
 10
2.65055748407205
 20
3.164390769517389
 30
0.0
 10
2.645302890716582
 20
3.157133915580554
 30
0.0
 10
2.640406914135805
 20
3.154204292491661
 30
0.0
 10
2.638010928389166
 20
3.152770597896068
 30
0.0
  0
LINE
  5
231
330
1F
100
AcDbEntity
  8
0
  6
Continuous
 62
     7
370
    25
100
AcDbLine
 10
2.6760340248
 20
3.194328885
 30
0.0
 11
2.6760340248
 21
3.190328885
 31
0.0
  0
LINE
  5
232
330
1F
100
AcDbEntity
  8
0
  6
Continuous
 62
     7
370
    25
100
AcDbLine
 10
2.6578240097
 20
3.194328885
 30
0.0
 11
2.6760340248
 21
3.194328885
 31
0.0
  0
LINE
  5
233
330
1F
100
AcDbEntity
  8
0
  6
Continuous
 62
     7
370
    25
100
AcDbLine
 10
2.6578240097
 20
3.190328885
 30
0.0
 11
2.6578240097
 21
3.194328885
 31
0.0
  0
SPLINE
  5
234
330
1F
100
AcDbEntity
  8
0
  6
Continuous
 62
     7
370
    25
100
AcDbSpline
210
0.0
220
0.0
230
1.0
 70
     8
 71
     3
 72
    12
 73
     8
 74
     0
 42
0.000000001
 43
0.00000001
 40
0.0
 40
0.0
 40
0.0
 40
0.0
 40
0.1799653591519886
 40
0.453055154754727
 40
0.7262201613947372
 40
0.8630047224244766
 40
0.9999999999999999
 40
0.9999999999999999
 40
0.9999999999999999
 40
0.9999999999999999
 10
2.638010928389166
 20
3.14547389238948
 30
0.0
 10
2.641716959447704
 20
3.145967700799405
 30
0.0
 10
2.651046735370489
 20
3.147210842516412
 30
0.0
 10
2.663877289336202
 20
3.156817634529857
 30
0.0
 10
2.672041276949265
 20
3.169496025788649
 30
0.0
 10
2.675550984776404
 20
3.181183164916006
 30
0.0
 10
2.675872928869097
 20
3.187278747829756
 30
0.0
 10
2.676034024808692
 20
3.190328885040399
 30
0.0
  0
LINE
  5
235
330
1F
100
AcDbEntity
  8
0
  6
Continuous
 62
     7
370
    25
100
AcDbLine
 10
3.2321590384
 20
3.226328885
 30
0.0
 11
1.8452247171
 21
3.226328885
 31
0.0
  0
LINE
  5
236
330
1F
100
AcDbEntity
  8
0
  6
Continuous
 62
     7
370
    25
100
AcDbLine
 10
1.8452247171
 20
3.226328885
 30
0.0
 11
1.8452247171
 21
3.244328885
 31
0.0
  0
LINE
  5
237
330
1F
100
AcDbEntity
  8
0
  6
Continuous
 62
     7
370
    25
100
AcDbLine
 10
1.6478174361
 20
3.226328885
 30
0.0
 11
1.6478174361
 21
3.244328885
 31
0.0
  0
LINE
  5
238
330
1F
100
AcDbEntity
  8
0
  6
Continuous
 62
     7
370
    25
100
AcDbLine
 10
1.8452247171
 20
3.226328885
 30
0.0
 11
1.6478174361
 21
3.226328885
 31
0.0
  0
LINE
  5
239
330
1F
100
AcDbEntity
  8
0
  6
Continuous
 62
     7
370
    25
100
AcDbLine
 10
1.5676039779
 20
3.226328885
 30
0.0
 11
1.5676039779
 21
3.244328885
 31
0.0
  0
LINE
  5
23A
330
1F
100
AcDbEntity
  8
0
  6
Continuous
 62
     7
370
    25
100
AcDbLine
 10
1.6478174361
 20
3.226328885
 30
0.0
 11
1.5676039779
 21
3.226328885
 31
0.0
  0
LINE
  5
23B
330
1F
100
AcDbEntity
  8
0
  6
Continuous
 62
     7
370
    25
100
AcDbLine
 10
1.5676039779
 20
3.226328885
 30
0.0
 11
1.5615007679
 21
3.226328885
 31
0.0
  0
LINE
  5
23C
330
1F
100
AcDbEntity
  8
0
  6
Continuous
 62
     7
370
    25
100
AcDbLine
 10
3.3595109284
 20
3.244328885
 30
0.0
 11
1.3545109284
 21
3.244328885
 31
0.0
  0
LINE
  5
23D
330
1F
100
AcDbEntity
  8
0
  6
Continuous
 62
     7
370
    25
100
AcDbLine
 10
2.2056171359
 20
1.779328885
 30
0.0
 11
2.6045109284
 21
1.779328885
 31
0.0
  0
LINE
  5
23E
330
1F
100
AcDbEntity
  8
0
  6
Continuous
 62
     7
370
    25
100
AcDbLine
 10
2.1095109284
 20
1.779328885
 30
0.0
 11
2.2056171359
 21
1.779328885
 31
0.0
  0
LINE
  5
23F
330
1F
100
AcDbEntity
  8
0
  6
Continuous
 62
     7
370
    25
100
AcDbLine
 10
2.1095109284
 20
1.7392496285
 30
0.0
 11
2.6045109284
 21
1.7392496285
 31
0.0
  0
LINE
  5
240
330
1F
100
AcDbEntity
  8
0
  6
Continuous
 62
     7
370
    25
100
AcDbLine
 10
2.1190109284
 20
1.7292496285
 30
0.0
 11
2.5950109284
 21
1.7292496285
 31
0.0
  0
LINE
  5
241
330
1F
100
AcDbEntity
  8
0
  6
Continuous
 62
     7
370
    25
100
AcDbLine
 10
2.1440109284
 20
1.6342496285
 30
0.0
 11
2.5700109284
 21
1.6342496285
 31
0.0
  0
LINE
  5
242
330
1F
100
AcDbEntity
  8
0
  6
Continuous
 62
     7
370
    25
100
AcDbLine
 10
2.1340109284
 20
1.6442496285
 30
0.0
 11
2.5800109284
 21
1.6442496285
 31
0.0
  0
LINE
  5
243
330
1F
100
AcDbEntity
  8
0
  6
Continuous
 62
     7
370
    25
100
AcDbLine
 10
2.1960109284
 20
1.6042496285
 30
0.0
 11
2.5180109284
 21
1.6042496285
 31
0.0
  0
LINE
  5
244
330
1F
100
AcDbEntity
  8
0
  6
Continuous
 62
     7
370
    25
100
AcDbLine
 10
2.2508823506
 20
2.634328885
 30
0.0
 11
2.1835109284
 21
2.634328885
 31
0.0
  0
LINE
  5
245
330
1F
100
AcDbEntity
  8
0
  6
Continuous
 62
     7
370
    25
100
AcDbLine
 10
2.5305109284
 20
2.634328885
 30
0.0
 11
2.2508823506
 21
2.634328885
 31
0.0
  0
LINE
  5
246
330
1F
100
AcDbEntity
  8
0
  6
Continuous
 62
     8
370
    25
100
AcDbLine
 10
2.0695109284
 20
3.190328885
 30
0.0
 11
2.0760109284
 21
3.190328885
 31
0.0
  0
LINE
  5
247
330
1F
100
AcDbEntity
  8
0
  6
Continuous
 62
     8
370
    25
100
AcDbLine
 10
3.4820109284
 20
4.2662496285
 30
0.0
 11
1.2320109284
 21
4.2662496285
 31
0.0
  0
LINE
  5
248
330
1F
100
AcDbEntity
  8
0
  6
Continuous
 62
     8
370
    25
100
AcDbLine
 10
2.6380109284
 20
3.190328885
 30
0.0
 11
2.6578240097
 21
3.190328885
 31
0.0
  0
LINE
  5
249
330
1F
100
AcDbEntity
  8
0
  6
Continuous
 62
     8
370
    25
100
AcDbLine
 10
2.6760340248
 20
3.190328885
 30
0.0
 11
2.6790109284
 21
3.190328885
 31
0.0
  0
LINE
  5
24A
330
1F
100
AcDbEntity
  8
0
  6
Continuous
 62
     8
370
    25
100
AcDbLine
 10
1.2945109284
 20
3.304328885
 30
0.0
 11
3.4195109284
 21
3.304328885
 31
0.0
  0
LINE
  5
24B
330
1F
100
AcDbEntity
  8
0
  6
Continuous
 62
     8
370
    25
100
AcDbLine
 10
2.5800109284
 20
1.7142496285
 30
0.0
 11
2.1340109284
 21
1.7142496285
 31
0.0
  0
LINE
  5
24C
330
1F
100
AcDbEntity
  8
0
  6
Continuous
 62
     8
370
    25
100
AcDbLine
 10
2.1763816392
 20
1.618569567
 30
0.0
 11
2.5376402176
 21
1.618569567
 31
0.0
  0
CIRCLE
  5
24D
330
1F
100
AcDbEntity
  8
0
  6
Continuous
 62
     7
370
    25
100
AcDbCircle
 10
2.3570109284
 20
7.5089301634
 30
0.0
 40
0.9930606897707954
  0
CIRCLE
  5
24E
330
1F
100
AcDbEntity
  8
0
  6
Continuous
 62
     7
370
    25
100
AcDbCircle
 10
2.3570109284
 20
7.5089301634
 30
0.0
 40
1.014999999999999
  0
CIRCLE
  5
24F
330
1F
100
AcDbEntity
  8
0
  6
Continuous
 62
     7
370
    25
100
AcDbCircle
 10
2.3570109284
 20
7.5089301634
 30
0.0
 40
1.125
  0
CIRCLE
  5
250
330
1F
100
AcDbEntity
  8
0
  6
Continuous
 62
     7
370
    25
100
AcDbCircle
 10
2.3570109284
 20
7.5089301634
 30
0.0
 40
1.085000000000001
  0
LINE
  5
251
330
1F
100
AcDbEntity
  8
0
  6
Continuous
 62
     7
370
    25
100
AcDbLine
 10
2.36352136
 20
8.6339113252
 30
0.0
 11
2.3855158845
 21
8.6560760641
 31
0.0
  0
ARC
  5
252
330
1F
100
AcDbEntity
  8
0
  6
Continuous
 62
     7
370
    25
100
AcDbCircle
 10
2.3570109284
 20
7.5089301634
 30
0.0
 40
1.147499999999999
100
AcDbArc
 50
87.865123892
 51
88.5765736842
  0
LINE
  5
253
330
1F
100
AcDbEntity
  8
0
  6
Continuous
 62
     7
370
    25
100
AcDbLine
 10
2.3997575938
 20
8.6556336877
 30
0.0
 11
2.4203340801
 21
8.6321466067
 31
0.0
  0
LINE
  5
254
330
1F
100
AcDbEntity
  8
0
  6
Continuous
 62
     7
370
    25
100
AcDbLine
 10
2.2068908841
 20
8.6238691628
 30
0.0
 11
2.225586624
 21
8.6488792422
 31
0.0
  0
ARC
  5
255
330
1F
100
AcDbEntity
  8
0
  6
Continuous
 62
     7
370
    25
100
AcDbCircle
 10
2.3570109284
 20
7.5089301634
 30
0.0
 40
1.1475
100
AcDbArc
 50
95.865123892
 51
96.5765736842
  0
LINE
  5
256
330
1F
100
AcDbEntity
  8
0
  6
Continuous
 62
     7
370
    25
100
AcDbLine
 10
2.2397513008
 20
8.6504232338
 30
0.0
 11
2.263396308
 21
8.6300284209
 31
0.0
  0
ARC
  5
257
330
1F
100
AcDbEntity
  8
0
  6
Continuous
 62
     7
370
    25
100
AcDbCircle
 10
2.3570109284
 20
7.5089301634
 30
0.0
 40
1.1475
100
AcDbArc
 50
91.865123892
 51
92.5765736842
  0
LINE
  5
258
330
1F
100
AcDbEntity
  8
0
  6
Continuous
 62
     7
370
    25
100
AcDbLine
 10
2.3196634708
 20
8.6558222322
 30
0.0
 11
2.3418282097
 21
8.6338277077
 31
0.0
  0
LINE
  5
259
330
1F
100
AcDbEntity
  8
0
  6
Continuous
 62
     7
370
    25
100
AcDbLine
 10
2.2850307821
 20
8.6316250724
 30
0.0
 11
2.305425595
 21
8.6552700796
 31
0.0
  0
LINE
  5
25A
330
1F
100
AcDbEntity
  8
0
  6
Continuous
 62
     7
370
    25
100
AcDbLine
 10
2.4419802198
 20
8.6307167829
 30
0.0
 11
2.4654673008
 21
8.6512932692
 31
0.0
  0
ARC
  5
25B
330
1F
100
AcDbEntity
  8
0
  6
Continuous
 62
     7
370
    25
100
AcDbCircle
 10
2.3570109284
 20
7.5089301634
 30
0.0
 40
1.1475
100
AcDbArc
 50
83.865123892
 51
84.5765736842
  0
LINE
  5
25C
330
1F
100
AcDbEntity
  8
0
  6
Continuous
 62
     7
370
    25
100
AcDbLine
 10
2.4796434593
 20
8.6498585189
 30
0.0
 11
2.4985314464
 21
8.6249933082
 31
0.0
  0
LINE
  5
25D
330
1F
100
AcDbEntity
  8
0
  6
Continuous
 62
     7
370
    25
100
AcDbLine
 10
2.7478949511
 20
8.5638399609
 30
0.0
 11
2.7761438307
 21
8.5771454321
 31
0.0
  0
ARC
  5
25E
330
1F
100
AcDbEntity
  8
0
  6
Continuous
 62
     7
370
    25
100
AcDbCircle
 10
2.3570109284
 20
7.5089301634
 30
0.0
 40
1.1475
100
AcDbArc
 50
67.865123892
 51
68.5765736842
  0
LINE
  5
25F
330
1F
100
AcDbEntity
  8
0
  6
Continuous
 62
     7
370
    25
100
AcDbLine
 10
2.7893753581
 20
8.5718587828
 30
0.0
 11
2.8006778757
 21
8.5427505733
 31
0.0
  0
LINE
  5
260
330
1F
100
AcDbEntity
  8
0
  6
Continuous
 62
     7
370
    25
100
AcDbLine
 10
2.5972758269
 20
8.6079741928
 30
0.0
 11
2.6233980267
 21
8.6250816603
 31
0.0
  0
ARC
  5
261
330
1F
100
AcDbEntity
  8
0
  6
Continuous
 62
     7
370
    25
100
AcDbCircle
 10
2.3570109284
 20
7.5089301634
 30
0.0
 40
1.1475
100
AcDbArc
 50
75.865123892
 51
76.5765736842
  0
LINE
  5
262
330
1F
100
AcDbEntity
  8
0
  6
Continuous
 62
     7
370
    25
100
AcDbLine
 10
2.6372365452
 20
8.621687933
 30
0.0
 11
2.6524801472
 21
8.594436009
 31
0.0
  0
LINE
  5
263
330
1F
100
AcDbEntity
  8
0
  6
Continuous
 62
     7
370
    25
100
AcDbLine
 10
2.129482356
 20
8.6106813825
 30
0.0
 11
2.146387939
 21
8.6369346875
 31
0.0
  0
LINE
  5
264
330
1F
100
AcDbEntity
  8
0
  6
Continuous
 62
     7
370
    25
100
AcDbLine
 10
2.160410408
 20
8.639462996
 30
0.0
 11
2.1854204874
 21
8.6207672561
 31
0.0
  0
ARC
  5
265
330
1F
100
AcDbEntity
  8
0
  6
Continuous
 62
     7
370
    25
100
AcDbCircle
 10
2.3570109284
 20
7.5089301634
 30
0.0
 40
1.147500000000001
100
AcDbArc
 50
99.865123892
 51
100.5765736842
  0
LINE
  5
266
330
1F
100
AcDbEntity
  8
0
  6
Continuous
 62
     7
370
    25
100
AcDbLine
 10
2.0531823242
 20
8.592125981
 30
0.0
 11
2.0682153881
 21
8.6194946082
 31
0.0
  0
LINE
  5
267
330
1F
100
AcDbEntity
  8
0
  6
Continuous
 62
     7
370
    25
100
AcDbLine
 10
2.0820273331
 20
8.6229949158
 30
0.0
 11
2.1082806381
 21
8.6060893327
 31
0.0
  0
ARC
  5
268
330
1F
100
AcDbEntity
  8
0
  6
Continuous
 62
     7
370
    25
100
AcDbCircle
 10
2.3570109284
 20
7.5089301634
 30
0.0
 40
1.1475
100
AcDbArc
 50
103.865123892
 51
104.5765736842
  0
LINE
  5
269
330
1F
100
AcDbEntity
  8
0
  6
Continuous
 62
     7
370
    25
100
AcDbLine
 10
1.9783625148
 20
8.5682933584
 30
0.0
 11
1.99144982
 21
8.5966439705
 31
0.0
  0
LINE
  5
26A
330
1F
100
AcDbEntity
  8
0
  6
Continuous
 62
     7
370
    25
100
AcDbLine
 10
2.0049839507
 20
8.6010992241
 30
0.0
 11
2.0323525778
 21
8.5860661602
 31
0.0
  0
ARC
  5
26B
330
1F
100
AcDbEntity
  8
0
  6
Continuous
 62
     7
370
    25
100
AcDbCircle
 10
2.3570109284
 20
7.5089301634
 30
0.0
 40
1.147500000000001
100
AcDbArc
 50
107.865123892
 51
108.5765736842
  0
LINE
  5
26C
330
1F
100
AcDbEntity
  8
0
  6
Continuous
 62
     7
370
    25
100
AcDbLine
 10
2.5589318715
 20
8.6385248619
 30
0.0
 11
2.576039339
 21
8.6124026621
 31
0.0
  0
ARC
  5
26D
330
1F
100
AcDbEntity
  8
0
  6
Continuous
 62
     7
370
    25
100
AcDbCircle
 10
2.3570109284
 20
7.5089301634
 30
0.0
 40
1.1475
100
AcDbArc
 50
79.865123892
 51
80.5765736842
  0
LINE
  5
26E
330
1F
100
AcDbEntity
  8
0
  6
Continuous
 62
     7
370
    25
100
AcDbLine
 10
2.5200251177
 20
8.6220570089
 30
0.0
 11
2.5448903285
 21
8.640944996
 31
0.0
  0
LINE
  5
26F
330
1F
100
AcDbEntity
  8
0
  6
Continuous
 62
     7
370
    25
100
AcDbLine
 10
1.9053874424
 20
8.5392996248
 30
0.0
 11
1.9164652288
 21
8.5684941005
 31
0.0
  0
LINE
  5
270
330
1F
100
AcDbEntity
  8
0
  6
Continuous
 62
     7
370
    25
100
AcDbLine
 10
1.9296556083
 20
8.5738825945
 30
0.0
 11
1.9580062204
 21
8.5607952893
 31
0.0
  0
ARC
  5
271
330
1F
100
AcDbEntity
  8
0
  6
Continuous
 62
     7
370
    25
100
AcDbCircle
 10
2.3570109284
 20
7.5089301634
 30
0.0
 40
1.1475
100
AcDbArc
 50
111.865123892
 51
112.5765736842
  0
LINE
  5
272
330
1F
100
AcDbEntity
  8
0
  6
Continuous
 62
     7
370
    25
100
AcDbLine
 10
2.6733559897
 20
8.5885369447
 30
0.0
 11
2.7006079137
 21
8.6037805467
 31
0.0
  0
LINE
  5
273
330
1F
100
AcDbEntity
  8
0
  6
Continuous
 62
     7
370
    25
100
AcDbLine
 10
2.7141759878
 20
8.5994297601
 30
0.0
 11
2.727481459
 21
8.5711808805
 31
0.0
  0
ARC
  5
274
330
1F
100
AcDbEntity
  8
0
  6
Continuous
 62
     7
370
    25
100
AcDbCircle
 10
2.3570109284
 20
7.5089301634
 30
0.0
 40
1.1475
100
AcDbArc
 50
71.865123892
 51
72.5765736842
  0
LINE
  5
275
330
1F
100
AcDbEntity
  8
0
  6
Continuous
 62
     7
370
    25
100
AcDbLine
 10
2.8909059624
 20
8.4991731097
 30
0.0
 11
2.9207316895
 21
8.5084176088
 31
0.0
  0
ARC
  5
276
330
1F
100
AcDbEntity
  8
0
  6
Continuous
 62
     7
370
    25
100
AcDbCircle
 10
2.3570109284
 20
7.5089301634
 30
0.0
 40
1.1475
100
AcDbArc
 50
59.865123892
 51
60.5765736842
  0
LINE
  5
277
330
1F
100
AcDbEntity
  8
0
  6
Continuous
 62
     7
370
    25
100
AcDbLine
 10
2.9330986893
 20
8.5013409361
 30
0.0
 11
2.9402401317
 21
8.4709429993
 31
0.0
  0
LINE
  5
278
330
1F
100
AcDbEntity
  8
0
  6
Continuous
 62
     7
370
    25
100
AcDbLine
 10
1.8346126342
 20
8.5052860347
 30
0.0
 11
1.8436269321
 21
8.5351821414
 31
0.0
  0
ARC
  5
279
330
1F
100
AcDbEntity
  8
0
  6
Continuous
 62
     7
370
    25
100
AcDbCircle
 10
2.3570109284
 20
7.5089301634
 30
0.0
 40
1.1475
100
AcDbArc
 50
115.865123892
 51
116.5765736842
  0
LINE
  5
27A
330
1F
100
AcDbEntity
  8
0
  6
Continuous
 62
     7
370
    25
100
AcDbLine
 10
1.8564092981
 20
8.5414776237
 30
0.0
 11
1.8856037738
 21
8.5303998373
 31
0.0
  0
ARC
  5
27B
330
1F
100
AcDbEntity
  8
0
  6
Continuous
 62
     7
370
    25
100
AcDbCircle
 10
2.3570109284
 20
7.5089301634
 30
0.0
 40
1.1475
100
AcDbArc
 50
63.865123892
 51
64.5765736842
  0
LINE
  5
27C
330
1F
100
AcDbEntity
  8
0
  6
Continuous
 62
     7
370
    25
100
AcDbLine
 10
2.8624682925
 20
8.5391093241
 30
0.0
 11
2.8717127916
 21
8.509283597
 31
0.0
  0
LINE
  5
27D
330
1F
100
AcDbEntity
  8
0
  6
Continuous
 62
     7
370
    25
100
AcDbLine
 10
2.8205295649
 20
8.5340035626
 30
0.0
 11
2.8496377744
 21
8.5453060801
 31
0.0
  0
ARC
  5
27E
330
1F
100
AcDbEntity
  8
0
  6
Continuous
 62
     7
370
    25
100
AcDbCircle
 10
2.3570109284
 20
7.5089301634
 30
0.0
 40
1.147500000000001
100
AcDbArc
 50
119.865123892
 51
120.5765736842
  0
LINE
  5
27F
330
1F
100
AcDbEntity
  8
0
  6
Continuous
 62
     7
370
    25
100
AcDbLine
 10
1.7856018687
 20
8.5040421855
 30
0.0
 11
1.8154979754
 21
8.4950278877
 31
0.0
  0
LINE
  5
280
330
1F
100
AcDbEntity
  8
0
  6
Continuous
 62
     7
370
    25
100
AcDbLine
 10
1.766382898
 20
8.466418299
 30
0.0
 11
1.7732897905
 21
8.4968703859
 31
0.0
  0
LINE
  5
281
330
1F
100
AcDbEntity
  8
0
  6
Continuous
 62
     7
370
    25
100
AcDbLine
 10
3.0235253142
 20
8.415232306
 30
0.0
 11
3.054347365
 21
8.4202358993
 31
0.0
  0
ARC
  5
282
330
1F
100
AcDbEntity
  8
0
  6
Continuous
 62
     7
370
    25
100
AcDbCircle
 10
2.3570109284
 20
7.5089301634
 30
0.0
 40
1.1475
100
AcDbArc
 50
51.865123892
 51
52.5765736842
  0
LINE
  5
283
330
1F
100
AcDbEntity
  8
0
  6
Continuous
 62
     7
370
    25
100
AcDbLine
 10
3.0656091275
 20
8.4115069426
 30
0.0
 11
3.0684504947
 21
8.3804109397
 31
0.0
  0
ARC
  5
284
330
1F
100
AcDbEntity
  8
0
  6
Continuous
 62
     7
370
    25
100
AcDbCircle
 10
2.3570109284
 20
7.5089301634
 30
0.0
 40
1.1475
100
AcDbArc
 50
55.865123892
 51
56.5765736842
  0
LINE
  5
285
330
1F
100
AcDbEntity
  8
0
  6
Continuous
 62
     7
370
    25
100
AcDbLine
 10
3.0009224445
 20
8.4587376226
 30
0.0
 11
3.0059260378
 21
8.4279155718
 31
0.0
  0
LINE
  5
286
330
1F
100
AcDbEntity
  8
0
  6
Continuous
 62
     7
370
    25
100
AcDbLine
 10
2.958681277
 20
8.4595182927
 30
0.0
 11
2.9890792138
 21
8.4666597352
 31
0.0
  0
LINE
  5
287
330
1F
100
AcDbEntity
  8
0
  6
Continuous
 62
     7
370
    25
100
AcDbLine
 10
1.6388742565
 20
8.3749005558
 30
0.0
 11
1.6414758202
 21
8.4060175387
 31
0.0
  0
LINE
  5
288
330
1F
100
AcDbEntity
  8
0
  6
Continuous
 62
     7
370
    25
100
AcDbLine
 10
1.6526699565
 20
8.414833053
 30
0.0
 11
1.6835296641
 21
8.4100672155
 31
0.0
  0
ARC
  5
289
330
1F
100
AcDbEntity
  8
0
  6
Continuous
 62
     7
370
    25
100
AcDbCircle
 10
2.3570109284
 20
7.5089301634
 30
0.0
 40
1.1475
100
AcDbArc
 50
127.865123892
 51
128.5765736842
  0
LINE
  5
28A
330
1F
100
AcDbEntity
  8
0
  6
Continuous
 62
     7
370
    25
100
AcDbLine
 10
1.7010306422
 20
8.4228857773
 30
0.0
 11
1.7057964797
 21
8.453745485
 31
0.0
  0
ARC
  5
28B
330
1F
100
AcDbEntity
  8
0
  6
Continuous
 62
     7
370
    25
100
AcDbCircle
 10
2.3570109284
 20
7.5089301634
 30
0.0
 40
1.1475
100
AcDbArc
 50
123.865123892
 51
124.5765736842
  0
LINE
  5
28C
330
1F
100
AcDbEntity
  8
0
  6
Continuous
 62
     7
370
    25
100
AcDbLine
 10
1.7175782868
 20
8.4617586616
 30
0.0
 11
1.7480303737
 21
8.4548517691
 31
0.0
  0
LINE
  5
28D
330
1F
100
AcDbEntity
  8
0
  6
Continuous
 62
     7
370
    25
100
AcDbLine
 10
1.5911931046
 20
8.3634939766
 30
0.0
 11
1.6223100875
 21
8.3608924129
 31
0.0
  0
LINE
  5
28E
330
1F
100
AcDbEntity
  8
0
  6
Continuous
 62
     7
370
    25
100
AcDbLine
 10
1.5802165604
 20
8.3226964135
 30
0.0
 11
1.5806411758
 21
8.353919073
 31
0.0
  0
ARC
  5
28F
330
1F
100
AcDbEntity
  8
0
  6
Continuous
 62
     7
370
    25
100
AcDbCircle
 10
2.3570109284
 20
7.5089301634
 30
0.0
 40
1.1475
100
AcDbArc
 50
131.865123892
 51
132.5765736842
  0
LINE
  5
290
330
1F
100
AcDbEntity
  8
0
  6
Continuous
 62
     7
370
    25
100
AcDbLine
 10
3.0851221603
 20
8.3665309062
 30
0.0
 11
3.1162181631
 21
8.3693722735
 31
0.0
  0
LINE
  5
291
330
1F
100
AcDbEntity
  8
0
  6
Continuous
 62
     7
370
    25
100
AcDbLine
 10
3.1268435913
 20
8.3598789993
 30
0.0
 11
3.1275088896
 21
8.3286605409
 31
0.0
  0
ARC
  5
292
330
1F
100
AcDbEntity
  8
0
  6
Continuous
 62
     7
370
    25
100
AcDbCircle
 10
2.3570109284
 20
7.5089301634
 30
0.0
 40
1.1475
100
AcDbArc
 50
47.865123892
 51
48.5765736842
  0
LINE
  5
293
330
1F
100
AcDbEntity
  8
0
  6
Continuous
 62
     7
370
    25
100
AcDbLine
 10
1.5253433283
 20
8.2665276839
 30
0.0
 11
1.5235889268
 21
8.2977039062
 31
0.0
  0
ARC
  5
294
330
1F
100
AcDbEntity
  8
0
  6
Continuous
 62
     7
370
    25
100
AcDbCircle
 10
2.3570109284
 20
7.5089301634
 30
0.0
 40
1.1475
100
AcDbArc
 50
135.865123892
 51
136.5765736842
  0
LINE
  5
295
330
1F
100
AcDbEntity
  8
0
  6
Continuous
 62
     7
370
    25
100
AcDbLine
 10
1.5334472401
 20
8.3079915512
 30
0.0
 11
1.5646698996
 21
8.3075669357
 31
0.0
  0
LINE
  5
296
330
1F
100
AcDbEntity
  8
0
  6
Continuous
 62
     7
370
    25
100
AcDbLine
 10
3.2377808209
 20
8.2444576248
 30
0.0
 11
3.234094875
 21
8.2134503907
 31
0.0
  0
ARC
  5
297
330
1F
100
AcDbEntity
  8
0
  6
Continuous
 62
     7
370
    25
100
AcDbCircle
 10
2.3570109284
 20
7.5089301634
 30
0.0
 40
1.1475
100
AcDbArc
 50
39.865123892
 51
40.5765736842
  0
LINE
  5
298
330
1F
100
AcDbEntity
  8
0
  6
Continuous
 62
     7
370
    25
100
AcDbLine
 10
3.1973911866
 20
8.2568512968
 30
0.0
 11
3.2285800071
 21
8.2553372849
 31
0.0
  0
LINE
  5
299
330
1F
100
AcDbEntity
  8
0
  6
Continuous
 62
     7
370
    25
100
AcDbLine
 10
3.1431717216
 20
8.3136513619
 30
0.0
 11
3.1743901799
 21
8.3143166602
 31
0.0
  0
ARC
  5
29A
330
1F
100
AcDbEntity
  8
0
  6
Continuous
 62
     7
370
    25
100
AcDbCircle
 10
2.3570109284
 20
7.5089301634
 30
0.0
 40
1.1475
100
AcDbArc
 50
43.865123892
 51
44.5765736842
  0
LINE
  5
29B
330
1F
100
AcDbEntity
  8
0
  6
Continuous
 62
     7
370
    25
100
AcDbLine
 10
3.1843275077
 20
8.3041053187
 30
0.0
 11
3.1828134958
 21
8.2729164981
 31
0.0
  0
LINE
  5
29C
330
1F
100
AcDbEntity
  8
0
  6
Continuous
 62
     7
370
    25
100
AcDbLine
 10
1.427999864
 20
8.1434090381
 30
0.0
 11
1.4219236447
 21
8.17403769
 31
0.0
  0
ARC
  5
29D
330
1F
100
AcDbEntity
  8
0
  6
Continuous
 62
     7
370
    25
100
AcDbCircle
 10
2.3570109284
 20
7.5089301634
 30
0.0
 40
1.147499999999999
100
AcDbArc
 50
143.865123892
 51
144.5765736842
  0
LINE
  5
29E
330
1F
100
AcDbEntity
  8
0
  6
Continuous
 62
     7
370
    25
100
AcDbLine
 10
1.4302542541
 20
8.1855972283
 30
0.0
 11
1.4612321518
 21
8.1895220995
 31
0.0
  0
LINE
  5
29F
330
1F
100
AcDbEntity
  8
0
  6
Continuous
 62
     7
370
    25
100
AcDbLine
 10
3.2475164034
 20
8.1964074351
 30
0.0
 11
3.2785236374
 21
8.1927214891
 31
0.0
  0
ARC
  5
2A0
330
1F
100
AcDbEntity
  8
0
  6
Continuous
 62
     7
370
    25
100
AcDbCircle
 10
2.3570109284
 20
7.5089301634
 30
0.0
 40
1.1475
100
AcDbArc
 50
35.865123892
 51
36.5765736842
  0
LINE
  5
2A1
330
1F
100
AcDbEntity
  8
0
  6
Continuous
 62
     7
370
    25
100
AcDbLine
 10
3.2869431118
 20
8.181226515
 30
0.0
 11
3.2811031893
 21
8.1505519316
 31
0.0
  0
ARC
  5
2A2
330
1F
100
AcDbEntity
  8
0
  6
Continuous
 62
     7
370
    25
100
AcDbCircle
 10
2.3570109284
 20
7.5089301634
 30
0.0
 40
1.1475
100
AcDbArc
 50
139.865123892
 51
140.5765736842
  0
LINE
  5
2A3
330
1F
100
AcDbEntity
  8
0
  6
Continuous
 62
     7
370
    25
100
AcDbLine
 10
1.4745218973
 20
8.2066680153
 30
0.0
 11
1.470597026
 21
8.2376459131
 31
0.0
  0
LINE
  5
2A4
330
1F
100
AcDbEntity
  8
0
  6
Continuous
 62
     7
370
    25
100
AcDbLine
 10
1.4797136951
 20
8.248596179
 30
0.0
 11
1.5108899174
 21
8.2503505805
 31
0.0
  0
LINE
  5
2A5
330
1F
100
AcDbEntity
  8
0
  6
Continuous
 62
     7
370
    25
100
AcDbLine
 10
3.2933031671
 20
8.1326142532
 30
0.0
 11
3.3239777505
 21
8.1267743307
 31
0.0
  0
ARC
  5
2A6
330
1F
100
AcDbEntity
  8
0
  6
Continuous
 62
     7
370
    25
100
AcDbCircle
 10
2.3570109284
 20
7.5089301634
 30
0.0
 40
1.1475
100
AcDbArc
 50
31.865123892
 51
32.5765736842
  0
LINE
  5
2A7
330
1F
100
AcDbEntity
  8
0
  6
Continuous
 62
     7
370
    25
100
AcDbLine
 10
3.3315748665
 20
8.1147200449
 30
0.0
 11
3.323609419
 21
8.0845275556
 31
0.0
  0
ARC
  5
2A8
330
1F
100
AcDbEntity
  8
0
  6
Continuous
 62
     7
370
    25
100
AcDbCircle
 10
2.3570109284
 20
7.5089301634
 30
0.0
 40
1.1475
100
AcDbArc
 50
147.865123892
 51
148.5765736842
  0
LINE
  5
2A9
330
1F
100
AcDbEntity
  8
0
  6
Continuous
 62
     7
370
    25
100
AcDbLine
 10
1.3853098784
 20
8.1193016237
 30
0.0
 11
1.4159385304
 21
8.1253778431
 31
0.0
  0
LINE
  5
2AA
330
1F
100
AcDbEntity
  8
0
  6
Continuous
 62
     7
370
    25
100
AcDbLine
 10
1.3860038794
 20
8.0770589435
 30
0.0
 11
1.3778059146
 21
8.10718913
 31
0.0
  0
LINE
  5
2AB
330
1F
100
AcDbEntity
  8
0
  6
Continuous
 62
     7
370
    25
100
AcDbLine
 10
3.3345284091
 20
8.0657825451
 30
0.0
 11
3.3647208983
 21
8.0578170976
 31
0.0
  0
ARC
  5
2AC
330
1F
100
AcDbEntity
  8
0
  6
Continuous
 62
     7
370
    25
100
AcDbCircle
 10
2.3570109284
 20
7.5089301634
 30
0.0
 40
1.1475
100
AcDbArc
 50
27.865123892
 51
28.5765736842
  0
LINE
  5
2AD
330
1F
100
AcDbEntity
  8
0
  6
Continuous
 62
     7
370
    25
100
AcDbLine
 10
3.3714586437
 20
8.0452622274
 30
0.0
 11
3.3614064781
 21
8.0156989271
 31
0.0
  0
ARC
  5
2AE
330
1F
100
AcDbEntity
  8
0
  6
Continuous
 62
     7
370
    25
100
AcDbCircle
 10
2.3570109284
 20
7.5089301634
 30
0.0
 40
1.1475
100
AcDbArc
 50
151.865123892
 51
152.5765736842
  0
LINE
  5
2AF
330
1F
100
AcDbEntity
  8
0
  6
Continuous
 62
     7
370
    25
100
AcDbLine
 10
1.3450995326
 20
8.0500323508
 30
0.0
 11
1.3752297191
 21
8.0582303155
 31
0.0
  0
LINE
  5
2B0
330
1F
100
AcDbEntity
  8
0
  6
Continuous
 62
     7
370
    25
100
AcDbLine
 10
1.3487385434
 20
8.0079409826
 30
0.0
 11
1.3384587729
 21
8.0374259123
 31
0.0
  0
LINE
  5
2B1
330
1F
100
AcDbEntity
  8
0
  6
Continuous
 62
     7
370
    25
100
AcDbLine
 10
1.3163854091
 20
7.9363918912
 30
0.0
 11
1.304073915
 21
7.9650879166
 31
0.0
  0
ARC
  5
2B2
330
1F
100
AcDbEntity
  8
0
  6
Continuous
 62
     7
370
    25
100
AcDbCircle
 10
2.3570109284
 20
7.5089301634
 30
0.0
 40
1.1475
100
AcDbArc
 50
155.865123892
 51
156.5765736842
  0
LINE
  5
2B3
330
1F
100
AcDbEntity
  8
0
  6
Continuous
 62
     7
370
    25
100
AcDbLine
 10
1.3098191174
 20
7.9781268823
 30
0.0
 11
1.3393040471
 21
7.9884066528
 31
0.0
  0
ARC
  5
2B4
330
1F
100
AcDbEntity
  8
0
  6
Continuous
 62
     7
370
    25
100
AcDbCircle
 10
2.3570109284
 20
7.5089301634
 30
0.0
 40
1.1475
100
AcDbArc
 50
23.865123892
 51
24.5765736842
  0
LINE
  5
2B5
330
1F
100
AcDbEntity
  8
0
  6
Continuous
 62
     7
370
    25
100
AcDbLine
 10
3.4064001336
 20
7.9731914541
 30
0.0
 11
3.3943102229
 21
7.9444013721
 31
0.0
  0
LINE
  5
2B6
330
1F
100
AcDbEntity
  8
0
  6
Continuous
 62
     7
370
    25
100
AcDbLine
 10
3.3709912841
 20
7.9962379083
 30
0.0
 11
3.4005545845
 21
7.9861857426
 31
0.0
  0
LINE
  5
2B7
330
1F
100
AcDbEntity
  8
0
  6
Continuous
 62
     7
370
    25
100
AcDbLine
 10
1.2891020978
 20
7.8627602492
 30
0.0
 11
1.2748188603
 21
7.8905275661
 31
0.0
  0
ARC
  5
2B8
330
1F
100
AcDbEntity
  8
0
  6
Continuous
 62
     7
370
    25
100
AcDbCircle
 10
2.3570109284
 20
7.5089301634
 30
0.0
 40
1.1475
100
AcDbArc
 50
159.865123892
 51
160.5765736842
  0
LINE
  5
2B9
330
1F
100
AcDbEntity
  8
0
  6
Continuous
 62
     7
370
    25
100
AcDbLine
 10
1.2796405154
 20
7.9039355346
 30
0.0
 11
1.3083365408
 21
7.9162470288
 31
0.0
  0
ARC
  5
2BA
330
1F
100
AcDbEntity
  8
0
  6
Continuous
 62
     7
370
    25
100
AcDbCircle
 10
2.3570109284
 20
7.5089301634
 30
0.0
 40
1.147500000000001
100
AcDbArc
 50
19.865123892
 51
20.5765736842
  0
LINE
  5
2BB
330
1F
100
AcDbEntity
  8
0
  6
Continuous
 62
     7
370
    25
100
AcDbLine
 10
3.4362291048
 20
7.8988588463
 30
0.0
 11
3.4221603499
 21
7.8709822451
 31
0.0
  0
LINE
  5
2BC
330
1F
100
AcDbEntity
  8
0
  6
Continuous
 62
     7
370
    25
100
AcDbLine
 10
3.4025141489
 20
7.924319157
 30
0.0
 11
3.4313042309
 21
7.9122292463
 31
0.0
  0
LINE
  5
2BD
330
1F
100
AcDbEntity
  8
0
  6
Continuous
 62
     7
370
    25
100
AcDbLine
 10
3.428943427
 20
7.8503766724
 30
0.0
 11
3.4568200283
 21
7.8363079175
 31
0.0
  0
ARC
  5
2BE
330
1F
100
AcDbEntity
  8
0
  6
Continuous
 62
     7
370
    25
100
AcDbCircle
 10
2.3570109284
 20
7.5089301634
 30
0.0
 40
1.1475
100
AcDbArc
 50
15.865123892
 51
16.5765736842
  0
LINE
  5
2BF
330
1F
100
AcDbEntity
  8
0
  6
Continuous
 62
     7
370
    25
100
AcDbLine
 10
3.4608002335
 20
7.8226265453
 30
0.0
 11
3.444821176
 21
7.7957992367
 31
0.0
  0
LINE
  5
2C0
330
1F
100
AcDbEntity
  8
0
  6
Continuous
 62
     7
370
    25
100
AcDbLine
 10
1.267021531
 20
7.7874047826
 30
0.0
 11
1.2508361366
 21
7.8141081114
 31
0.0
  0
ARC
  5
2C1
330
1F
100
AcDbEntity
  8
0
  6
Continuous
 62
     7
370
    25
100
AcDbCircle
 10
2.3570109284
 20
7.5089301634
 30
0.0
 40
1.1475
100
AcDbArc
 50
163.865123892
 51
164.5765736842
  0
LINE
  5
2C2
330
1F
100
AcDbEntity
  8
0
  6
Continuous
 62
     7
370
    25
100
AcDbLine
 10
1.2547107538
 20
7.8278197605
 30
0.0
 11
1.2824780707
 21
7.842102998
 31
0.0
  0
LINE
  5
2C3
330
1F
100
AcDbEntity
  8
0
  6
Continuous
 62
     7
370
    25
100
AcDbLine
 10
3.4501503577
 20
7.7747706946
 30
0.0
 11
3.4769776663
 21
7.7587916371
 31
0.0
  0
ARC
  5
2C4
330
1F
100
AcDbEntity
  8
0
  6
Continuous
 62
     7
370
    25
100
AcDbCircle
 10
2.3570109284
 20
7.5089301634
 30
0.0
 40
1.147500000000001
100
AcDbArc
 50
11.865123892
 51
12.5765736842
  0
LINE
  5
2C5
330
1F
100
AcDbEntity
  8
0
  6
Continuous
 62
     7
370
    25
100
AcDbLine
 10
3.4799938116
 20
7.744865947
 30
0.0
 11
3.4621822999
 21
7.7192186311
 31
0.0
  0
ARC
  5
2C6
330
1F
100
AcDbEntity
  8
0
  6
Continuous
 62
     7
370
    25
100
AcDbCircle
 10
2.3570109284
 20
7.5089301634
 30
0.0
 40
1.1475
100
AcDbArc
 50
167.865123892
 51
168.5765736842
  0
LINE
  5
2C7
330
1F
100
AcDbEntity
  8
0
  6
Continuous
 62
     7
370
    25
100
AcDbLine
 10
1.2502512829
 20
7.7106926156
 30
0.0
 11
1.2322425852
 21
7.7362018604
 31
0.0
  0
LINE
  5
2C8
330
1F
100
AcDbEntity
  8
0
  6
Continuous
 62
     7
370
    25
100
AcDbLine
 10
1.2351512878
 20
7.7501503883
 30
0.0
 11
1.2618546166
 21
7.7663357827
 31
0.0
  0
ARC
  5
2C9
330
1F
100
AcDbEntity
  8
0
  6
Continuous
 62
     7
370
    25
100
AcDbCircle
 10
2.3570109284
 20
7.5089301634
 30
0.0
 40
1.1475
100
AcDbArc
 50
7.865123892
 51
8.5765736842
  0
LINE
  5
2CA
330
1F
100
AcDbEntity
  8
0
  6
Continuous
 62
     7
370
    25
100
AcDbLine
 10
3.4937163301
 20
7.6659558933
 30
0.0
 11
3.4741591399
 21
7.6416135212
 31
0.0
  0
LINE
  5
2CB
330
1F
100
AcDbEntity
  8
0
  6
Continuous
 62
     7
370
    25
100
AcDbLine
 10
3.4660316231
 20
7.6978695686
 30
0.0
 11
3.4916789389
 21
7.6800580568
 31
0.0
  0
LINE
  5
2CC
330
1F
100
AcDbEntity
  8
0
  6
Continuous
 62
     7
370
    25
100
AcDbLine
 10
1.2388730566
 20
7.6329974823
 30
0.0
 11
1.2191287922
 21
7.6571883646
 31
0.0
  0
ARC
  5
2CD
330
1F
100
AcDbEntity
  8
0
  6
Continuous
 62
     7
370
    25
100
AcDbCircle
 10
2.3570109284
 20
7.5089301634
 30
0.0
 40
1.1475
100
AcDbArc
 50
171.865123892
 51
172.5765736842
  0
LINE
  5
2CE
330
1F
100
AcDbEntity
  8
0
  6
Continuous
 62
     7
370
    25
100
AcDbLine
 10
1.2210574092
 20
7.6713058154
 30
0.0
 11
1.246566654
 21
7.689314513
 31
0.0
  0
LINE
  5
2CF
330
1F
100
AcDbEntity
  8
0
  6
Continuous
 62
     7
370
    25
100
AcDbLine
 10
1.2329422856
 20
7.5546979054
 30
0.0
 11
1.2115586466
 21
7.5774525697
 31
0.0
  0
LINE
  5
2D0
330
1F
100
AcDbEntity
  8
0
  6
Continuous
 62
     7
370
    25
100
AcDbLine
 10
1.212497782
 20
7.5916701646
 30
0.0
 11
1.2366886643
 21
7.6114144289
 31
0.0
  0
ARC
  5
2D1
330
1F
100
AcDbEntity
  8
0
  6
Continuous
 62
     7
370
    25
100
AcDbCircle
 10
2.3570109284
 20
7.5089301634
 30
0.0
 40
1.1475
100
AcDbArc
 50
175.865123892
 51
176.5765736842
  0
ARC
  5
2D2
330
1F
100
AcDbEntity
  8
0
  6
Continuous
 62
     7
370
    25
100
AcDbCircle
 10
2.3570109284
 20
7.5089301634
 30
0.0
 40
1.1475
100
AcDbArc
 50
3.865123892
 51
4.5765736842
  0
LINE
  5
2D3
330
1F
100
AcDbEntity
  8
0
  6
Continuous
 62
     7
370
    25
100
AcDbLine
 10
3.501900934
 20
7.586280826
 30
0.0
 11
3.4806933462
 21
7.5633619914
 31
0.0
  0
LINE
  5
2D4
330
1F
100
AcDbEntity
  8
0
  6
Continuous
 62
     7
370
    25
100
AcDbLine
 10
3.476509851
 20
7.6200479487
 30
0.0
 11
3.5008522231
 21
7.6004907586
 31
0.0
  0
LINE
  5
2D5
330
1F
100
AcDbEntity
  8
0
  6
Continuous
 62
     7
370
    25
100
AcDbLine
 10
1.2095141078
 20
7.5116314129
 30
0.0
 11
1.2322687721
 21
7.5330150518
 31
0.0
  0
ARC
  5
2D6
330
1F
100
AcDbEntity
  8
0
  6
Continuous
 62
     7
370
    25
100
AcDbCircle
 10
2.3570109284
 20
7.5089301634
 30
0.0
 40
1.1475
100
AcDbArc
 50
179.865123892
 51
180.5765736842
  0
LINE
  5
2D7
330
1F
100
AcDbEntity
  8
0
  6
Continuous
 62
     7
370
    25
100
AcDbLine
 10
1.232487864
 20
7.4761753527
 30
0.0
 11
1.2095690294
 21
7.4973829406
 31
0.0
  0
LINE
  5
2D8
330
1F
100
AcDbEntity
  8
0
  6
Continuous
 62
     7
370
    25
100
AcDbLine
 10
3.504507749
 20
7.506228914
 30
0.0
 11
3.4817530847
 21
7.4848452751
 31
0.0
  0
ARC
  5
2D9
330
1F
100
AcDbEntity
  8
0
  6
Continuous
 62
     7
370
    25
100
AcDbCircle
 10
2.3570109284
 20
7.5089301634
 30
0.0
 40
1.1475
100
AcDbArc
 50
359.865123892
 51
0.5765736842
  0
LINE
  5
2DA
330
1F
100
AcDbEntity
  8
0
  6
Continuous
 62
     7
370
    25
100
AcDbLine
 10
3.4815339928
 20
7.5416849741
 30
0.0
 11
3.5044528274
 21
7.5204773863
 31
0.0
  0
LINE
  5
2DB
330
1F
100
AcDbEntity
  8
0
  6
Continuous
 62
     7
370
    25
100
AcDbLine
 10
3.5015240748
 20
7.4261901623
 30
0.0
 11
3.4773331924
 21
7.406445898
 31
0.0
  0
ARC
  5
2DC
330
1F
100
AcDbEntity
  8
0
  6
Continuous
 62
     7
370
    25
100
AcDbCircle
 10
2.3570109284
 20
7.5089301634
 30
0.0
 40
1.147500000000001
100
AcDbArc
 50
355.865123892
 51
356.5765736842
  0
LINE
  5
2DD
330
1F
100
AcDbEntity
  8
0
  6
Continuous
 62
     7
370
    25
100
AcDbLine
 10
3.4810795712
 20
7.4631624215
 30
0.0
 11
3.5024632102
 21
7.4404077572
 31
0.0
  0
LINE
  5
2DE
330
1F
100
AcDbEntity
  8
0
  6
Continuous
 62
     7
370
    25
100
AcDbLine
 10
1.2375120057
 20
7.3978123782
 30
0.0
 11
1.2131696337
 21
7.4173695683
 31
0.0
  0
ARC
  5
2DF
330
1F
100
AcDbEntity
  8
0
  6
Continuous
 62
     7
370
    25
100
AcDbCircle
 10
2.3570109284
 20
7.5089301634
 30
0.0
 40
1.1475
100
AcDbArc
 50
183.865123892
 51
184.5765736842
  0
LINE
  5
2E0
330
1F
100
AcDbEntity
  8
0
  6
Continuous
 62
     7
370
    25
100
AcDbLine
 10
1.2121209228
 20
7.4315795009
 30
0.0
 11
1.2333285106
 21
7.4544983355
 31
0.0
  0
LINE
  5
2E1
330
1F
100
AcDbEntity
  8
0
  6
Continuous
 62
     7
370
    25
100
AcDbLine
 10
1.2479902337
 20
7.3199907583
 30
0.0
 11
1.2223429179
 21
7.3378022701
 31
0.0
  0
ARC
  5
2E2
330
1F
100
AcDbEntity
  8
0
  6
Continuous
 62
     7
370
    25
100
AcDbCircle
 10
2.3570109284
 20
7.5089301634
 30
0.0
 40
1.1475
100
AcDbArc
 50
187.865123892
 51
188.5765736842
  0
LINE
  5
2E3
330
1F
100
AcDbEntity
  8
0
  6
Continuous
 62
     7
370
    25
100
AcDbLine
 10
1.2203055267
 20
7.3519044336
 30
0.0
 11
1.2398627168
 21
7.3762468057
 31
0.0
  0
ARC
  5
2E4
330
1F
100
AcDbEntity
  8
0
  6
Continuous
 62
     7
370
    25
100
AcDbCircle
 10
2.3570109284
 20
7.5089301634
 30
0.0
 40
1.1475
100
AcDbArc
 50
351.865123892
 51
352.5765736842
  0
LINE
  5
2E5
330
1F
100
AcDbEntity
  8
0
  6
Continuous
 62
     7
370
    25
100
AcDbLine
 10
3.4929644475
 20
7.3465545115
 30
0.0
 11
3.4674552027
 21
7.3285458139
 31
0.0
  0
LINE
  5
2E6
330
1F
100
AcDbEntity
  8
0
  6
Continuous
 62
     7
370
    25
100
AcDbLine
 10
3.4751488002
 20
7.3848628446
 30
0.0
 11
3.4948930645
 21
7.3606719623
 31
0.0
  0
ARC
  5
2E7
330
1F
100
AcDbEntity
  8
0
  6
Continuous
 62
     7
370
    25
100
AcDbCircle
 10
2.3570109284
 20
7.5089301634
 30
0.0
 40
1.1475
100
AcDbArc
 50
347.865123892
 51
348.5765736842
  0
LINE
  5
2E8
330
1F
100
AcDbEntity
  8
0
  6
Continuous
 62
     7
370
    25
100
AcDbLine
 10
3.478870569
 20
7.2677099386
 30
0.0
 11
3.4521672402
 21
7.2515245442
 31
0.0
  0
LINE
  5
2E9
330
1F
100
AcDbEntity
  8
0
  6
Continuous
 62
     7
370
    25
100
AcDbLine
 10
3.4637705739
 20
7.3071677113
 30
0.0
 11
3.4817792715
 21
7.2816584665
 31
0.0
  0
ARC
  5
2EA
330
1F
100
AcDbEntity
  8
0
  6
Continuous
 62
     7
370
    25
100
AcDbCircle
 10
2.3570109284
 20
7.5089301634
 30
0.0
 40
1.1475
100
AcDbArc
 50
191.865123892
 51
192.5765736842
  0
LINE
  5
2EB
330
1F
100
AcDbEntity
  8
0
  6
Continuous
 62
     7
370
    25
100
AcDbLine
 10
1.263871499
 20
7.2430896323
 30
0.0
 11
1.2370441905
 21
7.2590686898
 31
0.0
  0
LINE
  5
2EC
330
1F
100
AcDbEntity
  8
0
  6
Continuous
 62
     7
370
    25
100
AcDbLine
 10
1.2340280452
 20
7.2729943799
 30
0.0
 11
1.2518395569
 21
7.2986416958
 31
0.0
  0
ARC
  5
2ED
330
1F
100
AcDbEntity
  8
0
  6
Continuous
 62
     7
370
    25
100
AcDbCircle
 10
2.3570109284
 20
7.5089301634
 30
0.0
 40
1.1475
100
AcDbArc
 50
195.865123892
 51
196.5765736842
  0
LINE
  5
2EE
330
1F
100
AcDbEntity
  8
0
  6
Continuous
 62
     7
370
    25
100
AcDbLine
 10
1.2850784298
 20
7.1674836545
 30
0.0
 11
1.2572018285
 21
7.1815524094
 31
0.0
  0
LINE
  5
2EF
330
1F
100
AcDbEntity
  8
0
  6
Continuous
 62
     7
370
    25
100
AcDbLine
 10
1.2532216233
 20
7.1952337816
 30
0.0
 11
1.2692006808
 21
7.2220610901
 31
0.0
  0
ARC
  5
2F0
330
1F
100
AcDbEntity
  8
0
  6
Continuous
 62
     7
370
    25
100
AcDbCircle
 10
2.3570109284
 20
7.5089301634
 30
0.0
 40
1.1475
100
AcDbArc
 50
343.865123892
 51
344.5765736842
  0
LINE
  5
2F1
330
1F
100
AcDbEntity
  8
0
  6
Continuous
 62
     7
370
    25
100
AcDbLine
 10
3.459311103
 20
7.1900405664
 30
0.0
 11
3.4315437861
 21
7.1757573289
 31
0.0
  0
LINE
  5
2F2
330
1F
100
AcDbEntity
  8
0
  6
Continuous
 62
     7
370
    25
100
AcDbLine
 10
3.4470003258
 20
7.2304555443
 30
0.0
 11
3.4631857202
 21
7.2037522155
 31
0.0
  0
LINE
  5
2F3
330
1F
100
AcDbEntity
  8
0
  6
Continuous
 62
     7
370
    25
100
AcDbLine
 10
1.3115077079
 20
7.0935411699
 30
0.0
 11
1.2827176259
 21
7.1056310806
 31
0.0
  0
ARC
  5
2F4
330
1F
100
AcDbEntity
  8
0
  6
Continuous
 62
     7
370
    25
100
AcDbCircle
 10
2.3570109284
 20
7.5089301634
 30
0.0
 40
1.1475
100
AcDbArc
 50
199.865123892
 51
200.5765736842
  0
LINE
  5
2F5
330
1F
100
AcDbEntity
  8
0
  6
Continuous
 62
     7
370
    25
100
AcDbLine
 10
1.277792752
 20
7.1190014805
 30
0.0
 11
1.2918615069
 21
7.1468780818
 31
0.0
  0
LINE
  5
2F6
330
1F
100
AcDbEntity
  8
0
  6
Continuous
 62
     7
370
    25
100
AcDbLine
 10
3.3976364476
 20
7.0814684357
 30
0.0
 11
3.4099479418
 21
7.0527724103
 31
0.0
  0
ARC
  5
2F7
330
1F
100
AcDbEntity
  8
0
  6
Continuous
 62
     7
370
    25
100
AcDbCircle
 10
2.3570109284
 20
7.5089301634
 30
0.0
 40
1.147500000000001
100
AcDbArc
 50
335.865123892
 51
336.5765736842
  0
LINE
  5
2F8
330
1F
100
AcDbEntity
  8
0
  6
Continuous
 62
     7
370
    25
100
AcDbLine
 10
3.4042027394
 20
7.0397334446
 30
0.0
 11
3.3747178097
 21
7.0294536741
 31
0.0
  0
ARC
  5
2F9
330
1F
100
AcDbEntity
  8
0
  6
Continuous
 62
     7
370
    25
100
AcDbCircle
 10
2.3570109284
 20
7.5089301634
 30
0.0
 40
1.1475
100
AcDbArc
 50
339.865123892
 51
340.5765736842
  0
LINE
  5
2FA
330
1F
100
AcDbEntity
  8
0
  6
Continuous
 62
     7
370
    25
100
AcDbLine
 10
3.4343813414
 20
7.1139247923
 30
0.0
 11
3.405685316
 21
7.1016132981
 31
0.0
  0
LINE
  5
2FB
330
1F
100
AcDbEntity
  8
0
  6
Continuous
 62
     7
370
    25
100
AcDbLine
 10
3.424919759
 20
7.1551000777
 30
0.0
 11
3.4392029965
 21
7.1273327608
 31
0.0
  0
LINE
  5
2FC
330
1F
100
AcDbEntity
  8
0
  6
Continuous
 62
     7
370
    25
100
AcDbLine
 10
3.3652833134
 20
7.0099193443
 30
0.0
 11
3.3755630839
 21
6.9804344146
 31
0.0
  0
ARC
  5
2FD
330
1F
100
AcDbEntity
  8
0
  6
Continuous
 62
     7
370
    25
100
AcDbCircle
 10
2.3570109284
 20
7.5089301634
 30
0.0
 40
1.147500000000001
100
AcDbArc
 50
331.865123892
 51
332.5765736842
  0
LINE
  5
2FE
330
1F
100
AcDbEntity
  8
0
  6
Continuous
 62
     7
370
    25
100
AcDbLine
 10
3.3689223242
 20
6.9678279761
 30
0.0
 11
3.3387921377
 21
6.9596300114
 31
0.0
  0
LINE
  5
2FF
330
1F
100
AcDbEntity
  8
0
  6
Continuous
 62
     7
370
    25
100
AcDbLine
 10
1.3794934477
 20
6.9520777818
 30
0.0
 11
1.3493009585
 21
6.9600432293
 31
0.0
  0
ARC
  5
300
330
1F
100
AcDbEntity
  8
0
  6
Continuous
 62
     7
370
    25
100
AcDbCircle
 10
2.3570109284
 20
7.5089301634
 30
0.0
 40
1.1475
100
AcDbArc
 50
207.865123892
 51
208.5765736842
  0
LINE
  5
301
330
1F
100
AcDbEntity
  8
0
  6
Continuous
 62
     7
370
    25
100
AcDbLine
 10
1.3425632131
 20
6.9725980995
 30
0.0
 11
1.3526153787
 21
7.0021613998
 31
0.0
  0
LINE
  5
302
330
1F
100
AcDbEntity
  8
0
  6
Continuous
 62
     7
370
    25
100
AcDbLine
 10
1.3430305726
 20
7.0216224186
 30
0.0
 11
1.3134672723
 21
7.0316745843
 31
0.0
  0
ARC
  5
303
330
1F
100
AcDbEntity
  8
0
  6
Continuous
 62
     7
370
    25
100
AcDbCircle
 10
2.3570109284
 20
7.5089301634
 30
0.0
 40
1.1475
100
AcDbArc
 50
203.865123892
 51
204.5765736842
  0
LINE
  5
304
330
1F
100
AcDbEntity
  8
0
  6
Continuous
 62
     7
370
    25
100
AcDbLine
 10
1.3076217232
 20
7.0446688728
 30
0.0
 11
1.3197116338
 21
7.0734589548
 31
0.0
  0
LINE
  5
305
330
1F
100
AcDbEntity
  8
0
  6
Continuous
 62
     7
370
    25
100
AcDbLine
 10
1.4207186897
 20
6.8852460737
 30
0.0
 11
1.3900441063
 21
6.8910859962
 31
0.0
  0
ARC
  5
306
330
1F
100
AcDbEntity
  8
0
  6
Continuous
 62
     7
370
    25
100
AcDbCircle
 10
2.3570109284
 20
7.5089301634
 30
0.0
 40
1.1475
100
AcDbArc
 50
211.865123892
 51
212.5765736842
  0
LINE
  5
307
330
1F
100
AcDbEntity
  8
0
  6
Continuous
 62
     7
370
    25
100
AcDbLine
 10
1.3824469902
 20
6.903140282
 30
0.0
 11
1.3904124378
 21
6.9333327713
 31
0.0
  0
ARC
  5
308
330
1F
100
AcDbEntity
  8
0
  6
Continuous
 62
     7
370
    25
100
AcDbCircle
 10
2.3570109284
 20
7.5089301634
 30
0.0
 40
1.147500000000001
100
AcDbArc
 50
327.865123892
 51
328.5765736842
  0
LINE
  5
309
330
1F
100
AcDbEntity
  8
0
  6
Continuous
 62
     7
370
    25
100
AcDbLine
 10
3.3287119783
 20
6.8985587031
 30
0.0
 11
3.2980833264
 21
6.8924824838
 31
0.0
  0
LINE
  5
30A
330
1F
100
AcDbEntity
  8
0
  6
Continuous
 62
     7
370
    25
100
AcDbLine
 10
3.3280179774
 20
6.9408013834
 30
0.0
 11
3.3362159422
 21
6.9106711969
 31
0.0
  0
LINE
  5
30B
330
1F
100
AcDbEntity
  8
0
  6
Continuous
 62
     7
370
    25
100
AcDbLine
 10
1.4665054534
 20
6.8214528918
 30
0.0
 11
1.4354982193
 21
6.8251388378
 31
0.0
  0
ARC
  5
30C
330
1F
100
AcDbEntity
  8
0
  6
Continuous
 62
     7
370
    25
100
AcDbCircle
 10
2.3570109284
 20
7.5089301634
 30
0.0
 40
1.1475
100
AcDbArc
 50
215.865123892
 51
216.5765736842
  0
LINE
  5
30D
330
1F
100
AcDbEntity
  8
0
  6
Continuous
 62
     7
370
    25
100
AcDbLine
 10
1.427078745
 20
6.8366338119
 30
0.0
 11
1.4329186675
 21
6.8673083953
 31
0.0
  0
LINE
  5
30E
330
1F
100
AcDbEntity
  8
0
  6
Continuous
 62
     7
370
    25
100
AcDbLine
 10
3.2860219927
 20
6.8744512888
 30
0.0
 11
3.2920982121
 21
6.8438226369
 31
0.0
  0
ARC
  5
30F
330
1F
100
AcDbEntity
  8
0
  6
Continuous
 62
     7
370
    25
100
AcDbCircle
 10
2.3570109284
 20
7.5089301634
 30
0.0
 40
1.147500000000001
100
AcDbArc
 50
323.865123892
 51
324.5765736842
  0
LINE
  5
310
330
1F
100
AcDbEntity
  8
0
  6
Continuous
 62
     7
370
    25
100
AcDbLine
 10
3.2837676027
 20
6.8322630986
 30
0.0
 11
3.2527897049
 21
6.8283382273
 31
0.0
  0
LINE
  5
311
330
1F
100
AcDbEntity
  8
0
  6
Continuous
 62
     7
370
    25
100
AcDbLine
 10
1.5166306702
 20
6.7610090301
 30
0.0
 11
1.4854418496
 21
6.762523042
 31
0.0
  0
ARC
  5
312
330
1F
100
AcDbEntity
  8
0
  6
Continuous
 62
     7
370
    25
100
AcDbCircle
 10
2.3570109284
 20
7.5089301634
 30
0.0
 40
1.1475
100
AcDbArc
 50
219.865123892
 51
220.5765736842
  0
LINE
  5
313
330
1F
100
AcDbEntity
  8
0
  6
Continuous
 62
     7
370
    25
100
AcDbLine
 10
1.4762410358
 20
6.7734027021
 30
0.0
 11
1.4799269818
 21
6.8044099362
 31
0.0
  0
LINE
  5
314
330
1F
100
AcDbEntity
  8
0
  6
Continuous
 62
     7
370
    25
100
AcDbLine
 10
3.2343081616
 20
6.7692641479
 30
0.0
 11
3.2031319393
 21
6.7675097464
 31
0.0
  0
ARC
  5
315
330
1F
100
AcDbEntity
  8
0
  6
Continuous
 62
     7
370
    25
100
AcDbCircle
 10
2.3570109284
 20
7.5089301634
 30
0.0
 40
1.147500000000001
100
AcDbArc
 50
319.865123892
 51
320.5765736842
  0
LINE
  5
316
330
1F
100
AcDbEntity
  8
0
  6
Continuous
 62
     7
370
    25
100
AcDbLine
 10
3.2394999595
 20
6.8111923116
 30
0.0
 11
3.2434248307
 21
6.7802144138
 31
0.0
  0
LINE
  5
317
330
1F
100
AcDbEntity
  8
0
  6
Continuous
 62
     7
370
    25
100
AcDbLine
 10
3.1338052964
 20
6.6951639133
 30
0.0
 11
3.133380681
 21
6.6639412539
 31
0.0
  0
ARC
  5
318
330
1F
100
AcDbEntity
  8
0
  6
Continuous
 62
     7
370
    25
100
AcDbCircle
 10
2.3570109284
 20
7.5089301634
 30
0.0
 40
1.147500000000001
100
AcDbArc
 50
311.865123892
 51
312.5765736842
  0
LINE
  5
319
330
1F
100
AcDbEntity
  8
0
  6
Continuous
 62
     7
370
    25
100
AcDbLine
 10
3.1228287522
 20
6.6543663503
 30
0.0
 11
3.0917117693
 21
6.656967914
 31
0.0
  0
LINE
  5
31A
330
1F
100
AcDbEntity
  8
0
  6
Continuous
 62
     7
370
    25
100
AcDbLine
 10
3.1805746167
 20
6.7098687757
 30
0.0
 11
3.1493519572
 21
6.7102933912
 31
0.0
  0
ARC
  5
31B
330
1F
100
AcDbEntity
  8
0
  6
Continuous
 62
     7
370
    25
100
AcDbCircle
 10
2.3570109284
 20
7.5089301634
 30
0.0
 40
1.147500000000001
100
AcDbArc
 50
315.865123892
 51
316.5765736842
  0
LINE
  5
31C
330
1F
100
AcDbEntity
  8
0
  6
Continuous
 62
     7
370
    25
100
AcDbLine
 10
3.1886785284
 20
6.751332643
 30
0.0
 11
3.19043293
 21
6.7201564207
 31
0.0
  0
LINE
  5
31D
330
1F
100
AcDbEntity
  8
0
  6
Continuous
 62
     7
370
    25
100
AcDbLine
 10
1.5708501352
 20
6.704208965
 30
0.0
 11
1.5396316769
 21
6.7035436667
 31
0.0
  0
LINE
  5
31E
330
1F
100
AcDbEntity
  8
0
  6
Continuous
 62
     7
370
    25
100
AcDbLine
 10
1.5296943491
 20
6.7137550082
 30
0.0
 11
1.5312083609
 21
6.7449438288
 31
0.0
  0
ARC
  5
31F
330
1F
100
AcDbEntity
  8
0
  6
Continuous
 62
     7
370
    25
100
AcDbCircle
 10
2.3570109284
 20
7.5089301634
 30
0.0
 40
1.1475
100
AcDbArc
 50
223.865123892
 51
224.5765736842
  0
LINE
  5
320
330
1F
100
AcDbEntity
  8
0
  6
Continuous
 62
     7
370
    25
100
AcDbLine
 10
1.6288996965
 20
6.6513294207
 30
0.0
 11
1.5978036937
 21
6.6484880534
 31
0.0
  0
ARC
  5
321
330
1F
100
AcDbEntity
  8
0
  6
Continuous
 62
     7
370
    25
100
AcDbCircle
 10
2.3570109284
 20
7.5089301634
 30
0.0
 40
1.1475
100
AcDbArc
 50
227.865123892
 51
228.5765736842
  0
LINE
  5
322
330
1F
100
AcDbEntity
  8
0
  6
Continuous
 62
     7
370
    25
100
AcDbLine
 10
1.5871782655
 20
6.6579813276
 30
0.0
 11
1.5865129672
 21
6.689199786
 31
0.0
  0
ARC
  5
323
330
1F
100
AcDbEntity
  8
0
  6
Continuous
 62
     7
370
    25
100
AcDbCircle
 10
2.3570109284
 20
7.5089301634
 30
0.0
 40
1.147500000000001
100
AcDbArc
 50
307.865123892
 51
308.5765736842
  0
LINE
  5
324
330
1F
100
AcDbEntity
  8
0
  6
Continuous
 62
     7
370
    25
100
AcDbLine
 10
3.0613519003
 20
6.6030272739
 30
0.0
 11
3.0304921927
 21
6.6077931113
 31
0.0
  0
LINE
  5
325
330
1F
100
AcDbEntity
  8
0
  6
Continuous
 62
     7
370
    25
100
AcDbLine
 10
3.0751476003
 20
6.6429597711
 30
0.0
 11
3.0725460366
 21
6.6118427881
 31
0.0
  0
LINE
  5
326
330
1F
100
AcDbEntity
  8
0
  6
Continuous
 62
     7
370
    25
100
AcDbLine
 10
1.6904965426
 20
6.6026280209
 30
0.0
 11
1.6596744918
 21
6.5976244276
 31
0.0
  0
ARC
  5
327
330
1F
100
AcDbEntity
  8
0
  6
Continuous
 62
     7
370
    25
100
AcDbCircle
 10
2.3570109284
 20
7.5089301634
 30
0.0
 40
1.147500000000001
100
AcDbArc
 50
231.865123892
 51
232.5765736842
  0
LINE
  5
328
330
1F
100
AcDbEntity
  8
0
  6
Continuous
 62
     7
370
    25
100
AcDbLine
 10
1.6484127293
 20
6.6063533843
 30
0.0
 11
1.645571362
 21
6.6374493872
 31
0.0
  0
LINE
  5
329
330
1F
100
AcDbEntity
  8
0
  6
Continuous
 62
     7
370
    25
100
AcDbLine
 10
1.8231158943
 20
6.5186872172
 30
0.0
 11
1.7932901672
 21
6.5094427181
 31
0.0
  0
ARC
  5
32A
330
1F
100
AcDbEntity
  8
0
  6
Continuous
 62
     7
370
    25
100
AcDbCircle
 10
2.3570109284
 20
7.5089301634
 30
0.0
 40
1.1475
100
AcDbArc
 50
239.865123892
 51
240.5765736842
  0
LINE
  5
32B
330
1F
100
AcDbEntity
  8
0
  6
Continuous
 62
     7
370
    25
100
AcDbLine
 10
1.7809231675
 20
6.5165193908
 30
0.0
 11
1.7737817251
 21
6.5469173276
 31
0.0
  0
LINE
  5
32C
330
1F
100
AcDbEntity
  8
0
  6
Continuous
 62
     7
370
    25
100
AcDbLine
 10
1.7553405797
 20
6.5583420342
 30
0.0
 11
1.7249426429
 21
6.5512005917
 31
0.0
  0
ARC
  5
32D
330
1F
100
AcDbEntity
  8
0
  6
Continuous
 62
     7
370
    25
100
AcDbCircle
 10
2.3570109284
 20
7.5089301634
 30
0.0
 40
1.147500000000001
100
AcDbArc
 50
235.865123892
 51
236.5765736842
  0
LINE
  5
32E
330
1F
100
AcDbEntity
  8
0
  6
Continuous
 62
     7
370
    25
100
AcDbLine
 10
1.7130994123
 20
6.5591227043
 30
0.0
 11
1.708095819
 21
6.5899447551
 31
0.0
  0
LINE
  5
32F
330
1F
100
AcDbEntity
  8
0
  6
Continuous
 62
     7
370
    25
100
AcDbLine
 10
2.9476389588
 20
6.5514420279
 30
0.0
 11
2.9407320663
 21
6.520989941
 31
0.0
  0
ARC
  5
330
330
1F
100
AcDbEntity
  8
0
  6
Continuous
 62
     7
370
    25
100
AcDbCircle
 10
2.3570109284
 20
7.5089301634
 30
0.0
 40
1.147500000000001
100
AcDbArc
 50
299.865123892
 51
300.5765736842
  0
LINE
  5
331
330
1F
100
AcDbEntity
  8
0
  6
Continuous
 62
     7
370
    25
100
AcDbLine
 10
2.9284199881
 20
6.5138181414
 30
0.0
 11
2.8985238814
 21
6.5228324392
 31
0.0
  0
LINE
  5
332
330
1F
100
AcDbEntity
  8
0
  6
Continuous
 62
     7
370
    25
100
AcDbLine
 10
2.99644357
 20
6.5561016653
 30
0.0
 11
2.965991483
 21
6.5630085578
 31
0.0
  0
ARC
  5
333
330
1F
100
AcDbEntity
  8
0
  6
Continuous
 62
     7
370
    25
100
AcDbCircle
 10
2.3570109284
 20
7.5089301634
 30
0.0
 40
1.147500000000001
100
AcDbArc
 50
303.865123892
 51
304.5765736842
  0
LINE
  5
334
330
1F
100
AcDbEntity
  8
0
  6
Continuous
 62
     7
370
    25
100
AcDbLine
 10
3.0129912145
 20
6.5949745495
 30
0.0
 11
3.0082253771
 21
6.5641148419
 31
0.0
  0
LINE
  5
335
330
1F
100
AcDbEntity
  8
0
  6
Continuous
 62
     7
370
    25
100
AcDbLine
 10
2.8794092226
 20
6.5125742922
 30
0.0
 11
2.8703949247
 21
6.4826781855
 31
0.0
  0
ARC
  5
336
330
1F
100
AcDbEntity
  8
0
  6
Continuous
 62
     7
370
    25
100
AcDbCircle
 10
2.3570109284
 20
7.5089301634
 30
0.0
 40
1.147500000000001
100
AcDbArc
 50
295.865123892
 51
296.5765736842
  0
LINE
  5
337
330
1F
100
AcDbEntity
  8
0
  6
Continuous
 62
     7
370
    25
100
AcDbLine
 10
2.8576125587
 20
6.4763827032
 30
0.0
 11
2.828418083
 21
6.4874604896
 31
0.0
  0
LINE
  5
338
330
1F
100
AcDbEntity
  8
0
  6
Continuous
 62
     7
370
    25
100
AcDbLine
 10
1.8515535643
 20
6.4787510028
 30
0.0
 11
1.8423090652
 21
6.5085767299
 31
0.0
  0
LINE
  5
339
330
1F
100
AcDbEntity
  8
0
  6
Continuous
 62
     7
370
    25
100
AcDbLine
 10
1.8934922919
 20
6.4838567643
 30
0.0
 11
1.8643840824
 21
6.4725542468
 31
0.0
  0
ARC
  5
33A
330
1F
100
AcDbEntity
  8
0
  6
Continuous
 62
     7
370
    25
100
AcDbCircle
 10
2.3570109284
 20
7.5089301634
 30
0.0
 40
1.147500000000001
100
AcDbArc
 50
243.865123892
 51
244.5765736842
  0
LINE
  5
33B
330
1F
100
AcDbEntity
  8
0
  6
Continuous
 62
     7
370
    25
100
AcDbLine
 10
2.8086344144
 20
6.4785607021
 30
0.0
 11
2.7975566279
 21
6.4493662264
 31
0.0
  0
ARC
  5
33C
330
1F
100
AcDbEntity
  8
0
  6
Continuous
 62
     7
370
    25
100
AcDbCircle
 10
2.3570109284
 20
7.5089301634
 30
0.0
 40
1.147500000000001
100
AcDbArc
 50
291.865123892
 51
292.5765736842
  0
LINE
  5
33D
330
1F
100
AcDbEntity
  8
0
  6
Continuous
 62
     7
370
    25
100
AcDbLine
 10
2.7843662485
 20
6.4439777324
 30
0.0
 11
2.7560156364
 21
6.4570650376
 31
0.0
  0
ARC
  5
33E
330
1F
100
AcDbEntity
  8
0
  6
Continuous
 62
     7
370
    25
100
AcDbCircle
 10
2.3570109284
 20
7.5089301634
 30
0.0
 40
1.147500000000001
100
AcDbArc
 50
247.865123892
 51
248.5765736842
  0
LINE
  5
33F
330
1F
100
AcDbEntity
  8
0
  6
Continuous
 62
     7
370
    25
100
AcDbLine
 10
1.9661269057
 20
6.454020366
 30
0.0
 11
1.9378780261
 21
6.4407148948
 31
0.0
  0
LINE
  5
340
330
1F
100
AcDbEntity
  8
0
  6
Continuous
 62
     7
370
    25
100
AcDbLine
 10
1.9246464986
 20
6.4460015441
 30
0.0
 11
1.9133439811
 21
6.4751097536
 31
0.0
  0
LINE
  5
341
330
1F
100
AcDbEntity
  8
0
  6
Continuous
 62
     7
370
    25
100
AcDbLine
 10
2.193996739
 20
6.395803318
 30
0.0
 11
2.1691315283
 21
6.3769153309
 31
0.0
  0
ARC
  5
342
330
1F
100
AcDbEntity
  8
0
  6
Continuous
 62
     7
370
    25
100
AcDbCircle
 10
2.3570109284
 20
7.5089301634
 30
0.0
 40
1.147500000000001
100
AcDbArc
 50
259.865123892
 51
260.5765736842
  0
LINE
  5
343
330
1F
100
AcDbEntity
  8
0
  6
Continuous
 62
     7
370
    25
100
AcDbLine
 10
2.1550899852
 20
6.379335465
 30
0.0
 11
2.1379825178
 21
6.4054576648
 31
0.0
  0
LINE
  5
344
330
1F
100
AcDbEntity
  8
0
  6
Continuous
 62
     7
370
    25
100
AcDbLine
 10
2.6608395326
 20
6.4257343459
 30
0.0
 11
2.6458064687
 21
6.3983657187
 31
0.0
  0
ARC
  5
345
330
1F
100
AcDbEntity
  8
0
  6
Continuous
 62
     7
370
    25
100
AcDbCircle
 10
2.3570109284
 20
7.5089301634
 30
0.0
 40
1.147500000000001
100
AcDbArc
 50
283.865123892
 51
284.5765736842
  0
LINE
  5
346
330
1F
100
AcDbEntity
  8
0
  6
Continuous
 62
     7
370
    25
100
AcDbLine
 10
2.6319945237
 20
6.3948654111
 30
0.0
 11
2.6057412187
 21
6.4117709942
 31
0.0
  0
LINE
  5
347
330
1F
100
AcDbEntity
  8
0
  6
Continuous
 62
     7
370
    25
100
AcDbLine
 10
2.0406658671
 20
6.4293233822
 30
0.0
 11
2.0134139431
 21
6.4140797802
 31
0.0
  0
ARC
  5
348
330
1F
100
AcDbEntity
  8
0
  6
Continuous
 62
     7
370
    25
100
AcDbCircle
 10
2.3570109284
 20
7.5089301634
 30
0.0
 40
1.147500000000001
100
AcDbArc
 50
251.865123892
 51
252.5765736842
  0
LINE
  5
349
330
1F
100
AcDbEntity
  8
0
  6
Continuous
 62
     7
370
    25
100
AcDbLine
 10
1.999845869
 20
6.4184305668
 30
0.0
 11
1.9865403978
 21
6.4466794464
 31
0.0
  0
LINE
  5
34A
330
1F
100
AcDbEntity
  8
0
  6
Continuous
 62
     7
370
    25
100
AcDbLine
 10
2.272041637
 20
6.387143544
 30
0.0
 11
2.248554556
 21
6.3665670577
 31
0.0
  0
ARC
  5
34B
330
1F
100
AcDbEntity
  8
0
  6
Continuous
 62
     7
370
    25
100
AcDbCircle
 10
2.3570109284
 20
7.5089301634
 30
0.0
 40
1.147500000000001
100
AcDbArc
 50
263.865123892
 51
264.5765736842
  0
LINE
  5
34C
330
1F
100
AcDbEntity
  8
0
  6
Continuous
 62
     7
370
    25
100
AcDbLine
 10
2.2343783974
 20
6.368001808
 30
0.0
 11
2.2154904104
 21
6.3928670187
 31
0.0
  0
LINE
  5
34D
330
1F
100
AcDbEntity
  8
0
  6
Continuous
 62
     7
370
    25
100
AcDbLine
 10
2.1167460298
 20
6.4098861341
 30
0.0
 11
2.0906238301
 21
6.3927786666
 31
0.0
  0
LINE
  5
34E
330
1F
100
AcDbEntity
  8
0
  6
Continuous
 62
     7
370
    25
100
AcDbLine
 10
2.0767853116
 20
6.3961723939
 30
0.0
 11
2.0615417096
 21
6.4234243179
 31
0.0
  0
ARC
  5
34F
330
1F
100
AcDbEntity
  8
0
  6
Continuous
 62
     7
370
    25
100
AcDbCircle
 10
2.3570109284
 20
7.5089301634
 30
0.0
 40
1.147500000000001
100
AcDbArc
 50
255.865123892
 51
256.5765736842
  0
LINE
  5
350
330
1F
100
AcDbEntity
  8
0
  6
Continuous
 62
     7
370
    25
100
AcDbLine
 10
2.7090379061
 20
6.4167611028
 30
0.0
 11
2.6816692789
 21
6.4317941667
 31
0.0
  0
ARC
  5
351
330
1F
100
AcDbEntity
  8
0
  6
Continuous
 62
     7
370
    25
100
AcDbCircle
 10
2.3570109284
 20
7.5089301634
 30
0.0
 40
1.147500000000001
100
AcDbArc
 50
287.865123892
 51
288.5765736842
  0
LINE
  5
352
330
1F
100
AcDbEntity
  8
0
  6
Continuous
 62
     7
370
    25
100
AcDbLine
 10
2.735659342
 20
6.4495669685
 30
0.0
 11
2.7225720368
 21
6.4212163564
 31
0.0
  0
LINE
  5
353
330
1F
100
AcDbEntity
  8
0
  6
Continuous
 62
     7
370
    25
100
AcDbLine
 10
2.4289910747
 20
6.3862352545
 30
0.0
 11
2.4085962618
 21
6.3625902473
 31
0.0
  0
ARC
  5
354
330
1F
100
AcDbEntity
  8
0
  6
Continuous
 62
     7
370
    25
100
AcDbCircle
 10
2.3570109284
 20
7.5089301634
 30
0.0
 40
1.147500000000001
100
AcDbArc
 50
271.865123892
 51
272.5765736842
  0
LINE
  5
355
330
1F
100
AcDbEntity
  8
0
  6
Continuous
 62
     7
370
    25
100
AcDbLine
 10
2.394358386
 20
6.3620380947
 30
0.0
 11
2.3721936471
 21
6.3840326192
 31
0.0
  0
ARC
  5
356
330
1F
100
AcDbEntity
  8
0
  6
Continuous
 62
     7
370
    25
100
AcDbCircle
 10
2.3570109284
 20
7.5089301634
 30
0.0
 40
1.147500000000001
100
AcDbArc
 50
275.865123892
 51
276.5765736842
  0
LINE
  5
357
330
1F
100
AcDbEntity
  8
0
  6
Continuous
 62
     7
370
    25
100
AcDbLine
 10
2.474270556
 20
6.3674370931
 30
0.0
 11
2.4506255487
 21
6.387831906
 31
0.0
  0
LINE
  5
358
330
1F
100
AcDbEntity
  8
0
  6
Continuous
 62
     7
370
    25
100
AcDbLine
 10
2.5071309726
 20
6.3939911641
 30
0.0
 11
2.4884352328
 21
6.3689810847
 31
0.0
  0
LINE
  5
359
330
1F
100
AcDbEntity
  8
0
  6
Continuous
 62
     7
370
    25
100
AcDbLine
 10
2.5845395008
 20
6.4071789444
 30
0.0
 11
2.5676339178
 21
6.3809256394
 31
0.0
  0
LINE
  5
35A
330
1F
100
AcDbEntity
  8
0
  6
Continuous
 62
     7
370
    25
100
AcDbLine
 10
2.5536114488
 20
6.3783973309
 30
0.0
 11
2.5286013694
 21
6.3970930708
 31
0.0
  0
ARC
  5
35B
330
1F
100
AcDbEntity
  8
0
  6
Continuous
 62
     7
370
    25
100
AcDbCircle
 10
2.3570109284
 20
7.5089301634
 30
0.0
 40
1.147500000000001
100
AcDbArc
 50
279.865123892
 51
280.5765736842
  0
LINE
  5
35C
330
1F
100
AcDbEntity
  8
0
  6
Continuous
 62
     7
370
    25
100
AcDbLine
 10
2.3505004968
 20
6.3839490017
 30
0.0
 11
2.3285059722
 21
6.3617842628
 31
0.0
  0
ARC
  5
35D
330
1F
100
AcDbEntity
  8
0
  6
Continuous
 62
     7
370
    25
100
AcDbCircle
 10
2.3570109284
 20
7.5089301634
 30
0.0
 40
1.147500000000001
100
AcDbArc
 50
267.865123892
 51
268.5765736842
  0
LINE
  5
35E
330
1F
100
AcDbEntity
  8
0
  6
Continuous
 62
     7
370
    25
100
AcDbLine
 10
2.314264263
 20
6.3622266392
 30
0.0
 11
2.2936877767
 21
6.3857137202
 31
0.0
  0
INSERT
  5
36A
330
1F
100
AcDbEntity
  8
SLD-0
 62
     7
100
AcDbBlockReference
  2
SW_CENTERMARKSYMBOL_0
 10
2.3570109284
 20
7.5089301634
 30
0.0
  0
LINE
  5
36B
330
1F
100
AcDbEntity
  8
0
  6
Continuous
 62
     7
370
    25
100
AcDbLine
 10
6.0358240133
 20
7.2269301634
 30
0.0
 11
6.0646285515
 21
7.3344301634
 31
0.0
  0
LINE
  5
36C
330
1F
100
AcDbEntity
  8
0
  6
Continuous
 62
     7
370
    25
100
AcDbLine
 10
6.0646285515
 20
7.6814301634
 30
0.0
 11
6.0358240133
 21
7.7889301634
 31
0.0
  0
LINE
  5
36D
330
1F
100
AcDbEntity
  8
0
  6
Continuous
 62
     7
370
    25
100
AcDbLine
 10
6.0646285515
 20
7.3344301634
 30
0.0
 11
6.1596285515
 21
7.3344301634
 31
0.0
  0
LINE
  5
36E
330
1F
100
AcDbEntity
  8
0
  6
Continuous
 62
     7
370
    25
100
AcDbLine
 10
6.1596285515
 20
7.6814301634
 30
0.0
 11
6.0646285515
 21
7.6814301634
 31
0.0
  0
LINE
  5
36F
330
1F
100
AcDbEntity
  8
0
  6
Continuous
 62
     7
370
    25
100
AcDbLine
 10
6.1596285515
 20
7.3344301634
 30
0.0
 11
6.1646285515
 21
7.3386256616
 31
0.0
  0
LINE
  5
370
330
1F
100
AcDbEntity
  8
0
  6
Continuous
 62
     7
370
    25
100
AcDbLine
 10
6.1646285515
 20
7.6772346653
 30
0.0
 11
6.1596285515
 21
7.6814301634
 31
0.0
  0
LINE
  5
371
330
1F
100
AcDbEntity
  8
0
  6
Continuous
 62
     7
370
    25
100
AcDbLine
 10
6.4896285515
 20
7.2266801634
 30
0.0
 11
7.0096285515
 21
7.2266801634
 31
0.0
  0
LINE
  5
372
330
1F
100
AcDbEntity
  8
0
  6
Continuous
 62
     7
370
    25
100
AcDbLine
 10
7.0096285515
 20
7.7891801634
 30
0.0
 11
6.4896285515
 21
7.7891801634
 31
0.0
  0
LINE
  5
373
330
1F
100
AcDbEntity
  8
0
  6
Continuous
 62
     7
370
    25
100
AcDbLine
 10
5.5726285515
 20
7.1614301634
 30
0.0
 11
5.6196285515
 21
7.1614301634
 31
0.0
  0
LINE
  5
374
330
1F
100
AcDbEntity
  8
0
  6
Continuous
 62
     7
370
    25
100
AcDbLine
 10
5.6196285515
 20
7.8564301634
 30
0.0
 11
5.5726285515
 21
7.8564301634
 31
0.0
  0
LINE
  5
375
330
1F
100
AcDbEntity
  8
0
  6
Continuous
 62
     7
370
    25
100
AcDbLine
 10
4.532707808
 20
6.3839301634
 30
0.0
 11
4.592707808
 21
6.3839301634
 31
0.0
  0
LINE
  5
376
330
1F
100
AcDbEntity
  8
0
  6
Continuous
 62
     7
370
    25
100
AcDbLine
 10
4.592707808
 20
8.6339301634
 30
0.0
 11
4.532707808
 21
8.6339301634
 31
0.0
  0
ARC
  5
377
330
1F
100
AcDbEntity
  8
0
  6
Continuous
 62
     7
370
    25
100
AcDbCircle
 10
4.532707808
 20
6.4239301634
 30
0.0
 40
0.04
100
AcDbArc
 50
180.0
 51
270.0
  0
ARC
  5
378
330
1F
100
AcDbEntity
  8
0
  6
Continuous
 62
     7
370
    25
100
AcDbCircle
 10
4.532707808
 20
8.5939301634
 30
0.0
 40
0.0400000000000009
100
AcDbArc
 50
90.0
 51
180.0
  0
LINE
  5
379
330
1F
100
AcDbEntity
  8
0
  6
Continuous
 62
     7
370
    25
100
AcDbLine
 10
4.492707808
 20
8.5239301634
 30
0.0
 11
4.454707808
 21
8.5019908532
 31
0.0
  0
LINE
  5
37A
330
1F
100
AcDbEntity
  8
0
  6
Continuous
 62
     7
370
    25
100
AcDbLine
 10
4.454707808
 20
6.5158694737
 30
0.0
 11
4.492707808
 21
6.4939301634
 31
0.0
  0
ARC
  5
37B
330
1F
100
AcDbEntity
  8
0
  6
Continuous
 62
     7
370
    25
100
AcDbCircle
 10
5.6086285515
 20
8.1589301634
 30
0.0
 40
0.0460000000000003
100
AcDbArc
 50
0.0
 51
90.0
  0
LINE
  5
37C
330
1F
100
AcDbEntity
  8
0
  6
Continuous
 62
     7
370
    25
100
AcDbLine
 10
5.6086285515
 20
8.2049301634
 30
0.0
 11
5.5726285515
 21
8.2049301634
 31
0.0
  0
LINE
  5
37D
330
1F
100
AcDbEntity
  8
0
  6
Continuous
 62
     7
370
    25
100
AcDbLine
 10
5.5726285515
 20
7.9349301634
 30
0.0
 11
5.6086285515
 21
7.9349301634
 31
0.0
  0
ARC
  5
37E
330
1F
100
AcDbEntity
  8
0
  6
Continuous
 62
     7
370
    25
100
AcDbCircle
 10
5.6086285515
 20
7.9809301634
 30
0.0
 40
0.0460000000000003
100
AcDbArc
 50
270.0
 51
0.0
  0
LINE
  5
37F
330
1F
100
AcDbEntity
  8
0
  6
Continuous
 62
     7
370
    25
100
AcDbLine
 10
5.5546285515
 20
6.6325002902
 30
0.0
 11
5.5726285515
 21
6.6325002902
 31
0.0
  0
LINE
  5
380
330
1F
100
AcDbEntity
  8
0
  6
Continuous
 62
     7
370
    25
100
AcDbLine
 10
5.5726285515
 20
8.3825002902
 30
0.0
 11
5.5546285515
 21
8.3825002902
 31
0.0
  0
LINE
  5
381
330
1F
100
AcDbEntity
  8
0
  6
Continuous
 62
     7
370
    25
100
AcDbLine
 10
5.4946285515
 20
8.5714301634
 30
0.0
 11
4.872707808
 21
8.5714301634
 31
0.0
  0
LINE
  5
382
330
1F
100
AcDbEntity
  8
0
  6
Continuous
 62
     7
370
    25
100
AcDbLine
 10
4.872707808
 20
6.4464301634
 30
0.0
 11
5.4946285515
 21
6.4464301634
 31
0.0
  0
ARC
  5
383
330
1F
100
AcDbEntity
  8
0
  6
Continuous
 62
     7
370
    25
100
AcDbCircle
 10
5.4946285515
 20
8.5114301634
 30
0.0
 40
0.0600000000000005
100
AcDbArc
 50
0.0
 51
90.0
  0
ARC
  5
384
330
1F
100
AcDbEntity
  8
0
  6
Continuous
 62
     7
370
    25
100
AcDbCircle
 10
5.4946285515
 20
6.5064301634
 30
0.0
 40
0.0599999999999996
100
AcDbArc
 50
270.0
 51
0.0
  0
LINE
  5
385
330
1F
100
AcDbEntity
  8
0
  6
Continuous
 62
     7
370
    25
100
AcDbLine
 10
7.0196285515
 20
7.2604301634
 30
0.0
 11
7.059707808
 21
7.2604301634
 31
0.0
  0
LINE
  5
386
330
1F
100
AcDbEntity
  8
0
  6
Continuous
 62
     7
370
    25
100
AcDbLine
 10
7.059707808
 20
7.7554301634
 30
0.0
 11
7.0196285515
 21
7.7554301634
 31
0.0
  0
LINE
  5
387
330
1F
100
AcDbEntity
  8
0
  6
Continuous
 62
     7
370
    25
100
AcDbLine
 10
7.0196285515
 20
7.7554301634
 30
0.0
 11
7.0096285515
 21
7.7454301634
 31
0.0
  0
LINE
  5
388
330
1F
100
AcDbEntity
  8
0
  6
Continuous
 62
     7
370
    25
100
AcDbLine
 10
7.0096285515
 20
7.2704301634
 30
0.0
 11
7.0196285515
 21
7.2604301634
 31
0.0
  0
LINE
  5
389
330
1F
100
AcDbEntity
  8
0
  6
Continuous
 62
     7
370
    25
100
AcDbLine
 10
7.059707808
 20
7.2604301634
 30
0.0
 11
7.069707808
 21
7.2699301634
 31
0.0
  0
LINE
  5
38A
330
1F
100
AcDbEntity
  8
0
  6
Continuous
 62
     7
370
    25
100
AcDbLine
 10
7.069707808
 20
7.7459301634
 30
0.0
 11
7.059707808
 21
7.7554301634
 31
0.0
  0
ARC
  5
38B
330
1F
100
AcDbEntity
  8
0
  6
Continuous
 62
     7
370
    25
100
AcDbCircle
 10
7.084707808
 20
7.2699301634
 30
0.0
 40
0.0150000000013
100
AcDbArc
 50
90.0
 51
180.0000000013
  0
ARC
  5
38C
330
1F
100
AcDbEntity
  8
0
  6
Continuous
 62
     7
370
    25
100
AcDbCircle
 10
7.084707808
 20
7.7459301634
 30
0.0
 40
0.0150000000013
100
AcDbArc
 50
179.9999999987
 51
270.0
  0
LINE
  5
38D
330
1F
100
AcDbEntity
  8
0
  6
Continuous
 62
     7
370
    25
100
AcDbLine
 10
7.084707808
 20
7.2849301634
 30
0.0
 11
7.154707808
 21
7.2849301634
 31
0.0
  0
LINE
  5
38E
330
1F
100
AcDbEntity
  8
0
  6
Continuous
 62
     7
370
    25
100
AcDbLine
 10
7.154707808
 20
7.7309301634
 30
0.0
 11
7.084707808
 21
7.7309301634
 31
0.0
  0
LINE
  5
38F
330
1F
100
AcDbEntity
  8
0
  6
Continuous
 62
     7
370
    25
100
AcDbLine
 10
7.154707808
 20
7.2849301634
 30
0.0
 11
7.164707808
 21
7.2949301634
 31
0.0
  0
LINE
  5
390
330
1F
100
AcDbEntity
  8
0
  6
Continuous
 62
     7
370
    25
100
AcDbLine
 10
7.164707808
 20
7.7209301634
 30
0.0
 11
7.154707808
 21
7.7309301634
 31
0.0
  0
LINE
  5
391
330
1F
100
AcDbEntity
  8
0
  6
Continuous
 62
     7
370
    25
100
AcDbLine
 10
7.164707808
 20
7.3182479865
 30
0.0
 11
7.1803878696
 21
7.3273008743
 31
0.0
  0
LINE
  5
392
330
1F
100
AcDbEntity
  8
0
  6
Continuous
 62
     7
370
    25
100
AcDbLine
 10
7.1803878696
 20
7.6885594526
 30
0.0
 11
7.164707808
 21
7.6976123404
 31
0.0
  0
ARC
  5
393
330
1F
100
AcDbEntity
  8
0
  6
Continuous
 62
     7
370
    25
100
AcDbCircle
 10
7.1653878696
 20
7.3532816364
 30
0.0
 40
0.0300000000000373
100
AcDbArc
 50
299.9999999971
 51
347.7770805715
  0
ARC
  5
394
330
1F
100
AcDbEntity
  8
0
  6
Continuous
 62
     7
370
    25
100
AcDbCircle
 10
7.1653878696
 20
7.6625786905
 30
0.0
 40
0.0300000000000373
100
AcDbArc
 50
12.2229194286
 51
60.0000000029
  0
LINE
  5
395
330
1F
100
AcDbEntity
  8
0
  6
Continuous
 62
     7
370
    25
100
AcDbLine
 10
6.2896285515
 20
7.6814301634
 30
0.0
 11
6.1646285515
 21
7.6814301634
 31
0.0
  0
LINE
  5
396
330
1F
100
AcDbEntity
  8
0
  6
Continuous
 62
     7
370
    25
100
AcDbLine
 10
6.1646285515
 20
7.3344301634
 30
0.0
 11
6.2896285515
 21
7.3344301634
 31
0.0
  0
LINE
  5
397
330
1F
100
AcDbEntity
  8
0
  6
Continuous
 62
     7
370
    25
100
AcDbLine
 10
6.0046363321
 20
7.7889301634
 30
0.0
 11
5.5726285515
 21
7.7889301634
 31
0.0
  0
SPLINE
  5
398
330
1F
100
AcDbEntity
  8
0
  6
Continuous
 62
     7
370
    25
100
AcDbSpline
210
0.0
220
0.0
230
1.0
 70
     8
 71
     3
 72
    14
 73
    10
 74
     0
 42
0.000000001
 43
0.00000001
 40
0.0
 40
0.0
 40
0.0
 40
0.0
 40
0.25
 40
0.25
 40
0.5
 40
0.5
 40
0.75
 40
0.75
 40
1.0
 40
1.0
 40
1.0
 40
1.0
 10
6.004636332076329
 20
7.788930163447249
 30
0.0
 10
6.013444458128527
 20
7.74244160638503
 30
0.0
 10
6.021241660412042
 20
7.695784435542271
 30
0.0
 10
6.032477233981304
 20
7.602364481038269
 30
0.0
 10
6.035795174957722
 20
7.555545207312708
 30
0.0
 10
6.035852461804995
 20
7.461594022708502
 30
0.0
 10
6.032572137582105
 20
7.41440149669574
 30
0.0
 10
6.021251085519291
 20
7.320038765652092
 30
0.0
 10
6.013434867926766
 20
7.273368104221833
 30
0.0
 10
6.00463633207633
 20
7.226930163447249
 30
0.0
  0
LINE
  5
399
330
1F
100
AcDbEntity
  8
0
  6
Continuous
 62
     7
370
    25
100
AcDbLine
 10
6.0046363321
 20
7.2269301634
 30
0.0
 11
5.5726285515
 21
7.2269301634
 31
0.0
  0
SPLINE
  5
39A
330
1F
100
AcDbEntity
  8
0
  6
Continuous
 62
     7
370
    25
100
AcDbSpline
210
0.0
220
0.0
230
1.0
 70
    24
 71
     3
 72
    10
 73
     6
 74
     0
 42
0.000000001
 43
0.00000001
 40
0.0
 40
0.0
 40
0.0
 40
0.0
 40
0.4656779253264832
 40
0.7792934539091514
 40
1.0
 40
1.0
 40
1.0
 40
1.0
 10
6.004636332076329
 20
7.788930163447249
 30
0.0
 10
6.012245538764354
 20
7.788930163447249
 30
0.0
 10
6.024979242981193
 20
7.78893016344725
 30
0.0
 10
6.034837439795232
 20
7.788930163447253
 30
0.0
 10
6.034976141904599
 20
7.788930163447253
 30
0.0
 10
6.035033434060294
 20
7.788930163447253
 30
0.0
  0
SPLINE
  5
39B
330
1F
100
AcDbEntity
  8
0
  6
Continuous
 62
     7
370
    25
100
AcDbSpline
210
0.0
220
0.0
230
1.0
 70
    24
 71
     3
 72
    10
 73
     6
 74
     0
 42
0.000000001
 43
0.00000001
 40
0.0
 40
0.0
 40
0.0
 40
0.0
 40
0.211779944829234
 40
0.5343178802059296
 40
1.0
 40
1.0
 40
1.0
 40
1.0
 10
6.034952256296369
 20
7.226930163447253
 30
0.0
 10
6.034954371269287
 20
7.226930163447252
 30
0.0
 10
6.034959707316793
 20
7.226930163447252
 30
0.0
 10
6.025102431934212
 20
7.226930163447251
 30
0.0
 10
6.012237161675341
 20
7.22693016344725
 30
0.0
 10
6.004636332076329
 20
7.226930163447249
 30
0.0
  0
LINE
  5
39C
330
1F
100
AcDbEntity
  8
0
  6
Continuous
 62
     7
370
    25
100
AcDbLine
 10
6.0646285515
 20
7.3344301634
 30
0.0
 11
6.0646285515
 21
7.6814301634
 31
0.0
  0
LINE
  5
39D
330
1F
100
AcDbEntity
  8
0
  6
Continuous
 62
     7
370
    25
100
AcDbLine
 10
6.1596285515
 20
7.5079301634
 30
0.0
 11
6.1596285515
 21
7.6814301634
 31
0.0
  0
LINE
  5
39E
330
1F
100
AcDbEntity
  8
0
  6
Continuous
 62
     7
370
    25
100
AcDbLine
 10
6.1596285515
 20
7.3344301634
 30
0.0
 11
6.1596285515
 21
7.5079301634
 31
0.0
  0
LINE
  5
39F
330
1F
100
AcDbEntity
  8
0
  6
Continuous
 62
     7
370
    25
100
AcDbLine
 10
6.4896285515
 20
7.7794186342
 30
0.0
 11
6.2896285515
 21
7.7794186342
 31
0.0
  0
LINE
  5
3A0
330
1F
100
AcDbEntity
  8
0
  6
Continuous
 62
     7
370
    25
100
AcDbLine
 10
6.4896285515
 20
7.7794186342
 30
0.0
 11
6.4896285515
 21
7.437818241
 31
0.0
  0
LINE
  5
3A1
330
1F
100
AcDbEntity
  8
0
  6
Continuous
 62
     7
370
    25
100
AcDbLine
 10
6.4896285515
 20
7.437818241
 30
0.0
 11
6.2896285515
 21
7.437818241
 31
0.0
  0
LINE
  5
3A2
330
1F
100
AcDbEntity
  8
0
  6
Continuous
 62
     7
370
    25
100
AcDbLine
 10
6.2896285515
 20
7.7794186342
 30
0.0
 11
6.2896285515
 21
7.437818241
 31
0.0
  0
LINE
  5
3A3
330
1F
100
AcDbEntity
  8
0
  6
Continuous
 62
     7
370
    25
100
AcDbLine
 10
6.4896285515
 20
7.437818241
 30
0.0
 11
6.4896285515
 21
7.1663297703
 31
0.0
  0
LINE
  5
3A4
330
1F
100
AcDbEntity
  8
0
  6
Continuous
 62
     7
370
    25
100
AcDbLine
 10
6.4896285515
 20
7.1663297703
 30
0.0
 11
6.2896285515
 21
7.1663297703
 31
0.0
  0
LINE
  5
3A5
330
1F
100
AcDbEntity
  8
0
  6
Continuous
 62
     7
370
    25
100
AcDbLine
 10
6.2896285515
 20
7.437818241
 30
0.0
 11
6.2896285515
 21
7.1663297703
 31
0.0
  0
LINE
  5
3A6
330
1F
100
AcDbEntity
  8
0
  6
Continuous
 62
     7
370
    25
100
AcDbLine
 10
7.0096285515
 20
7.7891801634
 30
0.0
 11
7.0096285515
 21
7.2266801634
 31
0.0
  0
LINE
  5
3A7
330
1F
100
AcDbEntity
  8
0
  6
Continuous
 62
     7
370
    25
100
AcDbLine
 10
6.4896285515
 20
7.8495305566
 30
0.0
 11
6.2896285515
 21
7.8495305566
 31
0.0
  0
LINE
  5
3A8
330
1F
100
AcDbEntity
  8
0
  6
Continuous
 62
     7
370
    25
100
AcDbLine
 10
6.2896285515
 20
7.8495305566
 30
0.0
 11
6.2896285515
 21
7.7794186342
 31
0.0
  0
LINE
  5
3A9
330
1F
100
AcDbEntity
  8
0
  6
Continuous
 62
     7
370
    25
100
AcDbLine
 10
6.4896285515
 20
7.8495305566
 30
0.0
 11
6.4896285515
 21
7.7794186342
 31
0.0
  0
LINE
  5
3AA
330
1F
100
AcDbEntity
  8
0
  6
Continuous
 62
     7
370
    25
100
AcDbLine
 10
5.6196285515
 20
7.1614301634
 30
0.0
 11
5.6196285515
 21
7.2269301634
 31
0.0
  0
LINE
  5
3AB
330
1F
100
AcDbEntity
  8
0
  6
Continuous
 62
     7
370
    25
100
AcDbLine
 10
5.6196285515
 20
7.7889301634
 30
0.0
 11
5.6196285515
 21
7.8564301634
 31
0.0
  0
LINE
  5
3AC
330
1F
100
AcDbEntity
  8
0
  6
Continuous
 62
     7
370
    25
100
AcDbLine
 10
4.872707808
 20
7.5204773863
 30
0.0
 11
4.592707808
 21
7.5204773863
 31
0.0
  0
LINE
  5
3AD
330
1F
100
AcDbEntity
  8
0
  6
Continuous
 62
     7
370
    25
100
AcDbLine
 10
4.872707808
 20
7.5204773863
 30
0.0
 11
4.872707808
 21
7.506228914
 31
0.0
  0
LINE
  5
3AE
330
1F
100
AcDbEntity
  8
0
  6
Continuous
 62
     7
370
    25
100
AcDbLine
 10
4.592707808
 20
7.506228914
 30
0.0
 11
4.872707808
 21
7.506228914
 31
0.0
  0
LINE
  5
3AF
330
1F
100
AcDbEntity
  8
0
  6
Continuous
 62
     7
370
    25
100
AcDbLine
 10
4.592707808
 20
7.506228914
 30
0.0
 11
4.592707808
 21
7.5204773863
 31
0.0
  0
LINE
  5
3B0
330
1F
100
AcDbEntity
  8
0
  6
Continuous
 62
     7
370
    25
100
AcDbLine
 10
4.592707808
 20
7.474340605
 30
0.0
 11
4.872707808
 21
7.474340605
 31
0.0
  0
LINE
  5
3B1
330
1F
100
AcDbEntity
  8
0
  6
Continuous
 62
     7
370
    25
100
AcDbLine
 10
4.592707808
 20
7.506228914
 30
0.0
 11
4.592707808
 21
7.4848452751
 31
0.0
  0
LINE
  5
3B2
330
1F
100
AcDbEntity
  8
0
  6
Continuous
 62
     7
370
    25
100
AcDbLine
 10
4.872707808
 20
7.474340605
 30
0.0
 11
4.872707808
 21
7.506228914
 31
0.0
  0
LINE
  5
3B3
330
1F
100
AcDbEntity
  8
0
  6
Continuous
 62
     7
370
    25
100
AcDbLine
 10
4.592707808
 20
7.5521031595
 30
0.0
 11
4.872707808
 21
7.5521031595
 31
0.0
  0
LINE
  5
3B4
330
1F
100
AcDbEntity
  8
0
  6
Continuous
 62
     7
370
    25
100
AcDbLine
 10
4.592707808
 20
7.5416849741
 30
0.0
 11
4.592707808
 21
7.5204773863
 31
0.0
  0
LINE
  5
3B5
330
1F
100
AcDbEntity
  8
0
  6
Continuous
 62
     7
370
    25
100
AcDbLine
 10
4.872707808
 20
7.5204773863
 30
0.0
 11
4.872707808
 21
7.5521031595
 31
0.0
  0
LINE
  5
3B6
330
1F
100
AcDbEntity
  8
0
  6
Continuous
 62
     7
370
    25
100
AcDbLine
 10
4.872707808
 20
7.4404077572
 30
0.0
 11
4.592707808
 21
7.4404077572
 31
0.0
  0
LINE
  5
3B7
330
1F
100
AcDbEntity
  8
0
  6
Continuous
 62
     7
370
    25
100
AcDbLine
 10
4.592707808
 20
7.4261901623
 30
0.0
 11
4.872707808
 21
7.4261901623
 31
0.0
  0
LINE
  5
3B8
330
1F
100
AcDbEntity
  8
0
  6
Continuous
 62
     7
370
    25
100
AcDbLine
 10
4.592707808
 20
7.4261901623
 30
0.0
 11
4.592707808
 21
7.4404077572
 31
0.0
  0
LINE
  5
3B9
330
1F
100
AcDbEntity
  8
0
  6
Continuous
 62
     7
370
    25
100
AcDbLine
 10
4.872707808
 20
7.4404077572
 30
0.0
 11
4.872707808
 21
7.4261901623
 31
0.0
  0
LINE
  5
3BA
330
1F
100
AcDbEntity
  8
0
  6
Continuous
 62
     7
370
    25
100
AcDbLine
 10
4.592707808
 20
7.4631624215
 30
0.0
 11
4.592707808
 21
7.4404077572
 31
0.0
  0
LINE
  5
3BB
330
1F
100
AcDbEntity
  8
0
  6
Continuous
 62
     7
370
    25
100
AcDbLine
 10
4.872707808
 20
7.4404077572
 30
0.0
 11
4.872707808
 21
7.474340605
 31
0.0
  0
LINE
  5
3BC
330
1F
100
AcDbEntity
  8
0
  6
Continuous
 62
     7
370
    25
100
AcDbLine
 10
4.592707808
 20
7.586280826
 30
0.0
 11
4.872707808
 21
7.586280826
 31
0.0
  0
LINE
  5
3BD
330
1F
100
AcDbEntity
  8
0
  6
Continuous
 62
     7
370
    25
100
AcDbLine
 10
4.592707808
 20
7.586280826
 30
0.0
 11
4.592707808
 21
7.5633619914
 31
0.0
  0
LINE
  5
3BE
330
1F
100
AcDbEntity
  8
0
  6
Continuous
 62
     7
370
    25
100
AcDbLine
 10
4.872707808
 20
7.5521031595
 30
0.0
 11
4.872707808
 21
7.586280826
 31
0.0
  0
LINE
  5
3BF
330
1F
100
AcDbEntity
  8
0
  6
Continuous
 62
     7
370
    25
100
AcDbLine
 10
4.872707808
 20
7.6004907586
 30
0.0
 11
4.592707808
 21
7.6004907586
 31
0.0
  0
LINE
  5
3C0
330
1F
100
AcDbEntity
  8
0
  6
Continuous
 62
     7
370
    25
100
AcDbLine
 10
4.592707808
 20
7.586280826
 30
0.0
 11
4.592707808
 21
7.6004907586
 31
0.0
  0
LINE
  5
3C1
330
1F
100
AcDbEntity
  8
0
  6
Continuous
 62
     7
370
    25
100
AcDbLine
 10
4.872707808
 20
7.6004907586
 30
0.0
 11
4.872707808
 21
7.586280826
 31
0.0
  0
LINE
  5
3C2
330
1F
100
AcDbEntity
  8
0
  6
Continuous
 62
     7
370
    25
100
AcDbLine
 10
4.592707808
 20
7.3967465674
 30
0.0
 11
4.872707808
 21
7.3967465674
 31
0.0
  0
LINE
  5
3C3
330
1F
100
AcDbEntity
  8
0
  6
Continuous
 62
     7
370
    25
100
AcDbLine
 10
4.592707808
 20
7.4261901623
 30
0.0
 11
4.592707808
 21
7.406445898
 31
0.0
  0
LINE
  5
3C4
330
1F
100
AcDbEntity
  8
0
  6
Continuous
 62
     7
370
    25
100
AcDbLine
 10
4.872707808
 20
7.3967465674
 30
0.0
 11
4.872707808
 21
7.4261901623
 31
0.0
  0
LINE
  5
3C5
330
1F
100
AcDbEntity
  8
0
  6
Continuous
 62
     7
370
    25
100
AcDbLine
 10
4.592707808
 20
7.6296553794
 30
0.0
 11
4.872707808
 21
7.6296553794
 31
0.0
  0
LINE
  5
3C6
330
1F
100
AcDbEntity
  8
0
  6
Continuous
 62
     7
370
    25
100
AcDbLine
 10
4.592707808
 20
7.6200479487
 30
0.0
 11
4.592707808
 21
7.6004907586
 31
0.0
  0
LINE
  5
3C7
330
1F
100
AcDbEntity
  8
0
  6
Continuous
 62
     7
370
    25
100
AcDbLine
 10
4.872707808
 20
7.6004907586
 30
0.0
 11
4.872707808
 21
7.6296553794
 31
0.0
  0
LINE
  5
3C8
330
1F
100
AcDbEntity
  8
0
  6
Continuous
 62
     7
370
    25
100
AcDbLine
 10
4.872707808
 20
7.3606719623
 30
0.0
 11
4.592707808
 21
7.3606719623
 31
0.0
  0
LINE
  5
3C9
330
1F
100
AcDbEntity
  8
0
  6
Continuous
 62
     7
370
    25
100
AcDbLine
 10
4.592707808
 20
7.3848628446
 30
0.0
 11
4.592707808
 21
7.3606719623
 31
0.0
  0
LINE
  5
3CA
330
1F
100
AcDbEntity
  8
0
  6
Continuous
 62
     7
370
    25
100
AcDbLine
 10
4.872707808
 20
7.3606719623
 30
0.0
 11
4.872707808
 21
7.3967465674
 31
0.0
  0
LINE
  5
3CB
330
1F
100
AcDbEntity
  8
0
  6
Continuous
 62
     7
370
    25
100
AcDbLine
 10
4.592707808
 20
7.3465545115
 30
0.0
 11
4.872707808
 21
7.3465545115
 31
0.0
  0
LINE
  5
3CC
330
1F
100
AcDbEntity
  8
0
  6
Continuous
 62
     7
370
    25
100
AcDbLine
 10
4.592707808
 20
7.3465545115
 30
0.0
 11
4.592707808
 21
7.3606719623
 31
0.0
  0
LINE
  5
3CD
330
1F
100
AcDbEntity
  8
0
  6
Continuous
 62
     7
370
    25
100
AcDbLine
 10
4.872707808
 20
7.3606719623
 30
0.0
 11
4.872707808
 21
7.3465545115
 31
0.0
  0
LINE
  5
3CE
330
1F
100
AcDbEntity
  8
0
  6
Continuous
 62
     7
370
    25
100
AcDbLine
 10
4.872707808
 20
7.6800580568
 30
0.0
 11
4.592707808
 21
7.6800580568
 31
0.0
  0
LINE
  5
3CF
330
1F
100
AcDbEntity
  8
0
  6
Continuous
 62
     7
370
    25
100
AcDbLine
 10
4.592707808
 20
7.6659558933
 30
0.0
 11
4.872707808
 21
7.6659558933
 31
0.0
  0
LINE
  5
3D0
330
1F
100
AcDbEntity
  8
0
  6
Continuous
 62
     7
370
    25
100
AcDbLine
 10
4.592707808
 20
7.6659558933
 30
0.0
 11
4.592707808
 21
7.6800580568
 31
0.0
  0
LINE
  5
3D1
330
1F
100
AcDbEntity
  8
0
  6
Continuous
 62
     7
370
    25
100
AcDbLine
 10
4.872707808
 20
7.6800580568
 30
0.0
 11
4.872707808
 21
7.6659558933
 31
0.0
  0
LINE
  5
3D2
330
1F
100
AcDbEntity
  8
0
  6
Continuous
 62
     7
370
    25
100
AcDbLine
 10
4.592707808
 20
7.6659558933
 30
0.0
 11
4.592707808
 21
7.6416135212
 31
0.0
  0
LINE
  5
3D3
330
1F
100
AcDbEntity
  8
0
  6
Continuous
 62
     7
370
    25
100
AcDbLine
 10
4.872707808
 20
7.6296553794
 30
0.0
 11
4.872707808
 21
7.6659558933
 31
0.0
  0
LINE
  5
3D4
330
1F
100
AcDbEntity
  8
0
  6
Continuous
 62
     7
370
    25
100
AcDbLine
 10
4.592707808
 20
7.319699077
 30
0.0
 11
4.872707808
 21
7.319699077
 31
0.0
  0
LINE
  5
3D5
330
1F
100
AcDbEntity
  8
0
  6
Continuous
 62
     7
370
    25
100
AcDbLine
 10
4.592707808
 20
7.3465545115
 30
0.0
 11
4.592707808
 21
7.3285458139
 31
0.0
  0
LINE
  5
3D6
330
1F
100
AcDbEntity
  8
0
  6
Continuous
 62
     7
370
    25
100
AcDbLine
 10
4.872707808
 20
7.319699077
 30
0.0
 11
4.872707808
 21
7.3465545115
 31
0.0
  0
LINE
  5
3D7
330
1F
100
AcDbEntity
  8
0
  6
Continuous
 62
     7
370
    25
100
AcDbLine
 10
4.592707808
 20
7.7066194383
 30
0.0
 11
4.872707808
 21
7.7066194383
 31
0.0
  0
LINE
  5
3D8
330
1F
100
AcDbEntity
  8
0
  6
Continuous
 62
     7
370
    25
100
AcDbLine
 10
4.592707808
 20
7.6978695686
 30
0.0
 11
4.592707808
 21
7.6800580568
 31
0.0
  0
LINE
  5
3D9
330
1F
100
AcDbEntity
  8
0
  6
Continuous
 62
     7
370
    25
100
AcDbLine
 10
4.872707808
 20
7.6800580568
 30
0.0
 11
4.872707808
 21
7.7066194383
 31
0.0
  0
LINE
  5
3DA
330
1F
100
AcDbEntity
  8
0
  6
Continuous
 62
     7
370
    25
100
AcDbLine
 10
4.592707808
 20
8.5084176088
 30
0.0
 11
4.592707808
 21
8.509283597
 31
0.0
  0
LINE
  5
3DB
330
1F
100
AcDbEntity
  8
0
  6
Continuous
 62
     7
370
    25
100
AcDbLine
 10
4.592707808
 20
8.4666597352
 30
0.0
 11
4.592707808
 21
8.4709429993
 31
0.0
  0
LINE
  5
3DC
330
1F
100
AcDbEntity
  8
0
  6
Continuous
 62
     7
370
    25
100
AcDbLine
 10
4.592707808
 20
8.4202358993
 30
0.0
 11
4.592707808
 21
8.4279155718
 31
0.0
  0
LINE
  5
3DD
330
1F
100
AcDbEntity
  8
0
  6
Continuous
 62
     7
370
    25
100
AcDbLine
 10
4.592707808
 20
8.3693722735
 30
0.0
 11
4.592707808
 21
8.3804109397
 31
0.0
  0
LINE
  5
3DE
330
1F
100
AcDbEntity
  8
0
  6
Continuous
 62
     7
370
    25
100
AcDbLine
 10
4.592707808
 20
8.3136513619
 30
0.0
 11
4.592707808
 21
8.3286605409
 31
0.0
  0
LINE
  5
3DF
330
1F
100
AcDbEntity
  8
0
  6
Continuous
 62
     7
370
    25
100
AcDbLine
 10
4.592707808
 20
8.2568512968
 30
0.0
 11
4.592707808
 21
8.2729164981
 31
0.0
  0
LINE
  5
3E0
330
1F
100
AcDbEntity
  8
0
  6
Continuous
 62
     7
370
    25
100
AcDbLine
 10
4.592707808
 20
8.1964074351
 30
0.0
 11
4.592707808
 21
8.2134503907
 31
0.0
  0
LINE
  5
3E1
330
1F
100
AcDbEntity
  8
0
  6
Continuous
 62
     7
370
    25
100
AcDbLine
 10
4.592707808
 20
8.1326142532
 30
0.0
 11
4.592707808
 21
8.1505519316
 31
0.0
  0
LINE
  5
3E2
330
1F
100
AcDbEntity
  8
0
  6
Continuous
 62
     7
370
    25
100
AcDbLine
 10
4.592707808
 20
8.0657825451
 30
0.0
 11
4.592707808
 21
8.0845275556
 31
0.0
  0
LINE
  5
3E3
330
1F
100
AcDbEntity
  8
0
  6
Continuous
 62
     7
370
    25
100
AcDbLine
 10
4.592707808
 20
7.9962379083
 30
0.0
 11
4.592707808
 21
8.0156989271
 31
0.0
  0
LINE
  5
3E4
330
1F
100
AcDbEntity
  8
0
  6
Continuous
 62
     7
370
    25
100
AcDbLine
 10
4.592707808
 20
7.924319157
 30
0.0
 11
4.592707808
 21
7.9444013721
 31
0.0
  0
LINE
  5
3E5
330
1F
100
AcDbEntity
  8
0
  6
Continuous
 62
     7
370
    25
100
AcDbLine
 10
4.592707808
 20
7.8503766724
 30
0.0
 11
4.592707808
 21
7.8709822451
 31
0.0
  0
LINE
  5
3E6
330
1F
100
AcDbEntity
  8
0
  6
Continuous
 62
     7
370
    25
100
AcDbLine
 10
4.592707808
 20
7.7747706946
 30
0.0
 11
4.592707808
 21
7.7957992367
 31
0.0
  0
LINE
  5
3E7
330
1F
100
AcDbEntity
  8
0
  6
Continuous
 62
     7
370
    25
100
AcDbLine
 10
4.592707808
 20
7.6978695686
 30
0.0
 11
4.592707808
 21
7.7192186311
 31
0.0
  0
LINE
  5
3E8
330
1F
100
AcDbEntity
  8
0
  6
Continuous
 62
     7
370
    25
100
AcDbLine
 10
4.592707808
 20
7.6200479487
 30
0.0
 11
4.592707808
 21
7.6416135212
 31
0.0
  0
LINE
  5
3E9
330
1F
100
AcDbEntity
  8
0
  6
Continuous
 62
     7
370
    25
100
AcDbLine
 10
4.592707808
 20
7.5416849741
 30
0.0
 11
4.592707808
 21
7.5633619914
 31
0.0
  0
LINE
  5
3EA
330
1F
100
AcDbEntity
  8
0
  6
Continuous
 62
     7
370
    25
100
AcDbLine
 10
4.592707808
 20
7.4631624215
 30
0.0
 11
4.592707808
 21
7.4848452751
 31
0.0
  0
LINE
  5
3EB
330
1F
100
AcDbEntity
  8
0
  6
Continuous
 62
     7
370
    25
100
AcDbLine
 10
4.592707808
 20
7.3848628446
 30
0.0
 11
4.592707808
 21
7.406445898
 31
0.0
  0
LINE
  5
3EC
330
1F
100
AcDbEntity
  8
0
  6
Continuous
 62
     7
370
    25
100
AcDbLine
 10
4.592707808
 20
7.3071677113
 30
0.0
 11
4.592707808
 21
7.3285458139
 31
0.0
  0
LINE
  5
3ED
330
1F
100
AcDbEntity
  8
0
  6
Continuous
 62
     7
370
    25
100
AcDbLine
 10
4.592707808
 20
7.2304555443
 30
0.0
 11
4.592707808
 21
7.2515245442
 31
0.0
  0
LINE
  5
3EE
330
1F
100
AcDbEntity
  8
0
  6
Continuous
 62
     7
370
    25
100
AcDbLine
 10
4.592707808
 20
7.1551000777
 30
0.0
 11
4.592707808
 21
7.1757573289
 31
0.0
  0
LINE
  5
3EF
330
1F
100
AcDbEntity
  8
0
  6
Continuous
 62
     7
370
    25
100
AcDbLine
 10
4.592707808
 20
7.0814684357
 30
0.0
 11
4.592707808
 21
7.1016132981
 31
0.0
  0
LINE
  5
3F0
330
1F
100
AcDbEntity
  8
0
  6
Continuous
 62
     7
370
    25
100
AcDbLine
 10
4.592707808
 20
7.0099193443
 30
0.0
 11
4.592707808
 21
7.0294536741
 31
0.0
  0
LINE
  5
3F1
330
1F
100
AcDbEntity
  8
0
  6
Continuous
 62
     7
370
    25
100
AcDbLine
 10
4.592707808
 20
6.9408013834
 30
0.0
 11
4.592707808
 21
6.9596300114
 31
0.0
  0
LINE
  5
3F2
330
1F
100
AcDbEntity
  8
0
  6
Continuous
 62
     7
370
    25
100
AcDbLine
 10
4.592707808
 20
6.8744512888
 30
0.0
 11
4.592707808
 21
6.8924824838
 31
0.0
  0
LINE
  5
3F3
330
1F
100
AcDbEntity
  8
0
  6
Continuous
 62
     7
370
    25
100
AcDbLine
 10
4.592707808
 20
6.8111923116
 30
0.0
 11
4.592707808
 21
6.8283382273
 31
0.0
  0
LINE
  5
3F4
330
1F
100
AcDbEntity
  8
0
  6
Continuous
 62
     7
370
    25
100
AcDbLine
 10
4.592707808
 20
6.751332643
 30
0.0
 11
4.592707808
 21
6.7675097464
 31
0.0
  0
LINE
  5
3F5
330
1F
100
AcDbEntity
  8
0
  6
Continuous
 62
     7
370
    25
100
AcDbLine
 10
4.592707808
 20
6.6951639133
 30
0.0
 11
4.592707808
 21
6.7102933912
 31
0.0
  0
LINE
  5
3F6
330
1F
100
AcDbEntity
  8
0
  6
Continuous
 62
     7
370
    25
100
AcDbLine
 10
4.592707808
 20
6.6429597711
 30
0.0
 11
4.592707808
 21
6.6543663503
 31
0.0
  0
LINE
  5
3F7
330
1F
100
AcDbEntity
  8
0
  6
Continuous
 62
     7
370
    25
100
AcDbLine
 10
4.592707808
 20
6.5949745495
 30
0.0
 11
4.592707808
 21
6.6030272739
 31
0.0
  0
LINE
  5
3F8
330
1F
100
AcDbEntity
  8
0
  6
Continuous
 62
     7
370
    25
100
AcDbLine
 10
4.592707808
 20
6.5514420279
 30
0.0
 11
4.592707808
 21
6.5561016653
 31
0.0
  0
LINE
  5
3F9
330
1F
100
AcDbEntity
  8
0
  6
Continuous
 62
     7
370
    25
100
AcDbLine
 10
4.592707808
 20
6.5125742922
 30
0.0
 11
4.592707808
 21
6.5138181414
 31
0.0
  0
LINE
  5
3FA
330
1F
100
AcDbEntity
  8
0
  6
Continuous
 62
     7
370
    25
100
AcDbLine
 10
4.492707808
 20
6.4239301634
 30
0.0
 11
4.492707808
 21
8.5939301634
 31
0.0
  0
LINE
  5
3FB
330
1F
100
AcDbEntity
  8
0
  6
Continuous
 62
     7
370
    25
100
AcDbLine
 10
4.872707808
 20
7.2816584665
 30
0.0
 11
4.592707808
 21
7.2816584665
 31
0.0
  0
LINE
  5
3FC
330
1F
100
AcDbEntity
  8
0
  6
Continuous
 62
     7
370
    25
100
AcDbLine
 10
4.592707808
 20
7.2677099386
 30
0.0
 11
4.872707808
 21
7.2677099386
 31
0.0
  0
LINE
  5
3FD
330
1F
100
AcDbEntity
  8
0
  6
Continuous
 62
     7
370
    25
100
AcDbLine
 10
4.592707808
 20
7.2677099386
 30
0.0
 11
4.592707808
 21
7.2816584665
 31
0.0
  0
LINE
  5
3FE
330
1F
100
AcDbEntity
  8
0
  6
Continuous
 62
     7
370
    25
100
AcDbLine
 10
4.872707808
 20
7.2816584665
 30
0.0
 11
4.872707808
 21
7.2677099386
 31
0.0
  0
LINE
  5
3FF
330
1F
100
AcDbEntity
  8
0
  6
Continuous
 62
     7
370
    25
100
AcDbLine
 10
4.592707808
 20
7.3071677113
 30
0.0
 11
4.592707808
 21
7.2816584665
 31
0.0
  0
LINE
  5
400
330
1F
100
AcDbEntity
  8
0
  6
Continuous
 62
     7
370
    25
100
AcDbLine
 10
4.872707808
 20
7.2816584665
 30
0.0
 11
4.872707808
 21
7.319699077
 31
0.0
  0
LINE
  5
401
330
1F
100
AcDbEntity
  8
0
  6
Continuous
 62
     7
370
    25
100
AcDbLine
 10
4.592707808
 20
7.744865947
 30
0.0
 11
4.872707808
 21
7.744865947
 31
0.0
  0
LINE
  5
402
330
1F
100
AcDbEntity
  8
0
  6
Continuous
 62
     7
370
    25
100
AcDbLine
 10
4.592707808
 20
7.744865947
 30
0.0
 11
4.592707808
 21
7.7192186311
 31
0.0
  0
LINE
  5
403
330
1F
100
AcDbEntity
  8
0
  6
Continuous
 62
     7
370
    25
100
AcDbLine
 10
4.872707808
 20
7.7066194383
 30
0.0
 11
4.872707808
 21
7.744865947
 31
0.0
  0
LINE
  5
404
330
1F
100
AcDbEntity
  8
0
  6
Continuous
 62
     7
370
    25
100
AcDbLine
 10
4.872707808
 20
7.7587916371
 30
0.0
 11
4.592707808
 21
7.7587916371
 31
0.0
  0
LINE
  5
405
330
1F
100
AcDbEntity
  8
0
  6
Continuous
 62
     7
370
    25
100
AcDbLine
 10
4.592707808
 20
7.744865947
 30
0.0
 11
4.592707808
 21
7.7587916371
 31
0.0
  0
LINE
  5
406
330
1F
100
AcDbEntity
  8
0
  6
Continuous
 62
     7
370
    25
100
AcDbLine
 10
4.872707808
 20
7.7587916371
 30
0.0
 11
4.872707808
 21
7.744865947
 31
0.0
  0
LINE
  5
407
330
1F
100
AcDbEntity
  8
0
  6
Continuous
 62
     7
370
    25
100
AcDbLine
 10
4.592707808
 20
7.2435735014
 30
0.0
 11
4.872707808
 21
7.2435735014
 31
0.0
  0
LINE
  5
408
330
1F
100
AcDbEntity
  8
0
  6
Continuous
 62
     7
370
    25
100
AcDbLine
 10
4.592707808
 20
7.2677099386
 30
0.0
 11
4.592707808
 21
7.2515245442
 31
0.0
  0
LINE
  5
409
330
1F
100
AcDbEntity
  8
0
  6
Continuous
 62
     7
370
    25
100
AcDbLine
 10
4.872707808
 20
7.2435735014
 30
0.0
 11
4.872707808
 21
7.2677099386
 31
0.0
  0
LINE
  5
40A
330
1F
100
AcDbEntity
  8
0
  6
Continuous
 62
     7
370
    25
100
AcDbLine
 10
4.592707808
 20
7.7826203748
 30
0.0
 11
4.872707808
 21
7.7826203748
 31
0.0
  0
LINE
  5
40B
330
1F
100
AcDbEntity
  8
0
  6
Continuous
 62
     7
370
    25
100
AcDbLine
 10
4.592707808
 20
7.7747706946
 30
0.0
 11
4.592707808
 21
7.7587916371
 31
0.0
  0
LINE
  5
40C
330
1F
100
AcDbEntity
  8
0
  6
Continuous
 62
     7
370
    25
100
AcDbLine
 10
4.872707808
 20
7.7587916371
 30
0.0
 11
4.872707808
 21
7.7826203748
 31
0.0
  0
LINE
  5
40D
330
1F
100
AcDbEntity
  8
0
  6
Continuous
 62
     7
370
    25
100
AcDbLine
 10
4.872707808
 20
7.2037522155
 30
0.0
 11
4.592707808
 21
7.2037522155
 31
0.0
  0
LINE
  5
40E
330
1F
100
AcDbEntity
  8
0
  6
Continuous
 62
     7
370
    25
100
AcDbLine
 10
4.592707808
 20
7.2304555443
 30
0.0
 11
4.592707808
 21
7.2037522155
 31
0.0
  0
LINE
  5
40F
330
1F
100
AcDbEntity
  8
0
  6
Continuous
 62
     7
370
    25
100
AcDbLine
 10
4.872707808
 20
7.2037522155
 30
0.0
 11
4.872707808
 21
7.2435735014
 31
0.0
  0
LINE
  5
410
330
1F
100
AcDbEntity
  8
0
  6
Continuous
 62
     7
370
    25
100
AcDbLine
 10
4.592707808
 20
7.1900405664
 30
0.0
 11
4.872707808
 21
7.1900405664
 31
0.0
  0
LINE
  5
411
330
1F
100
AcDbEntity
  8
0
  6
Continuous
 62
     7
370
    25
100
AcDbLine
 10
4.592707808
 20
7.1900405664
 30
0.0
 11
4.592707808
 21
7.2037522155
 31
0.0
  0
LINE
  5
412
330
1F
100
AcDbEntity
  8
0
  6
Continuous
 62
     7
370
    25
100
AcDbLine
 10
4.872707808
 20
7.2037522155
 30
0.0
 11
4.872707808
 21
7.1900405664
 31
0.0
  0
LINE
  5
413
330
1F
100
AcDbEntity
  8
0
  6
Continuous
 62
     7
370
    25
100
AcDbLine
 10
4.592707808
 20
7.8226265453
 30
0.0
 11
4.872707808
 21
7.8226265453
 31
0.0
  0
LINE
  5
414
330
1F
100
AcDbEntity
  8
0
  6
Continuous
 62
     7
370
    25
100
AcDbLine
 10
4.592707808
 20
7.8226265453
 30
0.0
 11
4.592707808
 21
7.7957992367
 31
0.0
  0
LINE
  5
415
330
1F
100
AcDbEntity
  8
0
  6
Continuous
 62
     7
370
    25
100
AcDbLine
 10
4.872707808
 20
7.7826203748
 30
0.0
 11
4.872707808
 21
7.8226265453
 31
0.0
  0
LINE
  5
416
330
1F
100
AcDbEntity
  8
0
  6
Continuous
 62
     7
370
    25
100
AcDbLine
 10
4.872707808
 20
7.8363079175
 30
0.0
 11
4.592707808
 21
7.8363079175
 31
0.0
  0
LINE
  5
417
330
1F
100
AcDbEntity
  8
0
  6
Continuous
 62
     7
370
    25
100
AcDbLine
 10
4.592707808
 20
7.8226265453
 30
0.0
 11
4.592707808
 21
7.8363079175
 31
0.0
  0
LINE
  5
418
330
1F
100
AcDbEntity
  8
0
  6
Continuous
 62
     7
370
    25
100
AcDbLine
 10
4.872707808
 20
7.8363079175
 30
0.0
 11
4.872707808
 21
7.8226265453
 31
0.0
  0
LINE
  5
419
330
1F
100
AcDbEntity
  8
0
  6
Continuous
 62
     7
370
    25
100
AcDbLine
 10
4.592707808
 20
7.1687407169
 30
0.0
 11
4.872707808
 21
7.1687407169
 31
0.0
  0
LINE
  5
41A
330
1F
100
AcDbEntity
  8
0
  6
Continuous
 62
     7
370
    25
100
AcDbLine
 10
4.592707808
 20
7.1900405664
 30
0.0
 11
4.592707808
 21
7.1757573289
 31
0.0
  0
LINE
  5
41B
330
1F
100
AcDbEntity
  8
0
  6
Continuous
 62
     7
370
    25
100
AcDbLine
 10
4.872707808
 20
7.1687407169
 30
0.0
 11
4.872707808
 21
7.1900405664
 31
0.0
  0
LINE
  5
41C
330
1F
100
AcDbEntity
  8
0
  6
Continuous
 62
     7
370
    25
100
AcDbLine
 10
4.592707808
 20
7.8572879202
 30
0.0
 11
4.872707808
 21
7.8572879202
 31
0.0
  0
LINE
  5
41D
330
1F
100
AcDbEntity
  8
0
  6
Continuous
 62
     7
370
    25
100
AcDbLine
 10
4.592707808
 20
7.8503766724
 30
0.0
 11
4.592707808
 21
7.8363079175
 31
0.0
  0
LINE
  5
41E
330
1F
100
AcDbEntity
  8
0
  6
Continuous
 62
     7
370
    25
100
AcDbLine
 10
4.872707808
 20
7.8363079175
 30
0.0
 11
4.872707808
 21
7.8572879202
 31
0.0
  0
LINE
  5
41F
330
1F
100
AcDbEntity
  8
0
  6
Continuous
 62
     7
370
    25
100
AcDbLine
 10
4.872707808
 20
7.1273327608
 30
0.0
 11
4.592707808
 21
7.1273327608
 31
0.0
  0
LINE
  5
420
330
1F
100
AcDbEntity
  8
0
  6
Continuous
 62
     7
370
    25
100
AcDbLine
 10
4.592707808
 20
7.1139247923
 30
0.0
 11
4.872707808
 21
7.1139247923
 31
0.0
  0
LINE
  5
421
330
1F
100
AcDbEntity
  8
0
  6
Continuous
 62
     7
370
    25
100
AcDbLine
 10
4.592707808
 20
7.1139247923
 30
0.0
 11
4.592707808
 21
7.1273327608
 31
0.0
  0
LINE
  5
422
330
1F
100
AcDbEntity
  8
0
  6
Continuous
 62
     7
370
    25
100
AcDbLine
 10
4.872707808
 20
7.1273327608
 30
0.0
 11
4.872707808
 21
7.1139247923
 31
0.0
  0
LINE
  5
423
330
1F
100
AcDbEntity
  8
0
  6
Continuous
 62
     7
370
    25
100
AcDbLine
 10
4.592707808
 20
7.1551000777
 30
0.0
 11
4.592707808
 21
7.1273327608
 31
0.0
  0
LINE
  5
424
330
1F
100
AcDbEntity
  8
0
  6
Continuous
 62
     7
370
    25
100
AcDbLine
 10
4.872707808
 20
7.1273327608
 30
0.0
 11
4.872707808
 21
7.1687407169
 31
0.0
  0
LINE
  5
425
330
1F
100
AcDbEntity
  8
0
  6
Continuous
 62
     7
370
    25
100
AcDbLine
 10
4.872707808
 20
7.9122292463
 30
0.0
 11
4.592707808
 21
7.9122292463
 31
0.0
  0
LINE
  5
426
330
1F
100
AcDbEntity
  8
0
  6
Continuous
 62
     7
370
    25
100
AcDbLine
 10
4.592707808
 20
7.8988588463
 30
0.0
 11
4.872707808
 21
7.8988588463
 31
0.0
  0
LINE
  5
427
330
1F
100
AcDbEntity
  8
0
  6
Continuous
 62
     7
370
    25
100
AcDbLine
 10
4.592707808
 20
7.8988588463
 30
0.0
 11
4.592707808
 21
7.9122292463
 31
0.0
  0
LINE
  5
428
330
1F
100
AcDbEntity
  8
0
  6
Continuous
 62
     7
370
    25
100
AcDbLine
 10
4.872707808
 20
7.9122292463
 30
0.0
 11
4.872707808
 21
7.8988588463
 31
0.0
  0
LINE
  5
429
330
1F
100
AcDbEntity
  8
0
  6
Continuous
 62
     7
370
    25
100
AcDbLine
 10
4.592707808
 20
7.8988588463
 30
0.0
 11
4.592707808
 21
7.8709822451
 31
0.0
  0
LINE
  5
42A
330
1F
100
AcDbEntity
  8
0
  6
Continuous
 62
     7
370
    25
100
AcDbLine
 10
4.872707808
 20
7.8572879202
 30
0.0
 11
4.872707808
 21
7.8988588463
 31
0.0
  0
LINE
  5
42B
330
1F
100
AcDbEntity
  8
0
  6
Continuous
 62
     7
370
    25
100
AcDbLine
 10
4.592707808
 20
7.0955653011
 30
0.0
 11
4.872707808
 21
7.0955653011
 31
0.0
  0
LINE
  5
42C
330
1F
100
AcDbEntity
  8
0
  6
Continuous
 62
     7
370
    25
100
AcDbLine
 10
4.592707808
 20
7.1139247923
 30
0.0
 11
4.592707808
 21
7.1016132981
 31
0.0
  0
LINE
  5
42D
330
1F
100
AcDbEntity
  8
0
  6
Continuous
 62
     7
370
    25
100
AcDbLine
 10
4.872707808
 20
7.0955653011
 30
0.0
 11
4.872707808
 21
7.1139247923
 31
0.0
  0
LINE
  5
42E
330
1F
100
AcDbEntity
  8
0
  6
Continuous
 62
     7
370
    25
100
AcDbLine
 10
4.592707808
 20
7.9302583016
 30
0.0
 11
4.872707808
 21
7.9302583016
 31
0.0
  0
LINE
  5
42F
330
1F
100
AcDbEntity
  8
0
  6
Continuous
 62
     7
370
    25
100
AcDbLine
 10
4.592707808
 20
7.924319157
 30
0.0
 11
4.592707808
 21
7.9122292463
 31
0.0
  0
LINE
  5
430
330
1F
100
AcDbEntity
  8
0
  6
Continuous
 62
     7
370
    25
100
AcDbLine
 10
4.872707808
 20
7.9122292463
 30
0.0
 11
4.872707808
 21
7.9302583016
 31
0.0
  0
LINE
  5
431
330
1F
100
AcDbEntity
  8
0
  6
Continuous
 62
     7
370
    25
100
AcDbLine
 10
4.872707808
 20
7.0527724103
 30
0.0
 11
4.592707808
 21
7.0527724103
 31
0.0
  0
LINE
  5
432
330
1F
100
AcDbEntity
  8
0
  6
Continuous
 62
     7
370
    25
100
AcDbLine
 10
4.592707808
 20
7.0814684357
 30
0.0
 11
4.592707808
 21
7.0527724103
 31
0.0
  0
LINE
  5
433
330
1F
100
AcDbEntity
  8
0
  6
Continuous
 62
     7
370
    25
100
AcDbLine
 10
4.872707808
 20
7.0527724103
 30
0.0
 11
4.872707808
 21
7.0955653011
 31
0.0
  0
LINE
  5
434
330
1F
100
AcDbEntity
  8
0
  6
Continuous
 62
     7
370
    25
100
AcDbLine
 10
4.592707808
 20
7.0397334446
 30
0.0
 11
4.872707808
 21
7.0397334446
 31
0.0
  0
LINE
  5
435
330
1F
100
AcDbEntity
  8
0
  6
Continuous
 62
     7
370
    25
100
AcDbLine
 10
4.592707808
 20
7.0397334446
 30
0.0
 11
4.592707808
 21
7.0527724103
 31
0.0
  0
LINE
  5
436
330
1F
100
AcDbEntity
  8
0
  6
Continuous
 62
     7
370
    25
100
AcDbLine
 10
4.872707808
 20
7.0527724103
 30
0.0
 11
4.872707808
 21
7.0397334446
 31
0.0
  0
LINE
  5
437
330
1F
100
AcDbEntity
  8
0
  6
Continuous
 62
     7
370
    25
100
AcDbLine
 10
4.592707808
 20
7.9731914541
 30
0.0
 11
4.872707808
 21
7.9731914541
 31
0.0
  0
LINE
  5
438
330
1F
100
AcDbEntity
  8
0
  6
Continuous
 62
     7
370
    25
100
AcDbLine
 10
4.592707808
 20
7.9731914541
 30
0.0
 11
4.592707808
 21
7.9444013721
 31
0.0
  0
LINE
  5
439
330
1F
100
AcDbEntity
  8
0
  6
Continuous
 62
     7
370
    25
100
AcDbLine
 10
4.872707808
 20
7.9302583016
 30
0.0
 11
4.872707808
 21
7.9731914541
 31
0.0
  0
LINE
  5
43A
330
1F
100
AcDbEntity
  8
0
  6
Continuous
 62
     7
370
    25
100
AcDbLine
 10
4.872707808
 20
7.9861857426
 30
0.0
 11
4.592707808
 21
7.9861857426
 31
0.0
  0
LINE
  5
43B
330
1F
100
AcDbEntity
  8
0
  6
Continuous
 62
     7
370
    25
100
AcDbLine
 10
4.592707808
 20
7.9731914541
 30
0.0
 11
4.592707808
 21
7.9861857426
 31
0.0
  0
LINE
  5
43C
330
1F
100
AcDbEntity
  8
0
  6
Continuous
 62
     7
370
    25
100
AcDbLine
 10
4.872707808
 20
7.9861857426
 30
0.0
 11
4.872707808
 21
7.9731914541
 31
0.0
  0
LINE
  5
43D
330
1F
100
AcDbEntity
  8
0
  6
Continuous
 62
     7
370
    25
100
AcDbLine
 10
4.592707808
 20
7.0244037573
 30
0.0
 11
4.872707808
 21
7.0244037573
 31
0.0
  0
LINE
  5
43E
330
1F
100
AcDbEntity
  8
0
  6
Continuous
 62
     7
370
    25
100
AcDbLine
 10
4.592707808
 20
7.0397334446
 30
0.0
 11
4.592707808
 21
7.0294536741
 31
0.0
  0
LINE
  5
43F
330
1F
100
AcDbEntity
  8
0
  6
Continuous
 62
     7
370
    25
100
AcDbLine
 10
4.872707808
 20
7.0244037573
 30
0.0
 11
4.872707808
 21
7.0397334446
 31
0.0
  0
LINE
  5
440
330
1F
100
AcDbEntity
  8
0
  6
Continuous
 62
     7
370
    25
100
AcDbLine
 10
4.592707808
 20
8.0011760146
 30
0.0
 11
4.872707808
 21
8.0011760146
 31
0.0
  0
LINE
  5
441
330
1F
100
AcDbEntity
  8
0
  6
Continuous
 62
     7
370
    25
100
AcDbLine
 10
4.592707808
 20
7.9962379083
 30
0.0
 11
4.592707808
 21
7.9861857426
 31
0.0
  0
LINE
  5
442
330
1F
100
AcDbEntity
  8
0
  6
Continuous
 62
     7
370
    25
100
AcDbLine
 10
4.872707808
 20
7.9861857426
 30
0.0
 11
4.872707808
 21
8.0011760146
 31
0.0
  0
LINE
  5
443
330
1F
100
AcDbEntity
  8
0
  6
Continuous
 62
     7
370
    25
100
AcDbLine
 10
4.872707808
 20
6.9804344146
 30
0.0
 11
4.592707808
 21
6.9804344146
 31
0.0
  0
LINE
  5
444
330
1F
100
AcDbEntity
  8
0
  6
Continuous
 62
     7
370
    25
100
AcDbLine
 10
4.592707808
 20
6.9678279761
 30
0.0
 11
4.872707808
 21
6.9678279761
 31
0.0
  0
LINE
  5
445
330
1F
100
AcDbEntity
  8
0
  6
Continuous
 62
     7
370
    25
100
AcDbLine
 10
4.592707808
 20
6.9678279761
 30
0.0
 11
4.592707808
 21
6.9804344146
 31
0.0
  0
LINE
  5
446
330
1F
100
AcDbEntity
  8
0
  6
Continuous
 62
     7
370
    25
100
AcDbLine
 10
4.872707808
 20
6.9804344146
 30
0.0
 11
4.872707808
 21
6.9678279761
 31
0.0
  0
LINE
  5
447
330
1F
100
AcDbEntity
  8
0
  6
Continuous
 62
     7
370
    25
100
AcDbLine
 10
4.592707808
 20
7.0099193443
 30
0.0
 11
4.592707808
 21
6.9804344146
 31
0.0
  0
LINE
  5
448
330
1F
100
AcDbEntity
  8
0
  6
Continuous
 62
     7
370
    25
100
AcDbLine
 10
4.872707808
 20
6.9804344146
 30
0.0
 11
4.872707808
 21
7.0244037573
 31
0.0
  0
LINE
  5
449
330
1F
100
AcDbEntity
  8
0
  6
Continuous
 62
     7
370
    25
100
AcDbLine
 10
4.454707808
 20
6.931679674
 30
0.0
 11
4.454707808
 21
8.5019908532
 31
0.0
  0
LINE
  5
44A
330
1F
100
AcDbEntity
  8
0
  6
Continuous
 62
     7
370
    25
100
AcDbLine
 10
4.454707808
 20
6.5158694737
 30
0.0
 11
4.454707808
 21
6.931679674
 31
0.0
  0
LINE
  5
44B
330
1F
100
AcDbEntity
  8
0
  6
Continuous
 62
     7
370
    25
100
AcDbLine
 10
4.592707808
 20
8.0452622274
 30
0.0
 11
4.872707808
 21
8.0452622274
 31
0.0
  0
LINE
  5
44C
330
1F
100
AcDbEntity
  8
0
  6
Continuous
 62
     7
370
    25
100
AcDbLine
 10
4.592707808
 20
8.0452622274
 30
0.0
 11
4.592707808
 21
8.0156989271
 31
0.0
  0
LINE
  5
44D
330
1F
100
AcDbEntity
  8
0
  6
Continuous
 62
     7
370
    25
100
AcDbLine
 10
4.872707808
 20
8.0011760146
 30
0.0
 11
4.872707808
 21
8.0452622274
 31
0.0
  0
LINE
  5
44E
330
1F
100
AcDbEntity
  8
0
  6
Continuous
 62
     7
370
    25
100
AcDbLine
 10
4.872707808
 20
8.0578170976
 30
0.0
 11
4.592707808
 21
8.0578170976
 31
0.0
  0
LINE
  5
44F
330
1F
100
AcDbEntity
  8
0
  6
Continuous
 62
     7
370
    25
100
AcDbLine
 10
4.592707808
 20
8.0452622274
 30
0.0
 11
4.592707808
 21
8.0578170976
 31
0.0
  0
LINE
  5
450
330
1F
100
AcDbEntity
  8
0
  6
Continuous
 62
     7
370
    25
100
AcDbLine
 10
4.872707808
 20
8.0578170976
 30
0.0
 11
4.872707808
 21
8.0452622274
 31
0.0
  0
LINE
  5
451
330
1F
100
AcDbEntity
  8
0
  6
Continuous
 62
     7
370
    25
100
AcDbLine
 10
4.592707808
 20
6.9556027775
 30
0.0
 11
4.872707808
 21
6.9556027775
 31
0.0
  0
LINE
  5
452
330
1F
100
AcDbEntity
  8
0
  6
Continuous
 62
     7
370
    25
100
AcDbLine
 10
4.592707808
 20
6.9678279761
 30
0.0
 11
4.592707808
 21
6.9596300114
 31
0.0
  0
LINE
  5
453
330
1F
100
AcDbEntity
  8
0
  6
Continuous
 62
     7
370
    25
100
AcDbLine
 10
4.872707808
 20
6.9556027775
 30
0.0
 11
4.872707808
 21
6.9678279761
 31
0.0
  0
LINE
  5
454
330
1F
100
AcDbEntity
  8
0
  6
Continuous
 62
     7
370
    25
100
AcDbLine
 10
4.592707808
 20
8.0696955554
 30
0.0
 11
4.872707808
 21
8.0696955554
 31
0.0
  0
LINE
  5
455
330
1F
100
AcDbEntity
  8
0
  6
Continuous
 62
     7
370
    25
100
AcDbLine
 10
4.592707808
 20
8.0657825451
 30
0.0
 11
4.592707808
 21
8.0578170976
 31
0.0
  0
LINE
  5
456
330
1F
100
AcDbEntity
  8
0
  6
Continuous
 62
     7
370
    25
100
AcDbLine
 10
4.872707808
 20
8.0578170976
 30
0.0
 11
4.872707808
 21
8.0696955554
 31
0.0
  0
LINE
  5
457
330
1F
100
AcDbEntity
  8
0
  6
Continuous
 62
     7
370
    25
100
AcDbLine
 10
4.872707808
 20
6.9106711969
 30
0.0
 11
4.592707808
 21
6.9106711969
 31
0.0
  0
LINE
  5
458
330
1F
100
AcDbEntity
  8
0
  6
Continuous
 62
     7
370
    25
100
AcDbLine
 10
4.592707808
 20
6.9408013834
 30
0.0
 11
4.592707808
 21
6.9106711969
 31
0.0
  0
LINE
  5
459
330
1F
100
AcDbEntity
  8
0
  6
Continuous
 62
     7
370
    25
100
AcDbLine
 10
4.872707808
 20
6.9106711969
 30
0.0
 11
4.872707808
 21
6.9556027775
 31
0.0
  0
LINE
  5
45A
330
1F
100
AcDbEntity
  8
0
  6
Continuous
 62
     7
370
    25
100
AcDbLine
 10
4.592707808
 20
6.8985587031
 30
0.0
 11
4.872707808
 21
6.8985587031
 31
0.0
  0
LINE
  5
45B
330
1F
100
AcDbEntity
  8
0
  6
Continuous
 62
     7
370
    25
100
AcDbLine
 10
4.592707808
 20
6.8985587031
 30
0.0
 11
4.592707808
 21
6.9106711969
 31
0.0
  0
LINE
  5
45C
330
1F
100
AcDbEntity
  8
0
  6
Continuous
 62
     7
370
    25
100
AcDbLine
 10
4.872707808
 20
6.9106711969
 30
0.0
 11
4.872707808
 21
6.8985587031
 31
0.0
  0
LINE
  5
45D
330
1F
100
AcDbEntity
  8
0
  6
Continuous
 62
     7
370
    25
100
AcDbLine
 10
4.872707808
 20
8.1267743307
 30
0.0
 11
4.592707808
 21
8.1267743307
 31
0.0
  0
LINE
  5
45E
330
1F
100
AcDbEntity
  8
0
  6
Continuous
 62
     7
370
    25
100
AcDbLine
 10
4.592707808
 20
8.1147200449
 30
0.0
 11
4.872707808
 21
8.1147200449
 31
0.0
  0
LINE
  5
45F
330
1F
100
AcDbEntity
  8
0
  6
Continuous
 62
     7
370
    25
100
AcDbLine
 10
4.592707808
 20
8.1147200449
 30
0.0
 11
4.592707808
 21
8.1267743307
 31
0.0
  0
LINE
  5
460
330
1F
100
AcDbEntity
  8
0
  6
Continuous
 62
     7
370
    25
100
AcDbLine
 10
4.872707808
 20
8.1267743307
 30
0.0
 11
4.872707808
 21
8.1147200449
 31
0.0
  0
LINE
  5
461
330
1F
100
AcDbEntity
  8
0
  6
Continuous
 62
     7
370
    25
100
AcDbLine
 10
4.592707808
 20
8.1147200449
 30
0.0
 11
4.592707808
 21
8.0845275556
 31
0.0
  0
LINE
  5
462
330
1F
100
AcDbEntity
  8
0
  6
Continuous
 62
     7
370
    25
100
AcDbLine
 10
4.872707808
 20
8.0696955554
 30
0.0
 11
4.872707808
 21
8.1147200449
 31
0.0
  0
LINE
  5
463
330
1F
100
AcDbEntity
  8
0
  6
Continuous
 62
     7
370
    25
100
AcDbLine
 10
4.592707808
 20
6.8894975531
 30
0.0
 11
4.872707808
 21
6.8894975531
 31
0.0
  0
LINE
  5
464
330
1F
100
AcDbEntity
  8
0
  6
Continuous
 62
     7
370
    25
100
AcDbLine
 10
4.592707808
 20
6.8985587031
 30
0.0
 11
4.592707808
 21
6.8924824838
 31
0.0
  0
LINE
  5
465
330
1F
100
AcDbEntity
  8
0
  6
Continuous
 62
     7
370
    25
100
AcDbLine
 10
4.872707808
 20
6.8894975531
 30
0.0
 11
4.872707808
 21
6.8985587031
 31
0.0
  0
LINE
  5
466
330
1F
100
AcDbEntity
  8
0
  6
Continuous
 62
     7
370
    25
100
AcDbLine
 10
4.592707808
 20
8.1354831035
 30
0.0
 11
4.872707808
 21
8.1354831035
 31
0.0
  0
LINE
  5
467
330
1F
100
AcDbEntity
  8
0
  6
Continuous
 62
     7
370
    25
100
AcDbLine
 10
4.592707808
 20
8.1326142532
 30
0.0
 11
4.592707808
 21
8.1267743307
 31
0.0
  0
LINE
  5
468
330
1F
100
AcDbEntity
  8
0
  6
Continuous
 62
     7
370
    25
100
AcDbLine
 10
4.872707808
 20
8.1267743307
 30
0.0
 11
4.872707808
 21
8.1354831035
 31
0.0
  0
LINE
  5
469
330
1F
100
AcDbEntity
  8
0
  6
Continuous
 62
     7
370
    25
100
AcDbLine
 10
4.872707808
 20
6.8438226369
 30
0.0
 11
4.592707808
 21
6.8438226369
 31
0.0
  0
LINE
  5
46A
330
1F
100
AcDbEntity
  8
0
  6
Continuous
 62
     7
370
    25
100
AcDbLine
 10
4.592707808
 20
6.8744512888
 30
0.0
 11
4.592707808
 21
6.8438226369
 31
0.0
  0
LINE
  5
46B
330
1F
100
AcDbEntity
  8
0
  6
Continuous
 62
     7
370
    25
100
AcDbLine
 10
4.872707808
 20
6.8438226369
 30
0.0
 11
4.872707808
 21
6.8894975531
 31
0.0
  0
LINE
  5
46C
330
1F
100
AcDbEntity
  8
0
  6
Continuous
 62
     7
370
    25
100
AcDbLine
 10
4.592707808
 20
6.8322630986
 30
0.0
 11
4.872707808
 21
6.8322630986
 31
0.0
  0
LINE
  5
46D
330
1F
100
AcDbEntity
  8
0
  6
Continuous
 62
     7
370
    25
100
AcDbLine
 10
4.592707808
 20
6.8322630986
 30
0.0
 11
4.592707808
 21
6.8438226369
 31
0.0
  0
LINE
  5
46E
330
1F
100
AcDbEntity
  8
0
  6
Continuous
 62
     7
370
    25
100
AcDbLine
 10
4.872707808
 20
6.8438226369
 30
0.0
 11
4.872707808
 21
6.8322630986
 31
0.0
  0
LINE
  5
46F
330
1F
100
AcDbEntity
  8
0
  6
Continuous
 62
     7
370
    25
100
AcDbLine
 10
4.872707808
 20
8.1927214891
 30
0.0
 11
4.592707808
 21
8.1927214891
 31
0.0
  0
LINE
  5
470
330
1F
100
AcDbEntity
  8
0
  6
Continuous
 62
     7
370
    25
100
AcDbLine
 10
4.592707808
 20
8.181226515
 30
0.0
 11
4.872707808
 21
8.181226515
 31
0.0
  0
LINE
  5
471
330
1F
100
AcDbEntity
  8
0
  6
Continuous
 62
     7
370
    25
100
AcDbLine
 10
4.592707808
 20
8.181226515
 30
0.0
 11
4.592707808
 21
8.1927214891
 31
0.0
  0
LINE
  5
472
330
1F
100
AcDbEntity
  8
0
  6
Continuous
 62
     7
370
    25
100
AcDbLine
 10
4.872707808
 20
8.1927214891
 30
0.0
 11
4.872707808
 21
8.181226515
 31
0.0
  0
LINE
  5
473
330
1F
100
AcDbEntity
  8
0
  6
Continuous
 62
     7
370
    25
100
AcDbLine
 10
4.592707808
 20
8.181226515
 30
0.0
 11
4.592707808
 21
8.1505519316
 31
0.0
  0
LINE
  5
474
330
1F
100
AcDbEntity
  8
0
  6
Continuous
 62
     7
370
    25
100
AcDbLine
 10
4.872707808
 20
8.1354831035
 30
0.0
 11
4.872707808
 21
8.181226515
 31
0.0
  0
LINE
  5
475
330
1F
100
AcDbEntity
  8
0
  6
Continuous
 62
     7
370
    25
100
AcDbLine
 10
4.592707808
 20
6.8264101422
 30
0.0
 11
4.872707808
 21
6.8264101422
 31
0.0
  0
LINE
  5
476
330
1F
100
AcDbEntity
  8
0
  6
Continuous
 62
     7
370
    25
100
AcDbLine
 10
4.592707808
 20
6.8322630986
 30
0.0
 11
4.592707808
 21
6.8283382273
 31
0.0
  0
LINE
  5
477
330
1F
100
AcDbEntity
  8
0
  6
Continuous
 62
     7
370
    25
100
AcDbLine
 10
4.872707808
 20
6.8264101422
 30
0.0
 11
4.872707808
 21
6.8322630986
 31
0.0
  0
LINE
  5
478
330
1F
100
AcDbEntity
  8
0
  6
Continuous
 62
     7
370
    25
100
AcDbLine
 10
4.592707808
 20
8.1982181487
 30
0.0
 11
4.872707808
 21
8.1982181487
 31
0.0
  0
LINE
  5
479
330
1F
100
AcDbEntity
  8
0
  6
Continuous
 62
     7
370
    25
100
AcDbLine
 10
4.592707808
 20
8.1964074351
 30
0.0
 11
4.592707808
 21
8.1927214891
 31
0.0
  0
LINE
  5
47A
330
1F
100
AcDbEntity
  8
0
  6
Continuous
 62
     7
370
    25
100
AcDbLine
 10
4.872707808
 20
8.1927214891
 30
0.0
 11
4.872707808
 21
8.1982181487
 31
0.0
  0
LINE
  5
47B
330
1F
100
AcDbEntity
  8
0
  6
Continuous
 62
     7
370
    25
100
AcDbLine
 10
4.872707808
 20
6.7802144138
 30
0.0
 11
4.592707808
 21
6.7802144138
 31
0.0
  0
LINE
  5
47C
330
1F
100
AcDbEntity
  8
0
  6
Continuous
 62
     7
370
    25
100
AcDbLine
 10
4.592707808
 20
6.7692641479
 30
0.0
 11
4.872707808
 21
6.7692641479
 31
0.0
  0
LINE
  5
47D
330
1F
100
AcDbEntity
  8
0
  6
Continuous
 62
     7
370
    25
100
AcDbLine
 10
4.592707808
 20
6.7692641479
 30
0.0
 11
4.592707808
 21
6.7802144138
 31
0.0
  0
LINE
  5
47E
330
1F
100
AcDbEntity
  8
0
  6
Continuous
 62
     7
370
    25
100
AcDbLine
 10
4.872707808
 20
6.7802144138
 30
0.0
 11
4.872707808
 21
6.7692641479
 31
0.0
  0
LINE
  5
47F
330
1F
100
AcDbEntity
  8
0
  6
Continuous
 62
     7
370
    25
100
AcDbLine
 10
4.592707808
 20
6.8111923116
 30
0.0
 11
4.592707808
 21
6.7802144138
 31
0.0
  0
LINE
  5
480
330
1F
100
AcDbEntity
  8
0
  6
Continuous
 62
     7
370
    25
100
AcDbLine
 10
4.872707808
 20
6.7802144138
 30
0.0
 11
4.872707808
 21
6.8264101422
 31
0.0
  0
LINE
  5
481
330
1F
100
AcDbEntity
  8
0
  6
Continuous
 62
     7
370
    25
100
AcDbLine
 10
4.872707808
 20
8.2553372849
 30
0.0
 11
4.592707808
 21
8.2553372849
 31
0.0
  0
LINE
  5
482
330
1F
100
AcDbEntity
  8
0
  6
Continuous
 62
     7
370
    25
100
AcDbLine
 10
4.592707808
 20
8.2444576248
 30
0.0
 11
4.872707808
 21
8.2444576248
 31
0.0
  0
LINE
  5
483
330
1F
100
AcDbEntity
  8
0
  6
Continuous
 62
     7
370
    25
100
AcDbLine
 10
4.592707808
 20
8.2444576248
 30
0.0
 11
4.592707808
 21
8.2553372849
 31
0.0
  0
LINE
  5
484
330
1F
100
AcDbEntity
  8
0
  6
Continuous
 62
     7
370
    25
100
AcDbLine
 10
4.872707808
 20
8.2553372849
 30
0.0
 11
4.872707808
 21
8.2444576248
 31
0.0
  0
LINE
  5
485
330
1F
100
AcDbEntity
  8
0
  6
Continuous
 62
     7
370
    25
100
AcDbLine
 10
4.592707808
 20
8.2444576248
 30
0.0
 11
4.592707808
 21
8.2134503907
 31
0.0
  0
LINE
  5
486
330
1F
100
AcDbEntity
  8
0
  6
Continuous
 62
     7
370
    25
100
AcDbLine
 10
4.872707808
 20
8.1982181487
 30
0.0
 11
4.872707808
 21
8.2444576248
 31
0.0
  0
LINE
  5
487
330
1F
100
AcDbEntity
  8
0
  6
Continuous
 62
     7
370
    25
100
AcDbLine
 10
4.592707808
 20
6.7666479001
 30
0.0
 11
4.872707808
 21
6.7666479001
 31
0.0
  0
LINE
  5
488
330
1F
100
AcDbEntity
  8
0
  6
Continuous
 62
     7
370
    25
100
AcDbLine
 10
4.592707808
 20
6.7692641479
 30
0.0
 11
4.592707808
 21
6.7675097464
 31
0.0
  0
LINE
  5
489
330
1F
100
AcDbEntity
  8
0
  6
Continuous
 62
     7
370
    25
100
AcDbLine
 10
4.872707808
 20
6.7666479001
 30
0.0
 11
4.872707808
 21
6.7692641479
 31
0.0
  0
LINE
  5
48A
330
1F
100
AcDbEntity
  8
0
  6
Continuous
 62
     7
370
    25
100
AcDbLine
 10
4.592707808
 20
8.2575950521
 30
0.0
 11
4.872707808
 21
8.2575950521
 31
0.0
  0
LINE
  5
48B
330
1F
100
AcDbEntity
  8
0
  6
Continuous
 62
     7
370
    25
100
AcDbLine
 10
4.592707808
 20
8.2568512968
 30
0.0
 11
4.592707808
 21
8.2553372849
 31
0.0
  0
LINE
  5
48C
330
1F
100
AcDbEntity
  8
0
  6
Continuous
 62
     7
370
    25
100
AcDbLine
 10
4.872707808
 20
8.2553372849
 30
0.0
 11
4.872707808
 21
8.2575950521
 31
0.0
  0
LINE
  5
48D
330
1F
100
AcDbEntity
  8
0
  6
Continuous
 62
     7
370
    25
100
AcDbLine
 10
4.872707808
 20
6.7201564207
 30
0.0
 11
4.592707808
 21
6.7201564207
 31
0.0
  0
LINE
  5
48E
330
1F
100
AcDbEntity
  8
0
  6
Continuous
 62
     7
370
    25
100
AcDbLine
 10
4.592707808
 20
6.751332643
 30
0.0
 11
4.592707808
 21
6.7201564207
 31
0.0
  0
LINE
  5
48F
330
1F
100
AcDbEntity
  8
0
  6
Continuous
 62
     7
370
    25
100
AcDbLine
 10
4.872707808
 20
6.7201564207
 30
0.0
 11
4.872707808
 21
6.7666479001
 31
0.0
  0
LINE
  5
490
330
1F
100
AcDbEntity
  8
0
  6
Continuous
 62
     7
370
    25
100
AcDbLine
 10
4.592707808
 20
6.7098687757
 30
0.0
 11
4.872707808
 21
6.7098687757
 31
0.0
  0
LINE
  5
491
330
1F
100
AcDbEntity
  8
0
  6
Continuous
 62
     7
370
    25
100
AcDbLine
 10
4.592707808
 20
6.7098687757
 30
0.0
 11
4.592707808
 21
6.7201564207
 31
0.0
  0
LINE
  5
492
330
1F
100
AcDbEntity
  8
0
  6
Continuous
 62
     7
370
    25
100
AcDbLine
 10
4.872707808
 20
6.7201564207
 30
0.0
 11
4.872707808
 21
6.7098687757
 31
0.0
  0
LINE
  5
493
330
1F
100
AcDbEntity
  8
0
  6
Continuous
 62
     7
370
    25
100
AcDbLine
 10
4.592707808
 20
8.3041053187
 30
0.0
 11
4.872707808
 21
8.3041053187
 31
0.0
  0
LINE
  5
494
330
1F
100
AcDbEntity
  8
0
  6
Continuous
 62
     7
370
    25
100
AcDbLine
 10
4.592707808
 20
8.3041053187
 30
0.0
 11
4.592707808
 21
8.2729164981
 31
0.0
  0
LINE
  5
495
330
1F
100
AcDbEntity
  8
0
  6
Continuous
 62
     7
370
    25
100
AcDbLine
 10
4.872707808
 20
8.2575950521
 30
0.0
 11
4.872707808
 21
8.3041053187
 31
0.0
  0
LINE
  5
496
330
1F
100
AcDbEntity
  8
0
  6
Continuous
 62
     7
370
    25
100
AcDbLine
 10
4.872707808
 20
8.3143166602
 30
0.0
 11
4.592707808
 21
8.3143166602
 31
0.0
  0
LINE
  5
497
330
1F
100
AcDbEntity
  8
0
  6
Continuous
 62
     7
370
    25
100
AcDbLine
 10
4.592707808
 20
8.3041053187
 30
0.0
 11
4.592707808
 21
8.3143166602
 31
0.0
  0
LINE
  5
498
330
1F
100
AcDbEntity
  8
0
  6
Continuous
 62
     7
370
    25
100
AcDbLine
 10
4.872707808
 20
8.3143166602
 30
0.0
 11
4.872707808
 21
8.3041053187
 31
0.0
  0
LINE
  5
499
330
1F
100
AcDbEntity
  8
0
  6
Continuous
 62
     7
370
    25
100
AcDbLine
 10
4.872707808
 20
6.6639412539
 30
0.0
 11
4.592707808
 21
6.6639412539
 31
0.0
  0
LINE
  5
49A
330
1F
100
AcDbEntity
  8
0
  6
Continuous
 62
     7
370
    25
100
AcDbLine
 10
4.592707808
 20
6.6951639133
 30
0.0
 11
4.592707808
 21
6.6639412539
 31
0.0
  0
LINE
  5
49B
330
1F
100
AcDbEntity
  8
0
  6
Continuous
 62
     7
370
    25
100
AcDbLine
 10
4.872707808
 20
6.6639412539
 30
0.0
 11
4.872707808
 21
6.7098687757
 31
0.0
  0
LINE
  5
49C
330
1F
100
AcDbEntity
  8
0
  6
Continuous
 62
     7
370
    25
100
AcDbLine
 10
4.592707808
 20
6.6543663503
 30
0.0
 11
4.872707808
 21
6.6543663503
 31
0.0
  0
LINE
  5
49D
330
1F
100
AcDbEntity
  8
0
  6
Continuous
 62
     7
370
    25
100
AcDbLine
 10
4.592707808
 20
6.6543663503
 30
0.0
 11
4.592707808
 21
6.6639412539
 31
0.0
  0
LINE
  5
49E
330
1F
100
AcDbEntity
  8
0
  6
Continuous
 62
     7
370
    25
100
AcDbLine
 10
4.872707808
 20
6.6639412539
 30
0.0
 11
4.872707808
 21
6.6543663503
 31
0.0
  0
LINE
  5
49F
330
1F
100
AcDbEntity
  8
0
  6
Continuous
 62
     7
370
    25
100
AcDbLine
 10
4.592707808
 20
8.3598789993
 30
0.0
 11
4.872707808
 21
8.3598789993
 31
0.0
  0
LINE
  5
4A0
330
1F
100
AcDbEntity
  8
0
  6
Continuous
 62
     7
370
    25
100
AcDbLine
 10
4.592707808
 20
8.3598789993
 30
0.0
 11
4.592707808
 21
8.3286605409
 31
0.0
  0
LINE
  5
4A1
330
1F
100
AcDbEntity
  8
0
  6
Continuous
 62
     7
370
    25
100
AcDbLine
 10
4.872707808
 20
8.3143166602
 30
0.0
 11
4.872707808
 21
8.3598789993
 31
0.0
  0
LINE
  5
4A2
330
1F
100
AcDbEntity
  8
0
  6
Continuous
 62
     7
370
    25
100
AcDbLine
 10
4.872707808
 20
8.3693722735
 30
0.0
 11
4.592707808
 21
8.3693722735
 31
0.0
  0
LINE
  5
4A3
330
1F
100
AcDbEntity
  8
0
  6
Continuous
 62
     7
370
    25
100
AcDbLine
 10
4.592707808
 20
8.3598789993
 30
0.0
 11
4.592707808
 21
8.3693722735
 31
0.0
  0
LINE
  5
4A4
330
1F
100
AcDbEntity
  8
0
  6
Continuous
 62
     7
370
    25
100
AcDbLine
 10
4.872707808
 20
8.3693722735
 30
0.0
 11
4.872707808
 21
8.3598789993
 31
0.0
  0
LINE
  5
4A5
330
1F
100
AcDbEntity
  8
0
  6
Continuous
 62
     7
370
    25
100
AcDbLine
 10
4.872707808
 20
6.6118427881
 30
0.0
 11
4.592707808
 21
6.6118427881
 31
0.0
  0
LINE
  5
4A6
330
1F
100
AcDbEntity
  8
0
  6
Continuous
 62
     7
370
    25
100
AcDbLine
 10
4.592707808
 20
6.6429597711
 30
0.0
 11
4.592707808
 21
6.6118427881
 31
0.0
  0
LINE
  5
4A7
330
1F
100
AcDbEntity
  8
0
  6
Continuous
 62
     7
370
    25
100
AcDbLine
 10
4.872707808
 20
6.6118427881
 30
0.0
 11
4.872707808
 21
6.6543663503
 31
0.0
  0
LINE
  5
4A8
330
1F
100
AcDbEntity
  8
0
  6
Continuous
 62
     7
370
    25
100
AcDbLine
 10
4.592707808
 20
6.6030272739
 30
0.0
 11
4.872707808
 21
6.6030272739
 31
0.0
  0
LINE
  5
4A9
330
1F
100
AcDbEntity
  8
0
  6
Continuous
 62
     7
370
    25
100
AcDbLine
 10
4.592707808
 20
6.6030272739
 30
0.0
 11
4.592707808
 21
6.6118427881
 31
0.0
  0
LINE
  5
4AA
330
1F
100
AcDbEntity
  8
0
  6
Continuous
 62
     7
370
    25
100
AcDbLine
 10
4.872707808
 20
6.6118427881
 30
0.0
 11
4.872707808
 21
6.6030272739
 31
0.0
  0
LINE
  5
4AB
330
1F
100
AcDbEntity
  8
0
  6
Continuous
 62
     7
370
    25
100
AcDbLine
 10
4.592707808
 20
8.4115069426
 30
0.0
 11
4.872707808
 21
8.4115069426
 31
0.0
  0
LINE
  5
4AC
330
1F
100
AcDbEntity
  8
0
  6
Continuous
 62
     7
370
    25
100
AcDbLine
 10
4.592707808
 20
8.4115069426
 30
0.0
 11
4.592707808
 21
8.3804109397
 31
0.0
  0
LINE
  5
4AD
330
1F
100
AcDbEntity
  8
0
  6
Continuous
 62
     7
370
    25
100
AcDbLine
 10
4.872707808
 20
8.3693722735
 30
0.0
 11
4.872707808
 21
8.4115069426
 31
0.0
  0
LINE
  5
4AE
330
1F
100
AcDbEntity
  8
0
  6
Continuous
 62
     7
370
    25
100
AcDbLine
 10
4.872707808
 20
8.4202358993
 30
0.0
 11
4.592707808
 21
8.4202358993
 31
0.0
  0
LINE
  5
4AF
330
1F
100
AcDbEntity
  8
0
  6
Continuous
 62
     7
370
    25
100
AcDbLine
 10
4.592707808
 20
8.4115069426
 30
0.0
 11
4.592707808
 21
8.4202358993
 31
0.0
  0
LINE
  5
4B0
330
1F
100
AcDbEntity
  8
0
  6
Continuous
 62
     7
370
    25
100
AcDbLine
 10
4.872707808
 20
8.4202358993
 30
0.0
 11
4.872707808
 21
8.4115069426
 31
0.0
  0
LINE
  5
4B1
330
1F
100
AcDbEntity
  8
0
  6
Continuous
 62
     7
370
    25
100
AcDbLine
 10
4.872707808
 20
6.5641148419
 30
0.0
 11
4.592707808
 21
6.5641148419
 31
0.0
  0
LINE
  5
4B2
330
1F
100
AcDbEntity
  8
0
  6
Continuous
 62
     7
370
    25
100
AcDbLine
 10
4.592707808
 20
6.5949745495
 30
0.0
 11
4.592707808
 21
6.5641148419
 31
0.0
  0
LINE
  5
4B3
330
1F
100
AcDbEntity
  8
0
  6
Continuous
 62
     7
370
    25
100
AcDbLine
 10
4.872707808
 20
6.5641148419
 30
0.0
 11
4.872707808
 21
6.6030272739
 31
0.0
  0
LINE
  5
4B4
330
1F
100
AcDbEntity
  8
0
  6
Continuous
 62
     7
370
    25
100
AcDbLine
 10
4.592707808
 20
8.4587376226
 30
0.0
 11
4.872707808
 21
8.4587376226
 31
0.0
  0
LINE
  5
4B5
330
1F
100
AcDbEntity
  8
0
  6
Continuous
 62
     7
370
    25
100
AcDbLine
 10
4.592707808
 20
8.4587376226
 30
0.0
 11
4.592707808
 21
8.4279155718
 31
0.0
  0
LINE
  5
4B6
330
1F
100
AcDbEntity
  8
0
  6
Continuous
 62
     7
370
    25
100
AcDbLine
 10
4.872707808
 20
8.4202358993
 30
0.0
 11
4.872707808
 21
8.4587376226
 31
0.0
  0
LINE
  5
4B7
330
1F
100
AcDbEntity
  8
0
  6
Continuous
 62
     7
370
    25
100
AcDbLine
 10
4.592707808
 20
6.5561016653
 30
0.0
 11
4.872707808
 21
6.5561016653
 31
0.0
  0
LINE
  5
4B8
330
1F
100
AcDbEntity
  8
0
  6
Continuous
 62
     7
370
    25
100
AcDbLine
 10
4.592707808
 20
6.5561016653
 30
0.0
 11
4.592707808
 21
6.5641148419
 31
0.0
  0
LINE
  5
4B9
330
1F
100
AcDbEntity
  8
0
  6
Continuous
 62
     7
370
    25
100
AcDbLine
 10
4.872707808
 20
6.5641148419
 30
0.0
 11
4.872707808
 21
6.5561016653
 31
0.0
  0
LINE
  5
4BA
330
1F
100
AcDbEntity
  8
0
  6
Continuous
 62
     7
370
    25
100
AcDbLine
 10
4.872707808
 20
8.4666597352
 30
0.0
 11
4.592707808
 21
8.4666597352
 31
0.0
  0
LINE
  5
4BB
330
1F
100
AcDbEntity
  8
0
  6
Continuous
 62
     7
370
    25
100
AcDbLine
 10
4.592707808
 20
8.4587376226
 30
0.0
 11
4.592707808
 21
8.4666597352
 31
0.0
  0
LINE
  5
4BC
330
1F
100
AcDbEntity
  8
0
  6
Continuous
 62
     7
370
    25
100
AcDbLine
 10
4.872707808
 20
8.4666597352
 30
0.0
 11
4.872707808
 21
8.4587376226
 31
0.0
  0
LINE
  5
4BD
330
1F
100
AcDbEntity
  8
0
  6
Continuous
 62
     7
370
    25
100
AcDbLine
 10
4.872707808
 20
6.520989941
 30
0.0
 11
4.592707808
 21
6.520989941
 31
0.0
  0
LINE
  5
4BE
330
1F
100
AcDbEntity
  8
0
  6
Continuous
 62
     7
370
    25
100
AcDbLine
 10
4.592707808
 20
6.5514420279
 30
0.0
 11
4.592707808
 21
6.520989941
 31
0.0
  0
LINE
  5
4BF
330
1F
100
AcDbEntity
  8
0
  6
Continuous
 62
     7
370
    25
100
AcDbLine
 10
4.872707808
 20
6.520989941
 30
0.0
 11
4.872707808
 21
6.5561016653
 31
0.0
  0
LINE
  5
4C0
330
1F
100
AcDbEntity
  8
0
  6
Continuous
 62
     7
370
    25
100
AcDbLine
 10
4.592707808
 20
8.5013409361
 30
0.0
 11
4.872707808
 21
8.5013409361
 31
0.0
  0
LINE
  5
4C1
330
1F
100
AcDbEntity
  8
0
  6
Continuous
 62
     7
370
    25
100
AcDbLine
 10
4.592707808
 20
8.5013409361
 30
0.0
 11
4.592707808
 21
8.4709429993
 31
0.0
  0
LINE
  5
4C2
330
1F
100
AcDbEntity
  8
0
  6
Continuous
 62
     7
370
    25
100
AcDbLine
 10
4.872707808
 20
8.4666597352
 30
0.0
 11
4.872707808
 21
8.5013409361
 31
0.0
  0
LINE
  5
4C3
330
1F
100
AcDbEntity
  8
0
  6
Continuous
 62
     7
370
    25
100
AcDbLine
 10
4.592707808
 20
6.5138181414
 30
0.0
 11
4.872707808
 21
6.5138181414
 31
0.0
  0
LINE
  5
4C4
330
1F
100
AcDbEntity
  8
0
  6
Continuous
 62
     7
370
    25
100
AcDbLine
 10
4.592707808
 20
6.5138181414
 30
0.0
 11
4.592707808
 21
6.520989941
 31
0.0
  0
LINE
  5
4C5
330
1F
100
AcDbEntity
  8
0
  6
Continuous
 62
     7
370
    25
100
AcDbLine
 10
4.872707808
 20
6.520989941
 30
0.0
 11
4.872707808
 21
6.5138181414
 31
0.0
  0
LINE
  5
4C6
330
1F
100
AcDbEntity
  8
0
  6
Continuous
 62
     7
370
    25
100
AcDbLine
 10
4.872707808
 20
8.5084176088
 30
0.0
 11
4.592707808
 21
8.5084176088
 31
0.0
  0
LINE
  5
4C7
330
1F
100
AcDbEntity
  8
0
  6
Continuous
 62
     7
370
    25
100
AcDbLine
 10
4.592707808
 20
8.5013409361
 30
0.0
 11
4.592707808
 21
8.5084176088
 31
0.0
  0
LINE
  5
4C8
330
1F
100
AcDbEntity
  8
0
  6
Continuous
 62
     7
370
    25
100
AcDbLine
 10
4.872707808
 20
8.5084176088
 30
0.0
 11
4.872707808
 21
8.5013409361
 31
0.0
  0
LINE
  5
4C9
330
1F
100
AcDbEntity
  8
0
  6
Continuous
 62
     7
370
    25
100
AcDbLine
 10
4.872707808
 20
6.4826781855
 30
0.0
 11
4.592707808
 21
6.4826781855
 31
0.0
  0
LINE
  5
4CA
330
1F
100
AcDbEntity
  8
0
  6
Continuous
 62
     7
370
    25
100
AcDbLine
 10
4.592707808
 20
6.5125742922
 30
0.0
 11
4.592707808
 21
6.4826781855
 31
0.0
  0
LINE
  5
4CB
330
1F
100
AcDbEntity
  8
0
  6
Continuous
 62
     7
370
    25
100
AcDbLine
 10
4.872707808
 20
6.4826781855
 30
0.0
 11
4.872707808
 21
6.5138181414
 31
0.0
  0
LINE
  5
4CC
330
1F
100
AcDbEntity
  8
0
  6
Continuous
 62
     7
370
    25
100
AcDbLine
 10
4.592707808
 20
8.5391093241
 30
0.0
 11
4.872707808
 21
8.5391093241
 31
0.0
  0
LINE
  5
4CD
330
1F
100
AcDbEntity
  8
0
  6
Continuous
 62
     7
370
    25
100
AcDbLine
 10
4.592707808
 20
8.5391093241
 30
0.0
 11
4.592707808
 21
8.509283597
 31
0.0
  0
LINE
  5
4CE
330
1F
100
AcDbEntity
  8
0
  6
Continuous
 62
     7
370
    25
100
AcDbLine
 10
4.872707808
 20
8.5084176088
 30
0.0
 11
4.872707808
 21
8.5391093241
 31
0.0
  0
LINE
  5
4CF
330
1F
100
AcDbEntity
  8
0
  6
Continuous
 62
     7
370
    25
100
AcDbLine
 10
4.592707808
 20
6.4763827032
 30
0.0
 11
4.872707808
 21
6.4763827032
 31
0.0
  0
LINE
  5
4D0
330
1F
100
AcDbEntity
  8
0
  6
Continuous
 62
     7
370
    25
100
AcDbLine
 10
4.592707808
 20
6.4763827032
 30
0.0
 11
4.592707808
 21
6.4826781855
 31
0.0
  0
LINE
  5
4D1
330
1F
100
AcDbEntity
  8
0
  6
Continuous
 62
     7
370
    25
100
AcDbLine
 10
4.872707808
 20
6.4826781855
 30
0.0
 11
4.872707808
 21
6.4763827032
 31
0.0
  0
LINE
  5
4D2
330
1F
100
AcDbEntity
  8
0
  6
Continuous
 62
     7
370
    25
100
AcDbLine
 10
4.872707808
 20
8.5453060801
 30
0.0
 11
4.592707808
 21
8.5453060801
 31
0.0
  0
LINE
  5
4D3
330
1F
100
AcDbEntity
  8
0
  6
Continuous
 62
     7
370
    25
100
AcDbLine
 10
4.592707808
 20
8.5391093241
 30
0.0
 11
4.592707808
 21
8.5453060801
 31
0.0
  0
LINE
  5
4D4
330
1F
100
AcDbEntity
  8
0
  6
Continuous
 62
     7
370
    25
100
AcDbLine
 10
4.872707808
 20
8.5453060801
 30
0.0
 11
4.872707808
 21
8.5391093241
 31
0.0
  0
LINE
  5
4D5
330
1F
100
AcDbEntity
  8
0
  6
Continuous
 62
     7
370
    25
100
AcDbLine
 10
4.872707808
 20
6.4493662264
 30
0.0
 11
4.592707808
 21
6.4493662264
 31
0.0
  0
LINE
  5
4D6
330
1F
100
AcDbEntity
  8
0
  6
Continuous
 62
     7
370
    25
100
AcDbLine
 10
4.592707808
 20
6.4763827032
 30
0.0
 11
4.592707808
 21
6.4493662264
 31
0.0
  0
LINE
  5
4D7
330
1F
100
AcDbEntity
  8
0
  6
Continuous
 62
     7
370
    25
100
AcDbLine
 10
4.872707808
 20
6.4493662264
 30
0.0
 11
4.872707808
 21
6.4763827032
 31
0.0
  0
LINE
  5
4D8
330
1F
100
AcDbEntity
  8
0
  6
Continuous
 62
     7
370
    25
100
AcDbLine
 10
4.592707808
 20
8.5718587828
 30
0.0
 11
4.872707808
 21
8.5718587828
 31
0.0
  0
LINE
  5
4D9
330
1F
100
AcDbEntity
  8
0
  6
Continuous
 62
     7
370
    25
100
AcDbLine
 10
4.592707808
 20
8.5718587828
 30
0.0
 11
4.592707808
 21
8.5453060801
 31
0.0
  0
LINE
  5
4DA
330
1F
100
AcDbEntity
  8
0
  6
Continuous
 62
     7
370
    25
100
AcDbLine
 10
4.872707808
 20
8.5453060801
 30
0.0
 11
4.872707808
 21
8.5718587828
 31
0.0
  0
LINE
  5
4DB
330
1F
100
AcDbEntity
  8
0
  6
Continuous
 62
     7
370
    25
100
AcDbLine
 10
4.592707808
 20
6.4439777324
 30
0.0
 11
4.872707808
 21
6.4439777324
 31
0.0
  0
LINE
  5
4DC
330
1F
100
AcDbEntity
  8
0
  6
Continuous
 62
     7
370
    25
100
AcDbLine
 10
4.592707808
 20
6.4439777324
 30
0.0
 11
4.592707808
 21
6.4493662264
 31
0.0
  0
LINE
  5
4DD
330
1F
100
AcDbEntity
  8
0
  6
Continuous
 62
     7
370
    25
100
AcDbLine
 10
4.872707808
 20
6.4493662264
 30
0.0
 11
4.872707808
 21
6.4439777324
 31
0.0
  0
LINE
  5
4DE
330
1F
100
AcDbEntity
  8
0
  6
Continuous
 62
     7
370
    25
100
AcDbLine
 10
4.872707808
 20
8.5771454321
 30
0.0
 11
4.592707808
 21
8.5771454321
 31
0.0
  0
LINE
  5
4DF
330
1F
100
AcDbEntity
  8
0
  6
Continuous
 62
     7
370
    25
100
AcDbLine
 10
4.592707808
 20
8.5718587828
 30
0.0
 11
4.592707808
 21
8.5771454321
 31
0.0
  0
LINE
  5
4E0
330
1F
100
AcDbEntity
  8
0
  6
Continuous
 62
     7
370
    25
100
AcDbLine
 10
4.872707808
 20
8.5771454321
 30
0.0
 11
4.872707808
 21
8.5718587828
 31
0.0
  0
LINE
  5
4E1
330
1F
100
AcDbEntity
  8
0
  6
Continuous
 62
     7
370
    25
100
AcDbLine
 10
4.872707808
 20
6.4212163564
 30
0.0
 11
4.592707808
 21
6.4212163564
 31
0.0
  0
LINE
  5
4E2
330
1F
100
AcDbEntity
  8
0
  6
Continuous
 62
     7
370
    25
100
AcDbLine
 10
4.592707808
 20
6.4439777324
 30
0.0
 11
4.592707808
 21
6.4212163564
 31
0.0
  0
LINE
  5
4E3
330
1F
100
AcDbEntity
  8
0
  6
Continuous
 62
     7
370
    25
100
AcDbLine
 10
4.872707808
 20
6.4212163564
 30
0.0
 11
4.872707808
 21
6.4439777324
 31
0.0
  0
LINE
  5
4E4
330
1F
100
AcDbEntity
  8
0
  6
Continuous
 62
     7
370
    25
100
AcDbLine
 10
4.592707808
 20
8.5994297601
 30
0.0
 11
4.872707808
 21
8.5994297601
 31
0.0
  0
LINE
  5
4E5
330
1F
100
AcDbEntity
  8
0
  6
Continuous
 62
     7
370
    25
100
AcDbLine
 10
4.592707808
 20
8.5994297601
 30
0.0
 11
4.592707808
 21
8.5771454321
 31
0.0
  0
LINE
  5
4E6
330
1F
100
AcDbEntity
  8
0
  6
Continuous
 62
     7
370
    25
100
AcDbLine
 10
4.872707808
 20
8.5771454321
 30
0.0
 11
4.872707808
 21
8.5994297601
 31
0.0
  0
LINE
  5
4E7
330
1F
100
AcDbEntity
  8
0
  6
Continuous
 62
     7
370
    25
100
AcDbLine
 10
4.592707808
 20
6.4167611028
 30
0.0
 11
4.872707808
 21
6.4167611028
 31
0.0
  0
LINE
  5
4E8
330
1F
100
AcDbEntity
  8
0
  6
Continuous
 62
     7
370
    25
100
AcDbLine
 10
4.592707808
 20
6.4167611028
 30
0.0
 11
4.592707808
 21
6.4212163564
 31
0.0
  0
LINE
  5
4E9
330
1F
100
AcDbEntity
  8
0
  6
Continuous
 62
     7
370
    25
100
AcDbLine
 10
4.872707808
 20
6.4212163564
 30
0.0
 11
4.872707808
 21
6.4167611028
 31
0.0
  0
LINE
  5
4EA
330
1F
100
AcDbEntity
  8
0
  6
Continuous
 62
     7
370
    25
100
AcDbLine
 10
4.872707808
 20
8.6037805467
 30
0.0
 11
4.592707808
 21
8.6037805467
 31
0.0
  0
LINE
  5
4EB
330
1F
100
AcDbEntity
  8
0
  6
Continuous
 62
     7
370
    25
100
AcDbLine
 10
4.592707808
 20
8.5994297601
 30
0.0
 11
4.592707808
 21
8.6037805467
 31
0.0
  0
LINE
  5
4EC
330
1F
100
AcDbEntity
  8
0
  6
Continuous
 62
     7
370
    25
100
AcDbLine
 10
4.872707808
 20
8.6037805467
 30
0.0
 11
4.872707808
 21
8.5994297601
 31
0.0
  0
LINE
  5
4ED
330
1F
100
AcDbEntity
  8
0
  6
Continuous
 62
     7
370
    25
100
AcDbLine
 10
4.872707808
 20
6.3983657187
 30
0.0
 11
4.592707808
 21
6.3983657187
 31
0.0
  0
LINE
  5
4EE
330
1F
100
AcDbEntity
  8
0
  6
Continuous
 62
     7
370
    25
100
AcDbLine
 10
4.592707808
 20
6.4167611028
 30
0.0
 11
4.592707808
 21
6.3983657187
 31
0.0
  0
LINE
  5
4EF
330
1F
100
AcDbEntity
  8
0
  6
Continuous
 62
     7
370
    25
100
AcDbLine
 10
4.872707808
 20
6.3983657187
 30
0.0
 11
4.872707808
 21
6.4167611028
 31
0.0
  0
LINE
  5
4F0
330
1F
100
AcDbEntity
  8
0
  6
Continuous
 62
     7
370
    25
100
AcDbLine
 10
4.592707808
 20
8.621687933
 30
0.0
 11
4.872707808
 21
8.621687933
 31
0.0
  0
LINE
  5
4F1
330
1F
100
AcDbEntity
  8
0
  6
Continuous
 62
     7
370
    25
100
AcDbLine
 10
4.592707808
 20
8.621687933
 30
0.0
 11
4.592707808
 21
8.6037805467
 31
0.0
  0
LINE
  5
4F2
330
1F
100
AcDbEntity
  8
0
  6
Continuous
 62
     7
370
    25
100
AcDbLine
 10
4.872707808
 20
8.6037805467
 30
0.0
 11
4.872707808
 21
8.621687933
 31
0.0
  0
LINE
  5
4F3
330
1F
100
AcDbEntity
  8
0
  6
Continuous
 62
     7
370
    25
100
AcDbLine
 10
4.592707808
 20
6.3948654111
 30
0.0
 11
4.872707808
 21
6.3948654111
 31
0.0
  0
LINE
  5
4F4
330
1F
100
AcDbEntity
  8
0
  6
Continuous
 62
     7
370
    25
100
AcDbLine
 10
4.592707808
 20
6.3948654111
 30
0.0
 11
4.592707808
 21
6.3983657187
 31
0.0
  0
LINE
  5
4F5
330
1F
100
AcDbEntity
  8
0
  6
Continuous
 62
     7
370
    25
100
AcDbLine
 10
4.872707808
 20
6.3983657187
 30
0.0
 11
4.872707808
 21
6.3948654111
 31
0.0
  0
LINE
  5
4F6
330
1F
100
AcDbEntity
  8
0
  6
Continuous
 62
     7
370
    25
100
AcDbLine
 10
4.872707808
 20
8.6250816603
 30
0.0
 11
4.592707808
 21
8.6250816603
 31
0.0
  0
LINE
  5
4F7
330
1F
100
AcDbEntity
  8
0
  6
Continuous
 62
     7
370
    25
100
AcDbLine
 10
4.592707808
 20
8.621687933
 30
0.0
 11
4.592707808
 21
8.6250816603
 31
0.0
  0
LINE
  5
4F8
330
1F
100
AcDbEntity
  8
0
  6
Continuous
 62
     7
370
    25
100
AcDbLine
 10
4.872707808
 20
8.6250816603
 30
0.0
 11
4.872707808
 21
8.621687933
 31
0.0
  0
LINE
  5
4F9
330
1F
100
AcDbEntity
  8
0
  6
Continuous
 62
     7
370
    25
100
AcDbLine
 10
4.872707808
 20
6.3809256394
 30
0.0
 11
4.592707808
 21
6.3809256394
 31
0.0
  0
LINE
  5
4FA
330
1F
100
AcDbEntity
  8
0
  6
Continuous
 62
     7
370
    25
100
AcDbLine
 10
4.592707808
 20
6.3948654111
 30
0.0
 11
4.592707808
 21
6.3809256394
 31
0.0
  0
LINE
  5
4FB
330
1F
100
AcDbEntity
  8
0
  6
Continuous
 62
     7
370
    25
100
AcDbLine
 10
4.872707808
 20
6.3809256394
 30
0.0
 11
4.872707808
 21
6.3948654111
 31
0.0
  0
LINE
  5
4FC
330
1F
100
AcDbEntity
  8
0
  6
Continuous
 62
     7
370
    25
100
AcDbLine
 10
4.592707808
 20
8.6385248619
 30
0.0
 11
4.872707808
 21
8.6385248619
 31
0.0
  0
LINE
  5
4FD
330
1F
100
AcDbEntity
  8
0
  6
Continuous
 62
     7
370
    25
100
AcDbLine
 10
4.592707808
 20
8.6385248619
 30
0.0
 11
4.592707808
 21
8.6250816603
 31
0.0
  0
LINE
  5
4FE
330
1F
100
AcDbEntity
  8
0
  6
Continuous
 62
     7
370
    25
100
AcDbLine
 10
4.872707808
 20
8.6250816603
 30
0.0
 11
4.872707808
 21
8.6385248619
 31
0.0
  0
LINE
  5
4FF
330
1F
100
AcDbEntity
  8
0
  6
Continuous
 62
     7
370
    25
100
AcDbLine
 10
4.592707808
 20
6.3783973309
 30
0.0
 11
4.872707808
 21
6.3783973309
 31
0.0
  0
LINE
  5
500
330
1F
100
AcDbEntity
  8
0
  6
Continuous
 62
     7
370
    25
100
AcDbLine
 10
4.592707808
 20
6.3783973309
 30
0.0
 11
4.592707808
 21
6.3809256394
 31
0.0
  0
LINE
  5
501
330
1F
100
AcDbEntity
  8
0
  6
Continuous
 62
     7
370
    25
100
AcDbLine
 10
4.872707808
 20
6.3809256394
 30
0.0
 11
4.872707808
 21
6.3783973309
 31
0.0
  0
LINE
  5
502
330
1F
100
AcDbEntity
  8
0
  6
Continuous
 62
     7
370
    25
100
AcDbLine
 10
4.872707808
 20
8.640944996
 30
0.0
 11
4.592707808
 21
8.640944996
 31
0.0
  0
LINE
  5
503
330
1F
100
AcDbEntity
  8
0
  6
Continuous
 62
     7
370
    25
100
AcDbLine
 10
4.592707808
 20
8.6385248619
 30
0.0
 11
4.592707808
 21
8.640944996
 31
0.0
  0
LINE
  5
504
330
1F
100
AcDbEntity
  8
0
  6
Continuous
 62
     7
370
    25
100
AcDbLine
 10
4.872707808
 20
8.640944996
 30
0.0
 11
4.872707808
 21
8.6385248619
 31
0.0
  0
LINE
  5
505
330
1F
100
AcDbEntity
  8
0
  6
Continuous
 62
     7
370
    25
100
AcDbLine
 10
4.872707808
 20
6.3689810847
 30
0.0
 11
4.592707808
 21
6.3689810847
 31
0.0
  0
LINE
  5
506
330
1F
100
AcDbEntity
  8
0
  6
Continuous
 62
     7
370
    25
100
AcDbLine
 10
4.592707808
 20
6.3783973309
 30
0.0
 11
4.592707808
 21
6.3689810847
 31
0.0
  0
LINE
  5
507
330
1F
100
AcDbEntity
  8
0
  6
Continuous
 62
     7
370
    25
100
AcDbLine
 10
4.872707808
 20
6.3689810847
 30
0.0
 11
4.872707808
 21
6.3783973309
 31
0.0
  0
LINE
  5
508
330
1F
100
AcDbEntity
  8
0
  6
Continuous
 62
     7
370
    25
100
AcDbLine
 10
4.592707808
 20
8.6498585189
 30
0.0
 11
4.872707808
 21
8.6498585189
 31
0.0
  0
LINE
  5
509
330
1F
100
AcDbEntity
  8
0
  6
Continuous
 62
     7
370
    25
100
AcDbLine
 10
4.592707808
 20
8.6498585189
 30
0.0
 11
4.592707808
 21
8.640944996
 31
0.0
  0
LINE
  5
50A
330
1F
100
AcDbEntity
  8
0
  6
Continuous
 62
     7
370
    25
100
AcDbLine
 10
4.872707808
 20
8.640944996
 30
0.0
 11
4.872707808
 21
8.6498585189
 31
0.0
  0
LINE
  5
50B
330
1F
100
AcDbEntity
  8
0
  6
Continuous
 62
     7
370
    25
100
AcDbLine
 10
4.592707808
 20
6.3674370931
 30
0.0
 11
4.872707808
 21
6.3674370931
 31
0.0
  0
LINE
  5
50C
330
1F
100
AcDbEntity
  8
0
  6
Continuous
 62
     7
370
    25
100
AcDbLine
 10
4.592707808
 20
6.3674370931
 30
0.0
 11
4.592707808
 21
6.3689810847
 31
0.0
  0
LINE
  5
50D
330
1F
100
AcDbEntity
  8
0
  6
Continuous
 62
     7
370
    25
100
AcDbLine
 10
4.872707808
 20
6.3689810847
 30
0.0
 11
4.872707808
 21
6.3674370931
 31
0.0
  0
LINE
  5
50E
330
1F
100
AcDbEntity
  8
0
  6
Continuous
 62
     7
370
    25
100
AcDbLine
 10
4.872707808
 20
8.6512932692
 30
0.0
 11
4.592707808
 21
8.6512932692
 31
0.0
  0
LINE
  5
50F
330
1F
100
AcDbEntity
  8
0
  6
Continuous
 62
     7
370
    25
100
AcDbLine
 10
4.592707808
 20
8.6498585189
 30
0.0
 11
4.592707808
 21
8.6512932692
 31
0.0
  0
LINE
  5
510
330
1F
100
AcDbEntity
  8
0
  6
Continuous
 62
     7
370
    25
100
AcDbLine
 10
4.872707808
 20
8.6512932692
 30
0.0
 11
4.872707808
 21
8.6498585189
 31
0.0
  0
LINE
  5
511
330
1F
100
AcDbEntity
  8
0
  6
Continuous
 62
     7
370
    25
100
AcDbLine
 10
4.872707808
 20
6.3625902473
 30
0.0
 11
4.592707808
 21
6.3625902473
 31
0.0
  0
LINE
  5
512
330
1F
100
AcDbEntity
  8
0
  6
Continuous
 62
     7
370
    25
100
AcDbLine
 10
4.592707808
 20
6.3674370931
 30
0.0
 11
4.592707808
 21
6.3625902473
 31
0.0
  0
LINE
  5
513
330
1F
100
AcDbEntity
  8
0
  6
Continuous
 62
     7
370
    25
100
AcDbLine
 10
4.872707808
 20
6.3625902473
 30
0.0
 11
4.872707808
 21
6.3674370931
 31
0.0
  0
LINE
  5
514
330
1F
100
AcDbEntity
  8
0
  6
Continuous
 62
     7
370
    25
100
AcDbLine
 10
4.592707808
 20
8.6556336877
 30
0.0
 11
4.872707808
 21
8.6556336877
 31
0.0
  0
LINE
  5
515
330
1F
100
AcDbEntity
  8
0
  6
Continuous
 62
     7
370
    25
100
AcDbLine
 10
4.592707808
 20
8.6556336877
 30
0.0
 11
4.592707808
 21
8.6512932692
 31
0.0
  0
LINE
  5
516
330
1F
100
AcDbEntity
  8
0
  6
Continuous
 62
     7
370
    25
100
AcDbLine
 10
4.872707808
 20
8.6512932692
 30
0.0
 11
4.872707808
 21
8.6556336877
 31
0.0
  0
LINE
  5
517
330
1F
100
AcDbEntity
  8
0
  6
Continuous
 62
     7
370
    25
100
AcDbLine
 10
4.592707808
 20
6.3620380947
 30
0.0
 11
4.872707808
 21
6.3620380947
 31
0.0
  0
LINE
  5
518
330
1F
100
AcDbEntity
  8
0
  6
Continuous
 62
     7
370
    25
100
AcDbLine
 10
4.592707808
 20
6.3620380947
 30
0.0
 11
4.592707808
 21
6.3625902473
 31
0.0
  0
LINE
  5
519
330
1F
100
AcDbEntity
  8
0
  6
Continuous
 62
     7
370
    25
100
AcDbLine
 10
4.872707808
 20
6.3625902473
 30
0.0
 11
4.872707808
 21
6.3620380947
 31
0.0
  0
LINE
  5
51A
330
1F
100
AcDbEntity
  8
0
  6
Continuous
 62
     7
370
    25
100
AcDbLine
 10
4.872707808
 20
8.6560760641
 30
0.0
 11
4.592707808
 21
8.6560760641
 31
0.0
  0
LINE
  5
51B
330
1F
100
AcDbEntity
  8
0
  6
Continuous
 62
     7
370
    25
100
AcDbLine
 10
4.592707808
 20
8.6556336877
 30
0.0
 11
4.592707808
 21
8.6560760641
 31
0.0
  0
LINE
  5
51C
330
1F
100
AcDbEntity
  8
0
  6
Continuous
 62
     7
370
    25
100
AcDbLine
 10
4.872707808
 20
8.6560760641
 30
0.0
 11
4.872707808
 21
8.6556336877
 31
0.0
  0
LINE
  5
51D
330
1F
100
AcDbEntity
  8
0
  6
Continuous
 62
     7
370
    25
100
AcDbLine
 10
4.872707808
 20
6.3617842628
 30
0.0
 11
4.592707808
 21
6.3617842628
 31
0.0
  0
LINE
  5
51E
330
1F
100
AcDbEntity
  8
0
  6
Continuous
 62
     7
370
    25
100
AcDbLine
 10
4.592707808
 20
6.3620380947
 30
0.0
 11
4.592707808
 21
6.3617842628
 31
0.0
  0
LINE
  5
51F
330
1F
100
AcDbEntity
  8
0
  6
Continuous
 62
     7
370
    25
100
AcDbLine
 10
4.872707808
 20
6.3617842628
 30
0.0
 11
4.872707808
 21
6.3620380947
 31
0.0
  0
LINE
  5
520
330
1F
100
AcDbEntity
  8
0
  6
Continuous
 62
     7
370
    25
100
AcDbLine
 10
5.6546285515
 20
8.1589301634
 30
0.0
 11
5.6546285515
 21
8.0596223991
 31
0.0
  0
SPLINE
  5
521
330
1F
100
AcDbEntity
  8
0
  6
Continuous
 62
     7
370
    25
100
AcDbSpline
210
0.0
220
0.0
230
1.0
 70
     8
 71
     3
 72
    17
 73
    13
 74
     0
 42
0.000000001
 43
0.00000001
 40
0.0
 40
0.0
 40
0.0
 40
0.0
 40
0.0630810355362467
 40
0.1253581270581545
 40
0.1873893607959303
 40
0.2497394252396241
 40
0.3752324421216586
 40
0.499978780435522
 40
0.6250695961693498
 40
0.7503442309248018
 40
0.8750760408179671
 40
1.0
 40
1.0
 40
1.0
 40
1.0
 10
5.654628551521134
 20
8.05962239912567
 30
0.0
 10
5.654588623656144
 20
8.05903888270122
 30
0.0
 10
5.654509276791749
 20
8.057879286549143
 30
0.0
 10
5.653852203668776
 20
8.05616072555935
 30
0.0
 10
5.652798199784833
 20
8.054479373930473
 30
0.0
 10
5.650818472852286
 20
8.05229136635696
 30
0.0
 10
5.647342889198807
 20
8.049696670570999
 30
0.0
 10
5.641620290629054
 20
8.046961696853408
 30
0.0
 10
5.634619038088326
 20
8.044692181984125
 30
0.0
 10
5.62654892611248
 20
8.043024132943692
 30
0.0
 10
5.617777027055396
 20
8.041932190257825
 30
0.0
 10
5.611679607672883
 20
8.041801534794363
 30
0.0
 10
5.608628551521134
 20
8.041736156782692
 30
0.0
  0
LINE
  5
522
330
1F
100
AcDbEntity
  8
0
  6
Continuous
 62
     7
370
    25
100
AcDbLine
 10
5.6046285515
 20
8.0417361568
 30
0.0
 11
5.6086285515
 21
8.0417361568
 31
0.0
  0
LINE
  5
523
330
1F
100
AcDbEntity
  8
0
  6
Continuous
 62
     7
370
    25
100
AcDbLine
 10
5.6046285515
 20
7.997324499
 30
0.0
 11
5.6046285515
 21
8.0417361568
 31
0.0
  0
LINE
  5
524
330
1F
100
AcDbEntity
  8
0
  6
Continuous
 62
     7
370
    25
100
AcDbLine
 10
5.6086285515
 20
7.997324499
 30
0.0
 11
5.6046285515
 21
7.997324499
 31
0.0
  0
LINE
  5
525
330
1F
100
AcDbEntity
  8
0
  6
Continuous
 62
     7
370
    25
100
AcDbLine
 10
5.6546285515
 20
8.0152107413
 30
0.0
 11
5.6546285515
 21
7.9809301634
 31
0.0
  0
SPLINE
  5
526
330
1F
100
AcDbEntity
  8
0
  6
Continuous
 62
     7
370
    25
100
AcDbSpline
210
0.0
220
0.0
230
1.0
 70
     8
 71
     3
 72
    18
 73
    14
 74
     0
 42
0.000000001
 43
0.00000001
 40
0.0
 40
0.0
 40
0.0
 40
0.0
 40
0.0503620314406322
 40
0.1002570057271549
 40
0.1500150911354083
 40
0.1999691702897087
 40
0.2504482485403048
 40
0.3752913660743968
 40
0.5008180145405212
 40
0.6251652195016052
 40
0.7505317094863373
 40
0.8747227832763931
 40
1.0
 40
1.0
 40
1.0
 40
1.0
 10
5.608628551521134
 20
7.997324498957456
 30
0.0
 10
5.609856484694203
 20
7.997335035610483
 30
0.0
 10
5.61230096319603
 20
7.997356011199685
 30
0.0
 10
5.615935309143897
 20
7.99752865903585
 30
0.0
 10
5.61951169376219
 20
7.997805106129806
 30
0.0
 10
5.62303000084396
 20
7.998195408322031
 30
0.0
 10
5.628164104804307
 20
7.998938319665115
 30
0.0
 10
5.63464230651484
 20
8.000286892017401
 30
0.0
 10
5.64162533676715
 20
8.00255441720328
 30
0.0
 10
5.647353310806919
 20
8.005290247722948
 30
0.0
 10
5.651485725942859
 20
8.008391731515212
 30
0.0
 10
5.654153530324174
 20
8.01173917044596
 30
0.0
 10
5.654469752196551
 20
8.014050197075331
 30
0.0
 10
5.654628551521134
 20
8.015210741300434
 30
0.0
  0
LINE
  5
527
330
1F
100
AcDbEntity
  8
0
  6
Continuous
 62
     7
370
    25
100
AcDbLine
 10
5.6546285515
 20
8.0596223991
 30
0.0
 11
5.6546285515
 21
8.0152107413
 31
0.0
  0
LINE
  5
528
330
1F
100
AcDbEntity
  8
0
  6
Continuous
 62
     7
370
    25
100
AcDbLine
 10
5.5726285515
 20
8.0198082944
 30
0.0
 11
5.5546285515
 21
8.0198082944
 31
0.0
  0
LINE
  5
529
330
1F
100
AcDbEntity
  8
0
  6
Continuous
 62
     7
370
    25
100
AcDbLine
 10
5.5726285515
 20
8.0198082944
 30
0.0
 11
5.5726285515
 21
6.6325002902
 31
0.0
  0
LINE
  5
52A
330
1F
100
AcDbEntity
  8
0
  6
Continuous
 62
     7
370
    25
100
AcDbLine
 10
5.5726285515
 20
8.2171116279
 30
0.0
 11
5.5546285515
 21
8.2171116279
 31
0.0
  0
LINE
  5
52B
330
1F
100
AcDbEntity
  8
0
  6
Continuous
 62
     7
370
    25
100
AcDbLine
 10
5.5726285515
 20
8.2171116279
 30
0.0
 11
5.5726285515
 21
8.0198082944
 31
0.0
  0
LINE
  5
52C
330
1F
100
AcDbEntity
  8
0
  6
Continuous
 62
     7
370
    25
100
AcDbLine
 10
5.5726285515
 20
8.3825002902
 30
0.0
 11
5.5726285515
 21
8.2171116279
 31
0.0
  0
LINE
  5
52D
330
1F
100
AcDbEntity
  8
0
  6
Continuous
 62
     7
370
    25
100
AcDbLine
 10
5.5546285515
 20
8.5114301634
 30
0.0
 11
5.5546285515
 21
6.5064301635
 31
0.0
  0
LINE
  5
52E
330
1F
100
AcDbEntity
  8
0
  6
Continuous
 62
     7
370
    25
100
AcDbLine
 10
7.059707808
 20
7.7037264085
 30
0.0
 11
7.059707808
 21
7.7554301634
 31
0.0
  0
LINE
  5
52F
330
1F
100
AcDbEntity
  8
0
  6
Continuous
 62
     7
370
    25
100
AcDbLine
 10
7.059707808
 20
7.2604301634
 30
0.0
 11
7.059707808
 21
7.7037264085
 31
0.0
  0
LINE
  5
530
330
1F
100
AcDbEntity
  8
0
  6
Continuous
 62
     7
370
    25
100
AcDbLine
 10
7.0196285515
 20
7.2604301634
 30
0.0
 11
7.0196285515
 21
7.7554301634
 31
0.0
  0
LINE
  5
531
330
1F
100
AcDbEntity
  8
0
  6
Continuous
 62
     7
370
    25
100
AcDbLine
 10
7.069707808
 20
7.6962109971
 30
0.0
 11
7.069707808
 21
7.7459301634
 31
0.0
  0
LINE
  5
532
330
1F
100
AcDbEntity
  8
0
  6
Continuous
 62
     7
370
    25
100
AcDbLine
 10
7.069707808
 20
7.2699301634
 30
0.0
 11
7.069707808
 21
7.6962109971
 31
0.0
  0
LINE
  5
533
330
1F
100
AcDbEntity
  8
0
  6
Continuous
 62
     7
370
    25
100
AcDbLine
 10
7.154707808
 20
7.684344558
 30
0.0
 11
7.154707808
 21
7.7309301634
 31
0.0
  0
LINE
  5
534
330
1F
100
AcDbEntity
  8
0
  6
Continuous
 62
     7
370
    25
100
AcDbLine
 10
7.154707808
 20
7.2849301634
 30
0.0
 11
7.154707808
 21
7.684344558
 31
0.0
  0
LINE
  5
535
330
1F
100
AcDbEntity
  8
0
  6
Continuous
 62
     7
370
    25
100
AcDbLine
 10
7.164707808
 20
7.6764335986
 30
0.0
 11
7.164707808
 21
7.7209301634
 31
0.0
  0
LINE
  5
536
330
1F
100
AcDbEntity
  8
0
  6
Continuous
 62
     7
370
    25
100
AcDbLine
 10
7.164707808
 20
7.2949301634
 30
0.0
 11
7.164707808
 21
7.6764335986
 31
0.0
  0
LINE
  5
537
330
1F
100
AcDbEntity
  8
0
  6
Continuous
 62
     7
370
    25
100
AcDbLine
 10
7.194707808
 20
7.6352966097
 30
0.0
 11
7.194707808
 21
7.6689301634
 31
0.0
  0
LINE
  5
538
330
1F
100
AcDbEntity
  8
0
  6
Continuous
 62
     7
370
    25
100
AcDbLine
 10
7.194707808
 20
7.3469301634
 30
0.0
 11
7.194707808
 21
7.6352966097
 31
0.0
  0
LINE
  5
539
330
1F
100
AcDbEntity
  8
0
  6
Continuous
 62
     7
370
    25
100
AcDbLine
 10
6.1646285515
 20
7.6814301634
 30
0.0
 11
6.1646285515
 21
7.3344301634
 31
0.0
  0
LINE
  5
53A
330
1F
100
AcDbEntity
  8
0
  6
Continuous
 62
     8
370
    25
100
AcDbLine
 10
4.532707808
 20
8.6339301634
 30
0.0
 11
4.532707808
 21
6.3839301634
 31
0.0
  0
LINE
  5
53B
330
1F
100
AcDbEntity
  8
0
  6
Continuous
 62
     8
370
    25
100
AcDbLine
 10
5.6086285515
 20
8.0417361568
 30
0.0
 11
5.6086285515
 21
8.2049301634
 31
0.0
  0
LINE
  5
53C
330
1F
100
AcDbEntity
  8
0
  6
Continuous
 62
     8
370
    25
100
AcDbLine
 10
5.6086285515
 20
7.9349301634
 30
0.0
 11
5.6086285515
 21
7.997324499
 31
0.0
  0
LINE
  5
53D
330
1F
100
AcDbEntity
  8
0
  6
Continuous
 62
     8
370
    25
100
AcDbLine
 10
5.4946285515
 20
6.4464301634
 30
0.0
 11
5.4946285515
 21
8.5714301634
 31
0.0
  0
LINE
  5
53E
330
1F
100
AcDbEntity
  8
0
  6
Continuous
 62
     8
370
    25
100
AcDbLine
 10
7.084707808
 20
7.684344558
 30
0.0
 11
7.084707808
 21
7.2849301634
 31
0.0
  0
LINE
  5
53F
330
1F
100
AcDbEntity
  8
0
  6
Continuous
 62
     8
370
    25
100
AcDbLine
 10
7.084707808
 20
7.7309301634
 30
0.0
 11
7.084707808
 21
7.684344558
 31
0.0
  0
LINE
  5
540
330
1F
100
AcDbEntity
  8
0
  6
Continuous
 62
     8
370
    25
100
AcDbLine
 10
7.1803878696
 20
7.6508252607
 30
0.0
 11
7.1803878696
 21
7.6885594526
 31
0.0
  0
LINE
  5
541
330
1F
100
AcDbEntity
  8
0
  6
Continuous
 62
     8
370
    25
100
AcDbLine
 10
7.1803878696
 20
7.3273008743
 30
0.0
 11
7.1803878696
 21
7.6508252607
 31
0.0
  0
ENDSEC
  0
SECTION
  2
OBJECTS
  0
DICTIONARY
  5
C
330
0
100
AcDbDictionary
281
     1
  3
ACAD_GROUP
350
D
  3
ACAD_LAYOUT
350
1A
  3
ACAD_MLINESTYLE
350
17
  3
ACAD_PLOTSETTINGS
350
19
  3
ACAD_PLOTSTYLENAME
350
E
  3
ACAD_SCALELIST
350
47
  0
DICTIONARY
  5
D
102
{ACAD_REACTORS
330
C
102
}
330
C
100
AcDbDictionary
281
     1
  0
DICTIONARY
  5
1A
102
{ACAD_REACTORS
330
C
102
}
330
C
100
AcDbDictionary
281
     1
  3
Layout1
350
1E
  3
Layout2
350
26
  3
Model
350
22
  0
DICTIONARY
  5
17
102
{ACAD_REACTORS
330
C
102
}
330
C
100
AcDbDictionary
281
     1
  3
Standard
350
18
  0
DICTIONARY
  5
19
102
{ACAD_REACTORS
330
C
102
}
330
C
100
AcDbDictionary
281
     1
  0
ACDBDICTIONARYWDFLT
  5
E
102
{ACAD_REACTORS
330
C
102
}
330
C
100
AcDbDictionary
281
     1
  3
Normal
350
F
100
AcDbDictionaryWithDefault
340
F
  0
DICTIONARY
  5
47
102
{ACAD_REACTORS
330
C
102
}
330
C
100
AcDbDictionary
281
     1
  3
A0
350
48
  3
A1
350
49
  3
A2
350
4A
  3
A3
350
4B
  3
A4
350
4C
  3
A5
350
4D
  3
A6
350
4E
  3
A7
350
4F
  3
A8
350
50
  3
A9
350
51
  3
B0
350
52
  3
B1
350
53
  3
B2
350
54
  3
B3
350
55
  3
B4
350
56
  3
B5
350
57
  3
B6
350
58
  3
B7
350
59
  3
B8
350
5A
  3
B9
350
5B
  3
C0
350
5C
  3
C1
350
5D
  3
C2
350
5E
  3
C3
350
5F
  3
C4
350
60
  3
C5
350
61
  3
C6
350
62
  3
C7
350
63
  3
C8
350
64
  3
C9
350
65
  3
D0
350
66
  3
D1
350
67
  3
D2
350
68
  0
LAYOUT
  5
1E
102
{ACAD_REACTORS
330
1A
102
}
330
1A
100
AcDbPlotSettings
  1

  2
none_device
  4

  6

 40
0.0
 41
0.0
 42
0.0
 43
0.0
 44
0.0
 45
0.0
 46
0.0
 47
0.0
 48
0.0
 49
0.0
140
0.0
141
0.0
142
1.0
143
1.0
 70
   688
 72
     0
 73
     0
 74
     5
  7

 75
    16
147
1.0
148
0.0
149
0.0
100
AcDbLayout
  1
Layout1
 70
     1
 71
     1
 10
0.0
 20
0.0
 11
12.0
 21
9.0
 12
0.0
 22
0.0
 32
0.0
 14
1.0000000000E+20
 24
1.0000000000E+20
 34
1.0000000000E+20
 15
-1.0000000000E+20
 25
-1.0000000000E+20
 35
-1.0000000000E+20
146
0.0
 13
0.0
 23
0.0
 33
0.0
 16
1.0
 26
0.0
 36
0.0
 17
0.0
 27
1.0
 37
0.0
 76
     0
330
1B
  0
LAYOUT
  5
26
102
{ACAD_REACTORS
330
1A
102
}
330
1A
100
AcDbPlotSettings
  1

  2
none_device
  4

  6

 40
0.0
 41
0.0
 42
0.0
 43
0.0
 44
0.0
 45
0.0
 46
0.0
 47
0.0
 48
0.0
 49
0.0
140
0.0
141
0.0
142
1.0
143
1.0
 70
   688
 72
     0
 73
     0
 74
     5
  7

 75
    16
147
1.0
148
0.0
149
0.0
100
AcDbLayout
  1
Layout2
 70
     1
 71
     2
 10
0.0
 20
0.0
 11
0.0
 21
0.0
 12
0.0
 22
0.0
 32
0.0
 14
0.0
 24
0.0
 34
0.0
 15
0.0
 25
0.0
 35
0.0
146
0.0
 13
0.0
 23
0.0
 33
0.0
 16
1.0
 26
0.0
 36
0.0
 17
0.0
 27
1.0
 37
0.0
 76
     0
330
23
  0
LAYOUT
  5
22
102
{ACAD_REACTORS
330
1A
102
}
330
1A
100
AcDbPlotSettings
  1

  2
none_device
  4
Letter_(8.50_x_11.00_Inches)
  6

 40
6.35
 41
6.35
 42
6.35000508
 43
6.35000508
 44
215.9
 45
279.4
 46
0.0
 47
0.0
 48
0.0
 49
0.0
140
0.0
141
0.0
142
1.0
143
1.0
 70
  1712
 72
     0
 73
     0
 74
     0
  7

 75
     0
147
1.0
148
0.0
149
0.0
100
AcDbLayout
  1
Model
 70
     1
 71
     0
 10
0.0
 20
0.0
 11
8.5
 21
11.0
 12
0.0
 22
0.0
 32
0.0
 14
0.0
 24
0.0
 34
0.0
 15
8.5
 25
11.0
 35
0.0
146
0.0
 13
0.0
 23
0.0
 33
0.0
 16
1.0
 26
0.0
 36
0.0
 17
0.0
 27
1.0
 37
0.0
 76
     0
330
1F
331
29
  0
MLINESTYLE
  5
18
102
{ACAD_REACTORS
330
17
102
}
330
17
100
AcDbMlineStyle
  2
Standard
 70
     0
  3

 62
   256
 51
90.0
 52
90.0
 71
     2
 49
0.5
 62
   256
  6
BYLAYER
 49
-0.5
 62
   256
  6
BYLAYER
  0
ACDBPLACEHOLDER
  5
F
102
{ACAD_REACTORS
330
E
102
}
330
E
  0
SCALE
  5
48
102
{ACAD_REACTORS
330
47
102
}
330
47
100
AcDbScale
 70
     0
300
1:1
140
1.0
141
1.0
290
     1
  0
SCALE
  5
49
102
{ACAD_REACTORS
330
47
102
}
330
47
100
AcDbScale
 70
     0
300
1:2
140
1.0
141
2.0
290
     0
  0
SCALE
  5
4A
102
{ACAD_REACTORS
330
47
102
}
330
47
100
AcDbScale
 70
     0
300
1:4
140
1.0
141
4.0
290
     0
  0
SCALE
  5
4B
102
{ACAD_REACTORS
330
47
102
}
330
47
100
AcDbScale
 70
     0
300
1:5
140
1.0
141
5.0
290
     0
  0
SCALE
  5
4C
102
{ACAD_REACTORS
330
47
102
}
330
47
100
AcDbScale
 70
     0
300
1:8
140
1.0
141
8.0
290
     0
  0
SCALE
  5
4D
102
{ACAD_REACTORS
330
47
102
}
330
47
100
AcDbScale
 70
     0
300
1:10
140
1.0
141
10.0
290
     0
  0
SCALE
  5
4E
102
{ACAD_REACTORS
330
47
102
}
330
47
100
AcDbScale
 70
     0
300
1:16
140
1.0
141
16.0
290
     0
  0
SCALE
  5
4F
102
{ACAD_REACTORS
330
47
102
}
330
47
100
AcDbScale
 70
     0
300
1:20
140
1.0
141
20.0
290
     0
  0
SCALE
  5
50
102
{ACAD_REACTORS
330
47
102
}
330
47
100
AcDbScale
 70
     0
300
1:30
140
1.0
141
30.0
290
     0
  0
SCALE
  5
51
102
{ACAD_REACTORS
330
47
102
}
330
47
100
AcDbScale
 70
     0
300
1:40
140
1.0
141
40.0
290
     0
  0
SCALE
  5
52
102
{ACAD_REACTORS
330
47
102
}
330
47
100
AcDbScale
 70
     0
300
1:50
140
1.0
141
50.0
290
     0
  0
SCALE
  5
53
102
{ACAD_REACTORS
330
47
102
}
330
47
100
AcDbScale
 70
     0
300
1:100
140
1.0
141
100.0
290
     0
  0
SCALE
  5
54
102
{ACAD_REACTORS
330
47
102
}
330
47
100
AcDbScale
 70
     0
300
2:1
140
2.0
141
1.0
290
     0
  0
SCALE
  5
55
102
{ACAD_REACTORS
330
47
102
}
330
47
100
AcDbScale
 70
     0
300
4:1
140
4.0
141
1.0
290
     0
  0
SCALE
  5
56
102
{ACAD_REACTORS
330
47
102
}
330
47
100
AcDbScale
 70
     0
300
8:1
140
8.0
141
1.0
290
     0
  0
SCALE
  5
57
102
{ACAD_REACTORS
330
47
102
}
330
47
100
AcDbScale
 70
     0
300
10:1
140
10.0
141
1.0
290
     0
  0
SCALE
  5
58
102
{ACAD_REACTORS
330
47
102
}
330
47
100
AcDbScale
 70
     0
300
100:1
140
100.0
141
1.0
290
     0
  0
SCALE
  5
59
102
{ACAD_REACTORS
330
47
102
}
330
47
100
AcDbScale
 70
     0
300
1/128" = 1'-0"
140
0.0078125
141
12.0
290
     0
  0
SCALE
  5
5A
102
{ACAD_REACTORS
330
47
102
}
330
47
100
AcDbScale
 70
     0
300
1/64" = 1'-0"
140
0.015625
141
12.0
290
     0
  0
SCALE
  5
5B
102
{ACAD_REACTORS
330
47
102
}
330
47
100
AcDbScale
 70
     0
300
1/32" = 1'-0"
140
0.03125
141
12.0
290
     0
  0
SCALE
  5
5C
102
{ACAD_REACTORS
330
47
102
}
330
47
100
AcDbScale
 70
     0
300
1/16" = 1'-0"
140
0.0625
141
12.0
290
     0
  0
SCALE
  5
5D
102
{ACAD_REACTORS
330
47
102
}
330
47
100
AcDbScale
 70
     0
300
3/32" = 1'-0"
140
0.09375
141
12.0
290
     0
  0
SCALE
  5
5E
102
{ACAD_REACTORS
330
47
102
}
330
47
100
AcDbScale
 70
     0
300
1/8" = 1'-0"
140
0.125
141
12.0
290
     0
  0
SCALE
  5
5F
102
{ACAD_REACTORS
330
47
102
}
330
47
100
AcDbScale
 70
     0
300
3/16" = 1'-0"
140
0.1875
141
12.0
290
     0
  0
SCALE
  5
60
102
{ACAD_REACTORS
330
47
102
}
330
47
100
AcDbScale
 70
     0
300
1/4" = 1'-0"
140
0.25
141
12.0
290
     0
  0
SCALE
  5
61
102
{ACAD_REACTORS
330
47
102
}
330
47
100
AcDbScale
 70
     0
300
3/8" = 1'-0"
140
0.375
141
12.0
290
     0
  0
SCALE
  5
62
102
{ACAD_REACTORS
330
47
102
}
330
47
100
AcDbScale
 70
     0
300
1/2" = 1'-0"
140
0.5
141
12.0
290
     0
  0
SCALE
  5
63
102
{ACAD_REACTORS
330
47
102
}
330
47
100
AcDbScale
 70
     0
300
3/4" = 1'-0"
140
0.75
141
12.0
290
     0
  0
SCALE
  5
64
102
{ACAD_REACTORS
330
47
102
}
330
47
100
AcDbScale
 70
     0
300
1" = 1'-0"
140
1.0
141
12.0
290
     0
  0
SCALE
  5
65
102
{ACAD_REACTORS
330
47
102
}
330
47
100
AcDbScale
 70
     0
300
1-1/2" = 1'-0"
140
1.5
141
12.0
290
     0
  0
SCALE
  5
66
102
{ACAD_REACTORS
330
47
102
}
330
47
100
AcDbScale
 70
     0
300
3" = 1'-0"
140
3.0
141
12.0
290
     0
  0
SCALE
  5
67
102
{ACAD_REACTORS
330
47
102
}
330
47
100
AcDbScale
 70
     0
300
6" = 1'-0"
140
6.0
141
12.0
290
     0
  0
SCALE
  5
68
102
{ACAD_REACTORS
330
47
102
}
330
47
100
AcDbScale
 70
     0
300
1'-0" = 1'-0"
140
12.0
141
12.0
290
     0
  0
ENDSEC
  0
EOF
