  0
SECTION
  2
HEADER
  9
$ACADVER
  1
AC1015
  9
$ACADMAINTVER
 70
     6
  9
$DWGCODEPAGE
  3
ANSI_1252
  9
$INSBASE
 10
0.0
 20
0.0
 30
0.0
  9
$EXTMIN
 10
0.0
 20
0.0
 30
0.0
  9
$EXTMAX
 10
558.8
 20
431.8
 30
0.0
  9
$LIMMIN
 10
0.0
 20
0.0
  9
$LIMMAX
 10
558.8
 20
431.8
  9
$ORTHOMODE
 70
     0
  9
$REGENMODE
 70
     1
  9
$FILLMODE
 70
     1
  9
$QTEXTMODE
 70
     0
  9
$MIRRTEXT
 70
     1
  9
$LTSCALE
 40
1.0
  9
$ATTMODE
 70
     1
  9
$TEXTSIZE
 40
3.175
  9
$TRACEWID
 40
1.0
  9
$TEXTSTYLE
  7
Standard
  9
$CLAYER
  8
0
  9
$CELTYPE
  6
ByLayer
  9
$CECOLOR
 62
   256
  9
$CELTSCALE
 40
1.0
  9
$DISPSILH
 70
     0
  9
$DIMSCALE
 40
1.0
  9
$DIMASZ
 40
3.302
  9
$DIMEXO
 40
1.27
  9
$DIMDLI
 40
3.75
  9
$DIMRND
 40
0.0
  9
$DIMDLE
 40
0.0
  9
$DIMEXE
 40
3.175
  9
$DIMTP
 40
0.0
  9
$DIMTM
 40
0.0
  9
$DIMTXT
 40
3.175
  9
$DIMCEN
 40
2.5
  9
$DIMTSZ
 40
0.0
  9
$DIMTOL
 70
     0
  9
$DIMLIM
 70
     0
  9
$DIMTIH
 70
     1
  9
$DIMTOH
 70
     1
  9
$DIMSE1
 70
     0
  9
$DIMSE2
 70
     0
  9
$DIMTAD
 70
     0
  9
$DIMZIN
 70
     1
  9
$DIMBLK
  1

  9
$DIMASO
 70
     1
  9
$DIMSHO
 70
     1
  9
$DIMPOST
  1

  9
$DIMAPOST
  1

  9
$DIMALT
 70
     0
  9
$DIMALTD
 70
     3
  9
$DIMALTF
 40
0.0393700787
  9
$DIMLFAC
 40
2.0
  9
$DIMTOFL
 70
     1
  9
$DIMTVP
 40
0.0
  9
$DIMTIX
 70
     0
  9
$DIMSOXD
 70
     0
  9
$DIMSAH
 70
     0
  9
$DIMBLK1
  1

  9
$DIMBLK2
  1

  9
$DIMSTYLE
  2
ISO-25
  9
$DIMCLRD
 70
     0
  9
$DIMCLRE
 70
     0
  9
$DIMCLRT
 70
     0
  9
$DIMTFAC
 40
1.0
  9
$DIMGAP
 40
1.524
  9
$DIMJUST
 70
     0
  9
$DIMSD1
 70
     0
  9
$DIMSD2
 70
     0
  9
$DIMTOLJ
 70
     0
  9
$DIMTZIN
 70
     1
  9
$DIMALTZ
 70
     0
  9
$DIMALTTZ
 70
     0
  9
$DIMUPT
 70
     0
  9
$DIMDEC
 70
     2
  9
$DIMTDEC
 70
     2
  9
$DIMALTU
 70
     2
  9
$DIMALTTD
 70
     3
  9
$DIMTXSTY
  7
Standard
  9
$DIMAUNIT
 70
     0
  9
$DIMADEC
 70
     2
  9
$DIMALTRND
 40
0.0
  9
$DIMAZIN
 70
     0
  9
$DIMDSEP
 70
    44
  9
$DIMATFIT
 70
     3
  9
$DIMFRAC
 70
     0
  9
$DIMLDRBLK
  1

  9
$DIMLUNIT
 70
     2
  9
$DIMLWD
 70
    -2
  9
$DIMLWE
 70
    -2
  9
$DIMTMOVE
 70
     0
  9
$LUNITS
 70
     2
  9
$LUPREC
 70
     2
  9
$SKETCHINC
 40
1.0
  9
$FILLETRAD
 40
10.0
  9
$AUNITS
 70
     0
  9
$AUPREC
 70
     2
  9
$MENU
  1
.
  9
$ELEVATION
 40
0.0
  9
$PELEVATION
 40
0.0
  9
$THICKNESS
 40
0.0
  9
$LIMCHECK
 70
     0
  9
$CHAMFERA
 40
0.0
  9
$CHAMFERB
 40
0.0
  9
$CHAMFERC
 40
0.0
  9
$CHAMFERD
 40
0.0
  9
$SKPOLY
 70
     0
  9
$TDCREATE
 40
2458249.464140266
  9
$TDUCREATE
 40
2458249.630806933
  9
$TDUPDATE
 40
2458249.464141354
  9
$TDUUPDATE
 40
2458249.630808021
  9
$TDINDWG
 40
0.0000000116
  9
$TDUSRTIMER
 40
0.0000000116
  9
$USRTIMER
 70
     1
  9
$ANGBASE
 50
0.0
  9
$ANGDIR
 70
     0
  9
$PDMODE
 70
     0
  9
$PDSIZE
 40
-1.0
  9
$PLINEWID
 40
0.0
  9
$SPLFRAME
 70
     0
  9
$SPLINETYPE
 70
     6
  9
$SPLINESEGS
 70
     8
  9
$HANDSEED
  5
456
  9
$SURFTAB1
 70
     6
  9
$SURFTAB2
 70
     6
  9
$SURFTYPE
 70
     6
  9
$SURFU
 70
     6
  9
$SURFV
 70
     6
  9
$UCSBASE
  2

  9
$UCSNAME
  2

  9
$UCSORG
 10
0.0
 20
0.0
 30
0.0
  9
$UCSXDIR
 10
1.0
 20
0.0
 30
0.0
  9
$UCSYDIR
 10
0.0
 20
1.0
 30
0.0
  9
$UCSORTHOREF
  2

  9
$UCSORTHOVIEW
 70
     0
  9
$UCSORGTOP
 10
0.0
 20
0.0
 30
0.0
  9
$UCSORGBOTTOM
 10
0.0
 20
0.0
 30
0.0
  9
$UCSORGLEFT
 10
0.0
 20
0.0
 30
0.0
  9
$UCSORGRIGHT
 10
0.0
 20
0.0
 30
0.0
  9
$UCSORGFRONT
 10
0.0
 20
0.0
 30
0.0
  9
$UCSORGBACK
 10
0.0
 20
0.0
 30
0.0
  9
$PUCSBASE
  2

  9
$PUCSNAME
  2

  9
$PUCSORG
 10
0.0
 20
0.0
 30
0.0
  9
$PUCSXDIR
 10
1.0
 20
0.0
 30
0.0
  9
$PUCSYDIR
 10
0.0
 20
1.0
 30
0.0
  9
$PUCSORTHOREF
  2

  9
$PUCSORTHOVIEW
 70
     0
  9
$PUCSORGTOP
 10
0.0
 20
0.0
 30
0.0
  9
$PUCSORGBOTTOM
 10
0.0
 20
0.0
 30
0.0
  9
$PUCSORGLEFT
 10
0.0
 20
0.0
 30
0.0
  9
$PUCSORGRIGHT
 10
0.0
 20
0.0
 30
0.0
  9
$PUCSORGFRONT
 10
0.0
 20
0.0
 30
0.0
  9
$PUCSORGBACK
 10
0.0
 20
0.0
 30
0.0
  9
$USERI1
 70
     0
  9
$USERI2
 70
     0
  9
$USERI3
 70
     0
  9
$USERI4
 70
     0
  9
$USERI5
 70
     0
  9
$USERR1
 40
0.0
  9
$USERR2
 40
0.0
  9
$USERR3
 40
0.0
  9
$USERR4
 40
0.0
  9
$USERR5
 40
0.0
  9
$WORLDVIEW
 70
     1
  9
$SHADEDGE
 70
     3
  9
$SHADEDIF
 70
    70
  9
$TILEMODE
 70
     1
  9
$MAXACTVP
 70
    64
  9
$PINSBASE
 10
0.0
 20
0.0
 30
0.0
  9
$PLIMCHECK
 70
     0
  9
$PEXTMIN
 10
1.0000000000E+20
 20
1.0000000000E+20
 30
1.0000000000E+20
  9
$PEXTMAX
 10
-1.0000000000E+20
 20
-1.0000000000E+20
 30
-1.0000000000E+20
  9
$PLIMMIN
 10
0.0
 20
0.0
  9
$PLIMMAX
 10
420.0
 20
297.0
  9
$UNITMODE
 70
     0
  9
$VISRETAIN
 70
     1
  9
$PLINEGEN
 70
     0
  9
$PSLTSCALE
 70
     1
  9
$TREEDEPTH
 70
  3020
  9
$CMLSTYLE
  2
Standard
  9
$CMLJUST
 70
     0
  9
$CMLSCALE
 40
20.0
  9
$PROXYGRAPHICS
 70
     1
  9
$MEASUREMENT
 70
     1
  9
$CELWEIGHT
370
    -1
  9
$ENDCAPS
280
     0
  9
$JOINSTYLE
280
     0
  9
$LWDISPLAY
290
     1
  9
$INSUNITS
 70
     4
  9
$HYPERLINKBASE
  1

  9
$STYLESHEET
  1

  9
$XEDIT
290
     1
  9
$CEPSNTYPE
380
     0
  9
$PSTYLEMODE
290
     1
  9
$FINGERPRINTGUID
  2
{28583CDF-E4E4-453C-9216-3214029A7113}
  9
$VERSIONGUID
  2
{FAEB1C32-E019-11D5-929B-00C0DF256EC4}
  9
$EXTNAMES
290
     1
  9
$PSVPSCALE
 40
0.0
  9
$OLESTARTUP
290
     0
  0
ENDSEC
  0
SECTION
  2
CLASSES
  0
CLASS
  1
ACDBDICTIONARYWDFLT
  2
AcDbDictionaryWithDefault
  3
ObjectDBX Classes
 90
        0
280
     0
281
     0
  0
CLASS
  1
VISUALSTYLE
  2
AcDbVisualStyle
  3
ObjectDBX Classes
 90
     4095
280
     0
281
     0
  0
CLASS
  1
MATERIAL
  2
AcDbMaterial
  3
ObjectDBX Classes
 90
     1153
280
     0
281
     0
  0
CLASS
  1
SCALE
  2
AcDbScale
  3
ObjectDBX Classes
 90
     1153
280
     0
281
     0
  0
CLASS
  1
TABLESTYLE
  2
AcDbTableStyle
  3
ObjectDBX Classes
 90
     4095
280
     0
281
     0
  0
CLASS
  1
MLEADERSTYLE
  2
AcDbMLeaderStyle
  3
ACDB_MLEADERSTYLE_CLASS
 90
     4095
280
     0
281
     0
  0
CLASS
  1
SUN
  2
AcDbSun
  3
SCENEOE
 90
     1153
280
     0
281
     0
  0
CLASS
  1
ACDBPLACEHOLDER
  2
AcDbPlaceHolder
  3
ObjectDBX Classes
 90
        0
280
     0
281
     0
  0
CLASS
  1
LAYOUT
  2
AcDbLayout
  3
ObjectDBX Classes
 90
        0
280
     0
281
     0
  0
ENDSEC
  0
SECTION
  2
TABLES
  0
TABLE
  2
VPORT
  5
8
330
0
100
AcDbSymbolTable
 70
     1
  0
VPORT
  5
29
330
8
100
AcDbSymbolTableRecord
100
AcDbViewportTableRecord
  2
*Active
 70
     0
 10
0.0
 20
0.0
 11
1.0
 21
1.0
 12
279.4
 22
215.9
 13
0.0
 23
0.0
 14
10.0
 24
10.0
 15
10.0
 25
10.0
 16
0.0
 26
0.0
 36
1.0
 17
0.0
 27
0.0
 37
0.0
 40
431.8
 41
1.2941176471
 42
50.0
 43
0.0
 44
0.0
 50
0.0
 51
0.0
 71
     0
 72
  2000
 73
     1
 74
     3
 75
     0
 76
     0
 77
     0
 78
     0
281
     0
 65
     1
110
0.0
120
0.0
130
0.0
111
1.0
121
0.0
131
0.0
112
0.0
122
1.0
132
0.0
 79
     0
146
0.0
  0
ENDTAB
  0
TABLE
  2
LTYPE
  5
5
330
0
100
AcDbSymbolTable
 70
     6
  0
LTYPE
  5
14
330
5
100
AcDbSymbolTableRecord
100
AcDbLinetypeTableRecord
  2
ByBlock
 70
     0
  3

 72
    65
 73
     0
 40
0.0
  0
LTYPE
  5
15
330
5
100
AcDbSymbolTableRecord
100
AcDbLinetypeTableRecord
  2
ByLayer
 70
     0
  3

 72
    65
 73
     0
 40
0.0
  0
LTYPE
  5
16
330
5
100
AcDbSymbolTableRecord
100
AcDbLinetypeTableRecord
  2
Continuous
 70
     0
  3
Solid line
 72
    65
 73
     0
 40
0.0
  0
LTYPE
  5
6E
330
5
100
AcDbSymbolTableRecord
100
AcDbLinetypeTableRecord
  2
HIDDEN
 70
     0
  3
Hidden __ __ __ __ __ __ __ __ __ __ __ __ __ __
 72
    65
 73
     2
 40
1.905
 49
1.27
 74
     0
 49
-0.635
 74
     0
  0
LTYPE
  5
6F
330
5
100
AcDbSymbolTableRecord
100
AcDbLinetypeTableRecord
  2
PHANTOM
 70
     0
  3
Phantom ______  __  __  ______  __  __  ______
 72
    65
 73
     6
 40
12.7
 49
6.35
 74
     0
 49
-1.27
 74
     0
 49
1.27
 74
     0
 49
-1.27
 74
     0
 49
1.27
 74
     0
 49
-1.27
 74
     0
  0
LTYPE
  5
70
330
5
100
AcDbSymbolTableRecord
100
AcDbLinetypeTableRecord
  2
CENTER
 70
     0
  3
Center ____ _ ____ _ ____ _ ____ _ ____ _ ____
 72
    65
 73
     4
 40
10.16
 49
6.35
 74
     0
 49
-1.27
 74
     0
 49
1.27
 74
     0
 49
-1.27
 74
     0
  0
LTYPE
  5
71
330
5
100
AcDbSymbolTableRecord
100
AcDbLinetypeTableRecord
  2
CENTERX2
 70
     0
  3
Center (2x) ________  __  ________  __  _____
 72
    65
 73
     4
 40
20.32
 49
12.7
 74
     0
 49
-2.54
 74
     0
 49
2.54
 74
     0
 49
-2.54
 74
     0
  0
LTYPE
  5
72
330
5
100
AcDbSymbolTableRecord
100
AcDbLinetypeTableRecord
  2
DOT2
 70
     0
  3
Dot (.5x) ........................................
 72
    65
 73
     2
 40
0.635
 49
0.0
 74
     0
 49
-0.635
 74
     0
  0
ENDTAB
  0
TABLE
  2
LAYER
  5
2
330
0
100
AcDbSymbolTable
 70
     4
  0
LAYER
  5
10
330
2
100
AcDbSymbolTableRecord
100
AcDbLayerTableRecord
  2
0
 70
     0
 62
     7
  6
Continuous
370
    -3
390
F
  0
LAYER
  5
73
330
2
100
AcDbSymbolTableRecord
100
AcDbLayerTableRecord
  2
SLD-0
 70
     0
 62
   179
  6
Continuous
370
    -3
390
F
  0
LAYER
  5
74
330
2
100
AcDbSymbolTableRecord
100
AcDbLayerTableRecord
  2
FORMAT
 70
     0
 62
     7
  6
Continuous
370
    -3
390
F
  0
LAYER
  5
75
330
2
100
AcDbSymbolTableRecord
100
AcDbLayerTableRecord
  2
3
 70
     0
 62
   179
  6
Continuous
370
    -3
390
F
  0
ENDTAB
  0
TABLE
  2
STYLE
  5
3
330
0
100
AcDbSymbolTable
 70
     1
  0
STYLE
  5
11
330
3
100
AcDbSymbolTableRecord
100
AcDbTextStyleTableRecord
  2
Standard
 70
     0
 40
0.0
 41
1.0
 50
0.0
 71
     0
 42
3.175
  3
txt
  4

  0
ENDTAB
  0
TABLE
  2
VIEW
  5
6
330
0
100
AcDbSymbolTable
 70
     0
  0
ENDTAB
  0
TABLE
  2
UCS
  5
7
330
0
100
AcDbSymbolTable
 70
     0
  0
ENDTAB
  0
TABLE
  2
APPID
  5
9
330
0
100
AcDbSymbolTable
 70
     1
  0
APPID
  5
12
330
9
100
AcDbSymbolTableRecord
100
AcDbRegAppTableRecord
  2
ACAD
 70
     0
  0
ENDTAB
  0
TABLE
  2
DIMSTYLE
  5
A
330
0
100
AcDbSymbolTable
 70
     1
100
AcDbDimStyleTable
  0
DIMSTYLE
105
27
330
A
100
AcDbSymbolTableRecord
100
AcDbDimStyleTableRecord
  2
ISO-25
 70
     0
 41
2.5
 42
0.625
 43
3.75
 44
1.25
 73
     0
 74
     0
 77
     1
 78
     8
140
2.5
141
2.5
143
0.0393700787
147
0.625
171
     3
172
     1
178
     0
271
     2
272
     2
274
     3
278
    44
283
     0
284
     8
340
11
  0
ENDTAB
  0
TABLE
  2
BLOCK_RECORD
  5
1
330
0
100
AcDbSymbolTable
 70
     1
  0
BLOCK_RECORD
  5
1F
330
1
100
AcDbSymbolTableRecord
100
AcDbBlockTableRecord
  2
*Model_Space
340
22
  0
BLOCK_RECORD
  5
1B
330
1
100
AcDbSymbolTableRecord
100
AcDbBlockTableRecord
  2
*Paper_Space
340
1E
  0
BLOCK_RECORD
  5
23
330
1
100
AcDbSymbolTableRecord
100
AcDbBlockTableRecord
  2
*Paper_Space0
340
26
  0
ENDTAB
  0
ENDSEC
  0
SECTION
  2
BLOCKS
  0
BLOCK
  5
20
330
1F
100
AcDbEntity
  8
0
100
AcDbBlockBegin
  2
*Model_Space
 70
     0
 10
0.0
 20
0.0
 30
0.0
  3
*Model_Space
  1

  0
ENDBLK
  5
21
330
1F
100
AcDbEntity
  8
0
100
AcDbBlockEnd
  0
BLOCK
  5
1C
330
1B
100
AcDbEntity
 67
     1
  8
0
100
AcDbBlockBegin
  2
*Paper_Space
 70
     0
 10
0.0
 20
0.0
 30
0.0
  3
*Paper_Space
  1

  0
ENDBLK
  5
1D
330
1B
100
AcDbEntity
 67
     1
  8
0
100
AcDbBlockEnd
  0
BLOCK
  5
24
330
23
100
AcDbEntity
  8
0
100
AcDbBlockBegin
  2
*Paper_Space0
 70
     0
 10
0.0
 20
0.0
 30
0.0
  3
*Paper_Space0
  1

  0
ENDBLK
  5
25
330
23
100
AcDbEntity
  8
0
100
AcDbBlockEnd
  0
ENDSEC
  0
SECTION
  2
ENTITIES
  0
LINE
  5
76
330
1F
100
AcDbEntity
  8
0
  6
Continuous
 62
     7
370
    25
100
AcDbLine
 10
264.1838471999
 20
169.000486229
 30
0.0
 11
264.2600471999
 21
169.0068809495
 31
0.0
  0
LINE
  5
77
330
1F
100
AcDbEntity
  8
0
  6
Continuous
 62
     7
370
    25
100
AcDbLine
 10
264.2600471999
 20
182.0243809495
 30
0.0
 11
264.1838471999
 21
182.03077567
 31
0.0
  0
LINE
  5
78
330
1F
100
AcDbEntity
  8
0
  6
Continuous
 62
     7
370
    25
100
AcDbLine
 10
266.7873471999
 20
182.0243809495
 30
0.0
 11
264.2600471999
 21
182.0243809495
 31
0.0
  0
LINE
  5
79
330
1F
100
AcDbEntity
  8
0
  6
Continuous
 62
     7
370
    25
100
AcDbLine
 10
264.2600471999
 20
169.0068809495
 30
0.0
 11
266.7873471999
 21
169.0068809495
 31
0.0
  0
ARC
  5
7A
330
1F
100
AcDbEntity
  8
0
  6
Continuous
 62
     7
370
    25
100
AcDbCircle
 10
265.5300471999
 20
156.1481309495
 30
0.0
 40
0.7620000000000573
100
AcDbArc
 50
90.0
 51
180.0
  0
ARC
  5
7B
330
1F
100
AcDbEntity
  8
0
  6
Continuous
 62
     7
370
    25
100
AcDbCircle
 10
276.9600471999
 20
156.1481309495
 30
0.0
 40
0.7620000000000005
100
AcDbArc
 50
0.0
 51
90.0
  0
LINE
  5
7C
330
1F
100
AcDbEntity
  8
0
  6
Continuous
 62
     7
370
    25
100
AcDbLine
 10
264.7680471999
 20
145.6071309495
 30
0.0
 11
264.7680471999
 21
138.2411309495
 31
0.0
  0
LINE
  5
7D
330
1F
100
AcDbEntity
  8
0
  6
Continuous
 62
     7
370
    25
100
AcDbLine
 10
264.7680471999
 20
156.1481309495
 30
0.0
 11
264.7680471999
 21
149.6435770533
 31
0.0
  0
LINE
  5
7E
330
1F
100
AcDbEntity
  8
0
  6
Continuous
 62
     7
370
    25
100
AcDbLine
 10
277.7220471999
 20
138.2411309495
 30
0.0
 11
277.7220471999
 21
156.1481309495
 31
0.0
  0
ARC
  5
7F
330
1F
100
AcDbEntity
  8
0
  6
Continuous
 62
     7
370
    25
100
AcDbCircle
 10
239.9776471999
 20
154.0431059495
 30
0.0
 40
0.3968750000000227
100
AcDbArc
 50
180.0
 51
270.0
  0
ARC
  5
80
330
1F
100
AcDbEntity
  8
0
  6
Continuous
 62
     7
370
    25
100
AcDbCircle
 10
239.9776471999
 20
156.4243559495
 30
0.0
 40
0.3968750000000227
100
AcDbArc
 50
90.0
 51
180.0
  0
LINE
  5
81
330
1F
100
AcDbEntity
  8
0
  6
Continuous
 62
     7
370
    25
100
AcDbLine
 10
277.4045471999
 20
140.1969309495
 30
0.0
 11
277.2775472
 21
140.3239309496
 31
0.0
  0
LINE
  5
82
330
1F
100
AcDbEntity
  8
0
  6
Continuous
 62
     7
370
    25
100
AcDbLine
 10
274.1025471999
 20
140.3239309496
 30
0.0
 11
273.9755472
 21
140.1969309495
 31
0.0
  0
LINE
  5
83
330
1F
100
AcDbEntity
  8
0
  6
Continuous
 62
     7
370
    25
100
AcDbLine
 10
277.4045471999
 20
138.2411309495
 30
0.0
 11
277.4045471999
 21
140.1969309495
 31
0.0
  0
LINE
  5
84
330
1F
100
AcDbEntity
  8
0
  6
Continuous
 62
     7
370
    25
100
AcDbLine
 10
273.9755471999
 20
140.1969309495
 30
0.0
 11
273.9755471999
 21
138.2411309495
 31
0.0
  0
LINE
  5
85
330
1F
100
AcDbEntity
  8
0
  6
Continuous
 62
     7
370
    25
100
AcDbLine
 10
268.5780471999
 20
140.1828233765
 30
0.0
 11
268.4510472
 21
140.3098233766
 31
0.0
  0
LINE
  5
86
330
1F
100
AcDbEntity
  8
0
  6
Continuous
 62
     7
370
    25
100
AcDbLine
 10
265.2760471999
 20
140.3098233766
 30
0.0
 11
265.1490472
 21
140.1828233765
 31
0.0
  0
LINE
  5
87
330
1F
100
AcDbEntity
  8
0
  6
Continuous
 62
     7
370
    25
100
AcDbLine
 10
268.5780471999
 20
138.2270233765
 30
0.0
 11
268.5780471999
 21
140.1828233765
 31
0.0
  0
LINE
  5
88
330
1F
100
AcDbEntity
  8
0
  6
Continuous
 62
     7
370
    25
100
AcDbLine
 10
265.1490471999
 20
140.1828233765
 30
0.0
 11
265.1490471999
 21
138.2270233765
 31
0.0
  0
LINE
  5
89
330
1F
100
AcDbEntity
  8
0
  6
Continuous
 62
     7
370
    25
100
AcDbLine
 10
266.8653570093
 20
165.8096156318
 30
0.0
 11
266.9714971999
 21
165.9934558342
 31
0.0
  0
LINE
  5
8A
330
1F
100
AcDbEntity
  8
0
  6
Continuous
 62
     7
370
    25
100
AcDbLine
 10
266.9714971999
 20
168.3754060648
 30
0.0
 11
266.8653570031
 21
168.559246278
 31
0.0
  0
LINE
  5
8B
330
1F
100
AcDbEntity
  8
0
  6
Continuous
 62
     7
370
    25
100
AcDbLine
 10
264.5902471999
 20
185.8280309495
 30
0.0
 11
264.1838471999
 21
185.8280309495
 31
0.0
  0
ARC
  5
8C
330
1F
100
AcDbEntity
  8
0
  6
Continuous
 62
     7
370
    25
100
AcDbCircle
 10
239.9776471999
 20
162.1457059495
 30
0.0
 40
0.3968750000000227
100
AcDbArc
 50
180.0
 51
270.0
  0
ARC
  5
8D
330
1F
100
AcDbEntity
  8
0
  6
Continuous
 62
     7
370
    25
100
AcDbCircle
 10
239.9776471999
 20
164.5269559495
 30
0.0
 40
0.3968750000000227
100
AcDbArc
 50
90.0
 51
180.0
  0
LINE
  5
8E
330
1F
100
AcDbEntity
  8
0
  6
Continuous
 62
     7
370
    25
100
AcDbLine
 10
264.1838471999
 20
165.2032309495
 30
0.0
 11
264.5902471999
 21
165.2032309495
 31
0.0
  0
LINE
  5
8F
330
1F
100
AcDbEntity
  8
0
  6
Continuous
 62
     7
370
    25
100
AcDbLine
 10
268.4542221999
 20
160.2984909495
 30
0.0
 11
268.4542221999
 21
160.0851309505
 31
0.0
  0
LINE
  5
90
330
1F
100
AcDbEntity
  8
0
  6
Continuous
 62
     7
370
    25
100
AcDbLine
 10
268.4542221999
 20
157.0863397923
 30
0.0
 11
268.4542221999
 21
156.9101309495
 31
0.0
  0
LINE
  5
91
330
1F
100
AcDbEntity
  8
0
  6
Continuous
 62
     7
370
    25
100
AcDbLine
 10
274.0358721999
 20
138.2270233765
 30
0.0
 11
274.0358721999
 21
138.2411309495
 31
0.0
  0
LINE
  5
92
330
1F
100
AcDbEntity
  8
0
  6
Continuous
 62
     7
370
    25
100
AcDbLine
 10
274.0358721999
 20
156.9101309495
 30
0.0
 11
274.0358721999
 21
157.0872099387
 31
0.0
  0
LINE
  5
93
330
1F
100
AcDbEntity
  8
0
  6
Continuous
 62
     7
370
    25
100
AcDbLine
 10
274.0358721999
 20
160.0851309505
 30
0.0
 11
274.0358721999
 21
160.2984909495
 31
0.0
  0
LINE
  5
94
330
1F
100
AcDbEntity
  8
0
  6
Continuous
 62
     7
370
    25
100
AcDbLine
 10
276.2860367261
 20
159.8311309538
 30
0.0
 11
275.5881774736
 21
160.0851309505
 31
0.0
  0
LINE
  5
95
330
1F
100
AcDbEntity
  8
0
  6
Continuous
 62
     7
370
    25
100
AcDbLine
 10
266.9019169263
 20
160.0851309505
 30
0.0
 11
266.2040576738
 21
159.8311309538
 31
0.0
  0
LINE
  5
96
330
1F
100
AcDbEntity
  8
0
  6
Continuous
 62
     7
370
    25
100
AcDbLine
 10
266.8653570093
 20
182.4720156318
 30
0.0
 11
266.9714971999
 21
182.6558558342
 31
0.0
  0
LINE
  5
97
330
1F
100
AcDbEntity
  8
0
  6
Continuous
 62
     7
370
    25
100
AcDbLine
 10
266.9714971999
 20
185.0378060648
 30
0.0
 11
266.8653570031
 21
185.221646278
 31
0.0
  0
LINE
  5
98
330
1F
100
AcDbEntity
  8
0
  6
Continuous
 62
   144
370
    18
100
AcDbLine
 10
264.2600471999
 20
170.1975059495
 30
0.0
 11
264.1838471999
 21
170.1975059495
 31
0.0
  0
LINE
  5
99
330
1F
100
AcDbEntity
  8
0
  6
Continuous
 62
   144
370
    18
100
AcDbLine
 10
264.2600471999
 20
180.8337559495
 30
0.0
 11
264.1838471999
 21
180.8337559495
 31
0.0
  0
LINE
  5
9A
330
1F
100
AcDbEntity
  8
0
  6
Continuous
 62
     7
370
    25
100
AcDbLine
 10
266.7873471999
 20
180.8337559495
 30
0.0
 11
266.7873471999
 21
182.0243809495
 31
0.0
  0
LINE
  5
9B
330
1F
100
AcDbEntity
  8
0
  6
Continuous
 62
     7
370
    25
100
AcDbLine
 10
264.2600471999
 20
180.8337559495
 30
0.0
 11
266.7873471999
 21
180.8337559495
 31
0.0
  0
LINE
  5
9C
330
1F
100
AcDbEntity
  8
0
  6
Continuous
 62
     7
370
    25
100
AcDbLine
 10
264.2600471999
 20
170.1975059495
 30
0.0
 11
266.7873471999
 21
170.1975059495
 31
0.0
  0
LINE
  5
9D
330
1F
100
AcDbEntity
  8
0
  6
Continuous
 62
     7
370
    25
100
AcDbLine
 10
266.7873471999
 20
169.0068809495
 30
0.0
 11
266.7873471999
 21
170.1975059495
 31
0.0
  0
LINE
  5
9E
330
1F
100
AcDbEntity
  8
0
  6
Continuous
 62
     7
370
    25
100
AcDbLine
 10
266.7873471999
 20
170.1975059495
 30
0.0
 11
266.7873471999
 21
180.8337559495
 31
0.0
  0
LINE
  5
9F
330
1F
100
AcDbEntity
  8
0
  6
Continuous
 62
   144
370
    18
100
AcDbLine
 10
264.2600471999
 20
180.8337559495
 30
0.0
 11
264.2600471999
 21
170.1975059495
 31
0.0
  0
SPLINE
  5
A0
330
1F
100
AcDbEntity
  8
0
  6
Continuous
 62
     7
370
    25
100
AcDbSpline
210
0.0
220
0.0
230
1.0
 70
    11
 71
     3
 72
    23
 73
    19
 74
     0
 42
0.000000001
 43
0.00000001
 40
0.0
 40
0.0
 40
0.0
 40
0.0
 40
0.0600271168814641
 40
0.124999999999999
 40
0.1899728831185375
 40
0.2499999999999988
 40
0.3100271168814637
 40
0.3750000000000001
 40
0.4399728831185363
 40
0.4999999999999996
 40
0.5600271168814634
 40
0.6249999999999996
 40
0.6899728831185372
 40
0.7499999999999998
 40
0.8100271168814649
 40
0.8749999999999994
 40
0.9399728831185363
 40
1.0
 40
1.0
 40
1.0
 40
1.0
 10
259.0911471999391
 20
136.9584309495052
 30
0.0
 10
258.9810710536744
 20
136.9584309495052
 30
0.0
 10
258.7518493452546
 20
137.002085996221
 30
0.0
 10
258.4540103714269
 20
137.197594120993
 30
0.0
 10
258.258502246655
 20
137.4954330948207
 30
0.0
 10
258.1938833072057
 20
137.8347309495052
 30
0.0
 10
258.2585022466549
 20
138.1740288041897
 30
0.0
 10
258.4540103714269
 20
138.4718677780174
 30
0.0
 10
258.7518493452546
 20
138.6673759027894
 30
0.0
 10
259.0911471999391
 20
138.7319948422386
 30
0.0
 10
259.4304450546236
 20
138.6673759027894
 30
0.0
 10
259.7282840284514
 20
138.4718677780174
 30
0.0
 10
259.9237921532232
 20
138.1740288041897
 30
0.0
 10
259.9884110926725
 20
137.8347309495052
 30
0.0
 10
259.9237921532233
 20
137.4954330948207
 30
0.0
 10
259.7282840284514
 20
137.197594120993
 30
0.0
 10
259.4304450546236
 20
137.002085996221
 30
0.0
 10
259.2012233462038
 20
136.9584309495052
 30
0.0
 10
259.0911471999392
 20
136.9584309495052
 30
0.0
  0
SPLINE
  5
A1
330
1F
100
AcDbEntity
  8
0
  6
Continuous
 62
     7
370
    25
100
AcDbSpline
210
0.0
220
0.0
230
1.0
 70
    11
 71
     3
 72
    23
 73
    19
 74
     0
 42
0.000000001
 43
0.00000001
 40
0.0
 40
0.0
 40
0.0
 40
0.0
 40
0.0600271168814641
 40
0.1249999999999995
 40
0.1899728831185376
 40
0.2499999999999988
 40
0.3100271168814638
 40
0.3749999999999997
 40
0.4399728831185358
 40
0.4999999999999997
 40
0.5600271168814636
 40
0.6249999999999997
 40
0.6899728831185373
 40
0.7499999999999999
 40
0.810027116881465
 40
0.8749999999999994
 40
0.9399728831185363
 40
1.0
 40
1.0
 40
1.0
 40
1.0
 10
245.0830471999392
 20
136.9584309495052
 30
0.0
 10
244.9729710536745
 20
136.9584309495052
 30
0.0
 10
244.7437493452546
 20
137.002085996221
 30
0.0
 10
244.4459103714269
 20
137.197594120993
 30
0.0
 10
244.250402246655
 20
137.4954330948207
 30
0.0
 10
244.1857833072057
 20
137.8347309495052
 30
0.0
 10
244.2504022466549
 20
138.1740288041897
 30
0.0
 10
244.4459103714269
 20
138.4718677780174
 30
0.0
 10
244.7437493452546
 20
138.6673759027894
 30
0.0
 10
245.0830471999391
 20
138.7319948422386
 30
0.0
 10
245.4223450546236
 20
138.6673759027893
 30
0.0
 10
245.7201840284513
 20
138.4718677780174
 30
0.0
 10
245.9156921532233
 20
138.1740288041897
 30
0.0
 10
245.9803110926725
 20
137.8347309495052
 30
0.0
 10
245.9156921532233
 20
137.4954330948207
 30
0.0
 10
245.7201840284513
 20
137.1975941209929
 30
0.0
 10
245.4223450546236
 20
137.002085996221
 30
0.0
 10
245.1931233462038
 20
136.9584309495052
 30
0.0
 10
245.0830471999392
 20
136.9584309495052
 30
0.0
  0
LINE
  5
A2
330
1F
100
AcDbEntity
  8
0
  6
Continuous
 62
     7
370
    25
100
AcDbLine
 10
262.5963471999
 20
136.3361309495
 30
0.0
 11
262.5963471999
 21
185.5486309495
 31
0.0
  0
LINE
  5
A3
330
1F
100
AcDbEntity
  8
0
  6
Continuous
 62
   144
370
    18
100
AcDbLine
 10
262.5963471999
 20
136.3361309495
 30
0.0
 11
241.5651471999
 21
136.3361309495
 31
0.0
  0
LINE
  5
A4
330
1F
100
AcDbEntity
  8
0
  6
Continuous
 62
     7
370
    25
100
AcDbLine
 10
241.5651471999
 20
136.3361309495
 30
0.0
 11
241.5651471999
 21
185.5486309495
 31
0.0
  0
LINE
  5
A5
330
1F
100
AcDbEntity
  8
0
  6
Continuous
 62
     7
370
    25
100
AcDbLine
 10
262.5963471999
 20
185.5486309495
 30
0.0
 11
241.5651471999
 21
185.5486309495
 31
0.0
  0
LINE
  5
A6
330
1F
100
AcDbEntity
  8
0
  6
Continuous
 62
     7
370
    25
100
AcDbLine
 10
241.5651471999
 20
185.5486309495
 30
0.0
 11
239.9776980008
 21
185.5486309495
 31
0.0
  0
LINE
  5
A7
330
1F
100
AcDbEntity
  8
0
  6
Continuous
 62
     7
370
    25
100
AcDbLine
 10
239.9776471999
 20
185.5613309495
 30
0.0
 11
239.9776471999
 21
185.5486309495
 31
0.0
  0
ARC
  5
A8
330
1F
100
AcDbEntity
  8
0
  6
Continuous
 62
     7
370
    25
100
AcDbCircle
 10
241.5651471999
 20
185.5486309495
 30
0.0
 40
1.587500000000031
100
AcDbArc
 50
90.0
 51
179.5416288745
  0
LINE
  5
A9
330
1F
100
AcDbEntity
  8
0
  6
Continuous
 62
     7
370
    25
100
AcDbLine
 10
241.5651471999
 20
185.5486309495
 30
0.0
 11
241.5651471999
 21
187.1361309495
 31
0.0
  0
ARC
  5
AA
330
1F
100
AcDbEntity
  8
0
  6
Continuous
 62
     7
370
    25
100
AcDbCircle
 10
262.5963471999
 20
185.5486309495
 30
0.0
 40
1.587500000000006
100
AcDbArc
 50
0.4583711255
 51
90.0
  0
SPLINE
  5
AB
330
1F
100
AcDbEntity
  8
0
  6
Continuous
 62
     7
370
    25
100
AcDbSpline
210
0.0
220
0.0
230
1.0
 70
     8
 71
     3
 72
     8
 73
     4
 74
     0
 42
0.000000001
 43
0.00000001
 40
0.0
 40
0.0
 40
0.0
 40
0.0
 40
1.0
 40
1.0
 40
1.0
 40
1.0
 10
264.1837963991263
 20
185.5613309495052
 30
0.0
 10
264.1838317566825
 20
185.5569113964133
 30
0.0
 10
264.1838471999391
 20
185.5530506440295
 30
0.0
 10
264.1838471999391
 20
185.5486309495052
 30
0.0
  0
LINE
  5
AC
330
1F
100
AcDbEntity
  8
0
  6
Continuous
 62
     7
370
    25
100
AcDbLine
 10
264.1838471999
 20
185.5486309495
 30
0.0
 11
262.5963471999
 21
185.5486309495
 31
0.0
  0
LINE
  5
AD
330
1F
100
AcDbEntity
  8
0
  6
Continuous
 62
     7
370
    25
100
AcDbLine
 10
262.5963471999
 20
185.5486309495
 30
0.0
 11
262.5963471999
 21
187.1361309495
 31
0.0
  0
LINE
  5
AE
330
1F
100
AcDbEntity
  8
0
  6
Continuous
 62
     7
370
    25
100
AcDbLine
 10
264.1838471999
 20
185.5486309495
 30
0.0
 11
264.1838471999
 21
136.3361309495
 31
0.0
  0
LINE
  5
AF
330
1F
100
AcDbEntity
  8
0
  6
Continuous
 62
   144
370
    18
100
AcDbLine
 10
264.1838471999
 20
136.3361309495
 30
0.0
 11
262.5963471999
 21
136.3361309495
 31
0.0
  0
LINE
  5
B0
330
1F
100
AcDbEntity
  8
0
  6
Continuous
 62
     7
370
    25
100
AcDbLine
 10
262.5963471999
 20
187.1361309495
 30
0.0
 11
241.5651471999
 21
187.1361309495
 31
0.0
  0
LINE
  5
B1
330
1F
100
AcDbEntity
  8
0
  6
Continuous
 62
     7
370
    25
100
AcDbLine
 10
239.9776471999
 20
136.3361309495
 30
0.0
 11
239.9776471999
 21
185.5486309495
 31
0.0
  0
LINE
  5
B2
330
1F
100
AcDbEntity
  8
0
  6
Continuous
 62
   144
370
    18
100
AcDbLine
 10
241.5651471999
 20
136.3361309495
 30
0.0
 11
239.9776980008
 21
136.3361309495
 31
0.0
  0
SPLINE
  5
B3
330
1F
100
AcDbEntity
  8
0
  6
Continuous
 62
     7
370
    25
100
AcDbSpline
210
0.0
220
0.0
230
1.0
 70
    24
 71
     3
 72
     8
 73
     4
 74
     0
 42
0.000000001
 43
0.00000001
 40
0.0
 40
0.0
 40
0.0
 40
0.0
 40
1.0
 40
1.0
 40
1.0
 40
1.0
 10
262.6090471999393
 20
187.1360801486923
 30
0.0
 10
262.6090471999393
 20
187.1360801486923
 30
0.0
 10
262.6090471999393
 20
187.1360647059299
 30
0.0
 10
262.6090471999393
 20
187.1360293495052
 30
0.0
  0
LINE
  5
B4
330
1F
100
AcDbEntity
  8
0
  6
Continuous
 62
     7
370
    25
100
AcDbLine
 10
276.9600471999
 20
156.9101309495
 30
0.0
 11
265.5300471999
 21
156.9101309495
 31
0.0
  0
LINE
  5
B5
330
1F
100
AcDbEntity
  8
0
  6
Continuous
 62
   144
370
    18
100
AcDbLine
 10
264.7680471999
 20
138.2411309495
 30
0.0
 11
265.1490471999
 21
138.2411309495
 31
0.0
  0
LINE
  5
B6
330
1F
100
AcDbEntity
  8
0
  6
Continuous
 62
   144
370
    18
100
AcDbLine
 10
268.5780471999
 20
138.2411309495
 30
0.0
 11
273.9755471999
 21
138.2411309495
 31
0.0
  0
LINE
  5
B7
330
1F
100
AcDbEntity
  8
0
  6
Continuous
 62
   144
370
    18
100
AcDbLine
 10
277.4045471999
 20
138.2411309495
 30
0.0
 11
277.7220471999
 21
138.2411309495
 31
0.0
  0
ARC
  5
B8
330
1F
100
AcDbEntity
  8
0
  6
Continuous
 62
   144
370
    18
100
AcDbCircle
 10
258.4645070278
 20
147.6387782352
 30
0.0
 40
6.62285507884134
100
AcDbArc
 50
342.1357347313
 51
17.6203937215
  0
SPLINE
  5
B9
330
1F
100
AcDbEntity
  8
0
  6
Continuous
 62
     7
370
    25
100
AcDbSpline
210
0.0
220
0.0
230
1.0
 70
    24
 71
     3
 72
     8
 73
     4
 74
     0
 42
0.000000001
 43
0.00000001
 40
0.0
 40
0.0
 40
0.0
 40
0.0
 40
1.0
 40
1.0
 40
1.0
 40
1.0
 10
239.5807721999392
 20
155.2337309495052
 30
0.0
 10
239.5807721999392
 20
154.5766071408155
 30
0.0
 10
239.5807721999392
 20
154.0431059495052
 30
0.0
 10
239.5807721999392
 20
154.0431059495052
 30
0.0
  0
LINE
  5
BA
330
1F
100
AcDbEntity
  8
0
  6
Continuous
 62
     7
370
    25
100
AcDbLine
 10
239.5807721999
 20
156.4243559495
 30
0.0
 11
239.5807721999
 21
155.2337309495
 31
0.0
  0
LINE
  5
BB
330
1F
100
AcDbEntity
  8
0
  6
Continuous
 62
     7
370
    25
100
AcDbLine
 10
277.5950471999
 20
138.2270233765
 30
0.0
 11
264.8950471999
 21
138.2270233765
 31
0.0
  0
LINE
  5
BC
330
1F
100
AcDbEntity
  8
0
  6
Continuous
 62
     7
370
    25
100
AcDbLine
 10
277.5950471999
 20
136.3270742813
 30
0.0
 11
277.5950471999
 21
138.2270233765
 31
0.0
  0
LINE
  5
BD
330
1F
100
AcDbEntity
  8
0
  6
Continuous
 62
     7
370
    25
100
AcDbLine
 10
264.8950471999
 20
138.2270233765
 30
0.0
 11
264.8950471999
 21
136.3270742813
 31
0.0
  0
LINE
  5
BE
330
1F
100
AcDbEntity
  8
0
  6
Continuous
 62
     7
370
    25
100
AcDbLine
 10
276.8673810486
 20
140.3239309496
 30
0.0
 11
274.1025471999
 21
140.3239309496
 31
0.0
  0
LINE
  5
BF
330
1F
100
AcDbEntity
  8
0
  6
Continuous
 62
     7
370
    25
100
AcDbLine
 10
277.2775472
 20
140.3239309496
 30
0.0
 11
276.8673810486
 21
140.3239309496
 31
0.0
  0
LINE
  5
C0
330
1F
100
AcDbEntity
  8
0
  6
Continuous
 62
     7
370
    25
100
AcDbLine
 10
277.4045471999
 20
140.1969309495
 30
0.0
 11
273.9755472
 21
140.1969309495
 31
0.0
  0
LINE
  5
C1
330
1F
100
AcDbEntity
  8
0
  6
Continuous
 62
   144
370
    18
100
AcDbLine
 10
276.9615677564
 20
138.2411309495
 30
0.0
 11
273.9755471999
 21
138.2411309495
 31
0.0
  0
LINE
  5
C2
330
1F
100
AcDbEntity
  8
0
  6
Continuous
 62
   144
370
    18
100
AcDbLine
 10
277.4045471999
 20
138.2411309495
 30
0.0
 11
276.9615677564
 21
138.2411309495
 31
0.0
  0
LINE
  5
C3
330
1F
100
AcDbEntity
  8
0
  6
Continuous
 62
     7
370
    25
100
AcDbLine
 10
268.0408810486
 20
140.3098233766
 30
0.0
 11
265.2760471999
 21
140.3098233766
 31
0.0
  0
LINE
  5
C4
330
1F
100
AcDbEntity
  8
0
  6
Continuous
 62
     7
370
    25
100
AcDbLine
 10
268.4510472
 20
140.3098233766
 30
0.0
 11
268.0408810486
 21
140.3098233766
 31
0.0
  0
LINE
  5
C5
330
1F
100
AcDbEntity
  8
0
  6
Continuous
 62
     7
370
    25
100
AcDbLine
 10
268.5780471999
 20
140.1828233765
 30
0.0
 11
265.1490472
 21
140.1828233765
 31
0.0
  0
SPLINE
  5
C6
330
1F
100
AcDbEntity
  8
0
  6
Continuous
 62
   144
370
    18
100
AcDbSpline
210
0.0
220
0.0
230
1.0
 70
     8
 71
     3
 72
     8
 73
     4
 74
     0
 42
0.000000001
 43
0.00000001
 40
0.0
 40
0.0
 40
0.0
 40
0.0
 40
1.0
 40
1.0
 40
1.0
 40
1.0
 10
266.8653570156482
 20
167.8718385703694
 30
0.0
 10
266.9274799415631
 20
167.6566384327049
 30
0.0
 10
266.9683516887504
 20
167.4380130917152
 30
0.0
 10
266.9714971999217
 20
167.2133071454708
 30
0.0
  0
LINE
  5
C7
330
1F
100
AcDbEntity
  8
0
  6
Continuous
 62
     7
370
    25
100
AcDbLine
 10
266.9714971999
 20
167.2133071448
 30
0.0
 11
266.9714971999
 21
167.1555547542
 31
0.0
  0
SPLINE
  5
C8
330
1F
100
AcDbEntity
  8
0
  6
Continuous
 62
     7
370
    25
100
AcDbSpline
210
0.0
220
0.0
230
1.0
 70
     8
 71
     3
 72
     8
 73
     4
 74
     0
 42
0.000000001
 43
0.00000001
 40
0.0
 40
0.0
 40
0.0
 40
0.0
 40
1.0
 40
1.0
 40
1.0
 40
1.0
 10
266.9714971999209
 20
167.1555547535389
 30
0.0
 10
266.9683516884874
 20
166.9308487885623
 30
0.0
 10
266.9274799337953
 20
166.7122234261448
 30
0.0
 10
266.8653569991958
 20
166.4970232717578
 30
0.0
  0
LINE
  5
C9
330
1F
100
AcDbEntity
  8
0
  6
Continuous
 62
     7
370
    25
100
AcDbLine
 10
264.5902471999
 20
166.4970232853
 30
0.0
 11
266.8653570094
 21
166.4970232744
 31
0.0
  0
LINE
  5
CA
330
1F
100
AcDbEntity
  8
0
  6
Continuous
 62
     7
370
    25
100
AcDbLine
 10
266.8653570094
 20
167.8718385921
 30
0.0
 11
264.5902471999
 21
167.8718386138
 31
0.0
  0
SPLINE
  5
CB
330
1F
100
AcDbEntity
  8
0
  6
Continuous
 62
     7
370
    25
100
AcDbSpline
210
0.0
220
0.0
230
1.0
 70
     8
 71
     3
 72
     8
 73
     4
 74
     0
 42
0.000000001
 43
0.00000001
 40
0.0
 40
0.0
 40
0.0
 40
0.0
 40
1.0
 40
1.0
 40
1.0
 40
1.0
 10
266.8653570156495
 20
166.4970232635119
 30
0.0
 10
266.9274799415639
 20
166.3894231946801
 30
0.0
 10
266.9683516887505
 20
166.2801105242286
 30
0.0
 10
266.9714971999217
 20
166.167757551107
 30
0.0
  0
LINE
  5
CC
330
1F
100
AcDbEntity
  8
0
  6
Continuous
 62
     7
370
    25
100
AcDbLine
 10
266.9714971999
 20
166.1677575508
 30
0.0
 11
266.9714971999
 21
166.1388813555
 31
0.0
  0
SPLINE
  5
CD
330
1F
100
AcDbEntity
  8
0
  6
Continuous
 62
     7
370
    25
100
AcDbSpline
210
0.0
220
0.0
230
1.0
 70
     8
 71
     3
 72
     8
 73
     4
 74
     0
 42
0.000000001
 43
0.00000001
 40
0.0
 40
0.0
 40
0.0
 40
0.0
 40
1.0
 40
1.0
 40
1.0
 40
1.0
 10
266.9714971999209
 20
166.1388813551423
 30
0.0
 10
266.9683516884871
 20
166.0265283726553
 30
0.0
 10
266.9274799337878
 20
165.9172156914389
 30
0.0
 10
266.8653569991822
 20
165.8096156142477
 30
0.0
  0
LINE
  5
CE
330
1F
100
AcDbEntity
  8
0
  6
Continuous
 62
     7
370
    25
100
AcDbLine
 10
264.5902471999
 20
165.809615621
 30
0.0
 11
266.8653570093
 21
165.8096156318
 31
0.0
  0
SPLINE
  5
CF
330
1F
100
AcDbEntity
  8
0
  6
Continuous
 62
     7
370
    25
100
AcDbSpline
210
0.0
220
0.0
230
1.0
 70
     8
 71
     3
 72
     8
 73
     4
 74
     0
 42
0.000000001
 43
0.00000001
 40
0.0
 40
0.0
 40
0.0
 40
0.0
 40
1.0
 40
1.0
 40
1.0
 40
1.0
 10
266.9714971999221
 20
168.2299805438693
 30
0.0
 10
266.9683516885353
 20
168.3423335246792
 30
0.0
 10
266.9274799359336
 20
168.4516462022652
 30
0.0
 10
266.8653570030892
 20
168.5592462779947
 30
0.0
  0
LINE
  5
D0
330
1F
100
AcDbEntity
  8
0
  6
Continuous
 62
     7
370
    25
100
AcDbLine
 10
266.9714971999
 20
168.2299805436
 30
0.0
 11
266.9714971999
 21
168.2011043482
 31
0.0
  0
LINE
  5
D1
330
1F
100
AcDbEntity
  8
0
  6
Continuous
 62
     7
370
    25
100
AcDbLine
 10
264.5902471999
 20
168.559246278
 30
0.0
 11
266.8653570031
 21
168.559246278
 31
0.0
  0
SPLINE
  5
D2
330
1F
100
AcDbEntity
  8
0
  6
Continuous
 62
   144
370
    18
100
AcDbSpline
210
0.0
220
0.0
230
1.0
 70
     8
 71
     3
 72
     8
 73
     4
 74
     0
 42
0.000000001
 43
0.00000001
 40
0.0
 40
0.0
 40
0.0
 40
0.0
 40
1.0
 40
1.0
 40
1.0
 40
1.0
 10
266.9714971999209
 20
168.2011043479014
 30
0.0
 10
266.9683516884874
 20
168.0887513654132
 30
0.0
 10
266.9274799337959
 20
167.9794386842068
 30
0.0
 10
266.8653569991965
 20
167.8718386070135
 30
0.0
  0
LINE
  5
D3
330
1F
100
AcDbEntity
  8
0
  6
Continuous
 62
     7
370
    25
100
AcDbLine
 10
266.9714971999
 20
168.2299805436
 30
0.0
 11
266.9714971999
 21
168.3754060648
 31
0.0
  0
LINE
  5
D4
330
1F
100
AcDbEntity
  8
0
  6
Continuous
 62
     7
370
    25
100
AcDbLine
 10
266.9714971999
 20
166.1388813555
 30
0.0
 11
266.9714971999
 21
165.9934558342
 31
0.0
  0
LINE
  5
D5
330
1F
100
AcDbEntity
  8
0
  6
Continuous
 62
     7
370
    25
100
AcDbLine
 10
266.9714971999
 20
167.1555547542
 30
0.0
 11
266.9714971999
 21
166.1677575508
 31
0.0
  0
LINE
  5
D6
330
1F
100
AcDbEntity
  8
0
  6
Continuous
 62
   144
370
    18
100
AcDbLine
 10
266.9714971999
 20
168.2011043482
 30
0.0
 11
266.9714971999
 21
167.2133071448
 31
0.0
  0
LINE
  5
D7
330
1F
100
AcDbEntity
  8
0
  6
Continuous
 62
     7
370
    25
100
AcDbLine
 10
264.5902471999
 20
183.8468309495
 30
0.0
 11
264.5902471999
 21
182.0243809495
 31
0.0
  0
LINE
  5
D8
330
1F
100
AcDbEntity
  8
0
  6
Continuous
 62
     7
370
    25
100
AcDbLine
 10
264.5902471999
 20
185.8280309495
 30
0.0
 11
264.5902471999
 21
183.8468309495
 31
0.0
  0
LINE
  5
D9
330
1F
100
AcDbEntity
  8
0
  6
Continuous
 62
   144
370
    18
100
AcDbLine
 10
264.1838471999
 20
185.8280309495
 30
0.0
 11
264.1838471999
 21
185.677278463
 31
0.0
  0
LINE
  5
DA
330
1F
100
AcDbEntity
  8
0
  6
Continuous
 62
     7
370
    25
100
AcDbLine
 10
204.2450471999
 20
99.0270742813
 30
0.0
 11
204.2450471999
 21
136.3270742813
 31
0.0
  0
LINE
  5
DB
330
1F
100
AcDbEntity
  8
0
  6
Continuous
 62
     7
370
    25
100
AcDbLine
 10
264.2450471999
 20
99.0270742813
 30
0.0
 11
264.2450471999
 21
136.3270742813
 31
0.0
  0
LINE
  5
DC
330
1F
100
AcDbEntity
  8
0
  6
Continuous
 62
     7
370
    25
100
AcDbLine
 10
204.2450471999
 20
99.0270742813
 30
0.0
 11
264.2450471999
 21
99.0270742813
 31
0.0
  0
LINE
  5
DD
330
1F
100
AcDbEntity
  8
0
  6
Continuous
 62
     7
370
    25
100
AcDbLine
 10
264.2450471999
 20
136.3270742813
 30
0.0
 11
204.2450471999
 21
136.3270742813
 31
0.0
  0
SPLINE
  5
DE
330
1F
100
AcDbEntity
  8
0
  6
Continuous
 62
     7
370
    25
100
AcDbSpline
210
0.0
220
0.0
230
1.0
 70
    24
 71
     3
 72
     8
 73
     4
 74
     0
 42
0.000000001
 43
0.00000001
 40
0.0
 40
0.0
 40
0.0
 40
0.0
 40
1.0
 40
1.0
 40
1.0
 40
1.0
 10
239.5807721999392
 20
163.3363309495052
 30
0.0
 10
239.5807721999392
 20
162.6792071408155
 30
0.0
 10
239.5807721999392
 20
162.1457059495052
 30
0.0
 10
239.5807721999392
 20
162.1457059495052
 30
0.0
  0
LINE
  5
DF
330
1F
100
AcDbEntity
  8
0
  6
Continuous
 62
     7
370
    25
100
AcDbLine
 10
239.5807721999
 20
164.5269559495
 30
0.0
 11
239.5807721999
 21
163.3363309495
 31
0.0
  0
LINE
  5
E0
330
1F
100
AcDbEntity
  8
0
  6
Continuous
 62
     7
370
    25
100
AcDbLine
 10
264.5902471999
 20
167.1844309495
 30
0.0
 11
264.5902471999
 21
165.2032309495
 31
0.0
  0
LINE
  5
E1
330
1F
100
AcDbEntity
  8
0
  6
Continuous
 62
     7
370
    25
100
AcDbLine
 10
264.5902471999
 20
169.0068809495
 30
0.0
 11
264.5902471999
 21
167.1844309495
 31
0.0
  0
LINE
  5
E2
330
1F
100
AcDbEntity
  8
0
  6
Continuous
 62
     7
370
    25
100
AcDbLine
 10
274.0358721999
 20
160.2984909495
 30
0.0
 11
268.4542221999
 21
160.2984909495
 31
0.0
  0
SPLINE
  5
E3
330
1F
100
AcDbEntity
  8
0
  6
Continuous
 62
     7
370
    25
100
AcDbSpline
210
0.0
220
0.0
230
1.0
 70
     8
 71
     3
 72
    13
 73
     9
 74
     0
 42
0.000000001
 43
0.00000001
 40
0.0
 40
0.0
 40
0.0
 40
0.0
 40
0.25
 40
0.25
 40
0.5
 40
0.75
 40
0.75
 40
1.0
 40
1.0
 40
1.0
 40
1.0
 10
268.7245524779947
 20
159.831130958056
 30
0.0
 10
269.1446349316522
 20
159.9075797118537
 30
0.0
 10
269.5647173853096
 20
159.9696554997504
 30
0.0
 10
270.4048822926245
 20
160.0544677769422
 30
0.0
 10
271.2450471999393
 20
160.099419302325
 30
0.0
 10
272.0852121072542
 20
160.0544677769422
 30
0.0
 10
272.9253770145691
 20
159.9696554997504
 30
0.0
 10
273.3454594682265
 20
159.9075797118537
 30
0.0
 10
273.7655419218839
 20
159.831130958056
 30
0.0
  0
LINE
  5
E4
330
1F
100
AcDbEntity
  8
0
  6
Continuous
 62
     7
370
    25
100
AcDbLine
 10
273.7655419806
 20
157.1641309452
 30
0.0
 11
273.7655419454
 21
159.8311309538
 31
0.0
  0
LINE
  5
E5
330
1F
100
AcDbEntity
  8
0
  6
Continuous
 62
     7
370
    25
100
AcDbLine
 10
268.7245524363
 20
159.8311309476
 30
0.0
 11
268.7245524374
 21
157.1641309483
 31
0.0
  0
SPLINE
  5
E6
330
1F
100
AcDbEntity
  8
0
  6
Continuous
 62
   144
370
    18
100
AcDbSpline
210
0.0
220
0.0
230
1.0
 70
     8
 71
     3
 72
    13
 73
     9
 74
     0
 42
0.000000001
 43
0.00000001
 40
0.0
 40
0.0
 40
0.0
 40
0.0
 40
0.25
 40
0.25
 40
0.5
 40
0.75
 40
0.75
 40
1.0
 40
1.0
 40
1.0
 40
1.0
 10
273.7655419901046
 20
157.1641309533695
 30
0.0
 10
273.3454595288043
 20
157.0876821966291
 30
0.0
 10
272.9253770579987
 20
157.0256064047543
 30
0.0
 10
272.0852121353144
 20
156.9407941237905
 30
0.0
 10
271.245047212581
 20
156.8958425958419
 30
0.0
 10
270.4048822897369
 20
156.9407941220281
 30
0.0
 10
269.5647173668438
 20
157.0256064014557
 30
0.0
 10
269.1446349053729
 20
157.0876821911632
 30
0.0
 10
268.7245524438844
 20
157.1641309471619
 30
0.0
  0
SPLINE
  5
E7
330
1F
100
AcDbEntity
  8
0
  6
Continuous
 62
     7
370
    25
100
AcDbSpline
210
0.0
220
0.0
230
1.0
 70
     8
 71
     3
 72
    13
 73
     9
 74
     0
 42
0.000000001
 43
0.00000001
 40
0.0
 40
0.0
 40
0.0
 40
0.0
 40
0.2500000000000001
 40
0.2500000000000001
 40
0.5000000000000001
 40
0.75
 40
0.75
 40
1.0
 40
1.0
 40
1.0
 40
1.0
 10
266.2040576514603
 20
159.8311309456409
 30
0.0
 10
266.4140988831363
 20
159.9075797027547
 30
0.0
 10
266.6241401195563
 20
159.9696554948579
 30
0.0
 10
267.0442225829084
 20
160.0544677758488
 30
0.0
 10
267.4643050462605
 20
160.0994193033791
 30
0.0
 10
267.8843875096126
 20
160.0544677759277
 30
0.0
 10
268.3044699729648
 20
159.969655495007
 30
0.0
 10
268.5145112099494
 20
159.9075797027547
 30
0.0
 10
268.7245524416255
 20
159.8311309456409
 30
0.0
  0
LINE
  5
E8
330
1F
100
AcDbEntity
  8
0
  6
Continuous
 62
     7
370
    25
100
AcDbLine
 10
266.2040576738
 20
157.1641309452
 30
0.0
 11
266.2040576738
 21
159.8311309538
 31
0.0
  0
SPLINE
  5
E9
330
1F
100
AcDbEntity
  8
0
  6
Continuous
 62
   144
370
    18
100
AcDbSpline
210
0.0
220
0.0
230
1.0
 70
     8
 71
     3
 72
    13
 73
     9
 74
     0
 42
0.000000001
 43
0.00000001
 40
0.0
 40
0.0
 40
0.0
 40
0.0
 40
0.25
 40
0.25
 40
0.5
 40
0.75
 40
0.75
 40
1.0
 40
1.0
 40
1.0
 40
1.0
 10
268.7245524245703
 20
157.1641309471619
 30
0.0
 10
268.5145111963674
 20
157.0876821920882
 30
0.0
 10
268.3044699681557
 20
157.0256064029482
 30
0.0
 10
267.8843875117079
 20
156.9407941235899
 30
0.0
 10
267.4643050552357
 20
156.8958425963733
 30
0.0
 10
267.044222598708
 20
156.9407941211644
 30
0.0
 10
266.6241401421559
 20
157.0256063983971
 30
0.0
 10
266.4140989138676
 20
157.0876821866223
 30
0.0
 10
266.2040576855706
 20
157.1641309409544
 30
0.0
  0
LINE
  5
EA
330
1F
100
AcDbEntity
  8
0
  6
Continuous
 62
     7
370
    25
100
AcDbLine
 10
266.9019169263
 20
160.0851309505
 30
0.0
 11
275.5881774736
 21
160.0851309505
 31
0.0
  0
SPLINE
  5
EB
330
1F
100
AcDbEntity
  8
0
  6
Continuous
 62
     7
370
    25
100
AcDbSpline
210
0.0
220
0.0
230
1.0
 70
     8
 71
     3
 72
    13
 73
     9
 74
     0
 42
0.000000001
 43
0.00000001
 40
0.0
 40
0.0
 40
0.0
 40
0.0
 40
0.25
 40
0.25
 40
0.5
 40
0.75
 40
0.75
 40
1.0
 40
1.0
 40
1.0
 40
1.0
 10
273.7655419582532
 20
159.8311309456409
 30
0.0
 10
273.9755831874349
 20
159.9075797018468
 30
0.0
 10
274.1856244213782
 20
159.9696554933931
 30
0.0
 10
274.6057068798257
 20
160.0544677743161
 30
0.0
 10
275.0257893383221
 20
160.0994193028625
 30
0.0
 10
275.4458717969293
 20
160.0544677785041
 30
0.0
 10
275.8659542555856
 20
159.9696555012429
 30
0.0
 10
276.075995484938
 20
159.9075797127786
 30
0.0
 10
276.2860367143081
 20
159.831130958056
 30
0.0
  0
LINE
  5
EC
330
1F
100
AcDbEntity
  8
0
  6
Continuous
 62
     7
370
    25
100
AcDbLine
 10
276.2860367261
 20
157.1641309452
 30
0.0
 11
276.2860367261
 21
159.8311309538
 31
0.0
  0
SPLINE
  5
ED
330
1F
100
AcDbEntity
  8
0
  6
Continuous
 62
   144
370
    18
100
AcDbSpline
210
0.0
220
0.0
230
1.0
 70
     8
 71
     3
 72
    13
 73
     9
 74
     0
 42
0.000000001
 43
0.00000001
 40
0.0
 40
0.0
 40
0.0
 40
0.0
 40
0.25
 40
0.25
 40
0.5
 40
0.75
 40
0.75
 40
1.0
 40
1.0
 40
1.0
 40
1.0
 10
276.2860367484184
 20
157.1641309533695
 30
0.0
 10
276.0759955192366
 20
157.0876821971635
 30
0.0
 10
275.8659542852932
 20
157.0256064056172
 30
0.0
 10
275.4458718268459
 20
156.9407941246942
 30
0.0
 10
275.0257893683494
 20
156.8958425961479
 30
0.0
 10
274.6057069097422
 20
156.9407941205062
 30
0.0
 10
274.1856244510859
 20
157.0256063977675
 30
0.0
 10
273.9755832217335
 20
157.0876821862317
 30
0.0
 10
273.7655419923635
 20
157.1641309409544
 30
0.0
  0
LINE
  5
EE
330
1F
100
AcDbEntity
  8
0
  6
Continuous
 62
     7
370
    25
100
AcDbLine
 10
286.1450471999
 20
136.3270742813
 30
0.0
 11
286.1450471999
 21
99.0270742813
 31
0.0
  0
LINE
  5
EF
330
1F
100
AcDbEntity
  8
0
  6
Continuous
 62
     7
370
    25
100
AcDbLine
 10
264.2450471999
 20
99.0270742813
 30
0.0
 11
286.1450471999
 21
99.0270742813
 31
0.0
  0
LINE
  5
F0
330
1F
100
AcDbEntity
  8
0
  6
Continuous
 62
     7
370
    25
100
AcDbLine
 10
286.1450471999
 20
136.3270742813
 30
0.0
 11
264.2450471999
 21
136.3270742813
 31
0.0
  0
LINE
  5
F1
330
1F
100
AcDbEntity
  8
0
  6
Continuous
 62
     7
370
    25
100
AcDbLine
 10
286.1450471999
 20
136.3770742813
 30
0.0
 11
286.1450471999
 21
98.9770742813
 31
0.0
  0
LINE
  5
F2
330
1F
100
AcDbEntity
  8
0
  6
Continuous
 62
     7
370
    25
100
AcDbLine
 10
294.8950471999
 20
136.3770742813
 30
0.0
 11
294.8950471999
 21
98.9770742813
 31
0.0
  0
LINE
  5
F3
330
1F
100
AcDbEntity
  8
0
  6
Continuous
 62
     7
370
    25
100
AcDbLine
 10
286.1450471999
 20
98.9770742813
 30
0.0
 11
294.8950471999
 21
98.9770742813
 31
0.0
  0
LINE
  5
F4
330
1F
100
AcDbEntity
  8
0
  6
Continuous
 62
     7
370
    25
100
AcDbLine
 10
294.8950471999
 20
136.3770742813
 30
0.0
 11
286.1450471999
 21
136.3770742813
 31
0.0
  0
LINE
  5
F5
330
1F
100
AcDbEntity
  8
0
  6
Continuous
 62
     7
370
    25
100
AcDbLine
 10
204.2450471999
 20
98.9770742813
 30
0.0
 11
204.2450471999
 21
136.3770742813
 31
0.0
  0
LINE
  5
F6
330
1F
100
AcDbEntity
  8
0
  6
Continuous
 62
     7
370
    25
100
AcDbLine
 10
195.4950471999
 20
98.9770742813
 30
0.0
 11
204.2450471999
 21
98.9770742813
 31
0.0
  0
LINE
  5
F7
330
1F
100
AcDbEntity
  8
0
  6
Continuous
 62
     7
370
    25
100
AcDbLine
 10
195.4950471999
 20
98.9770742813
 30
0.0
 11
195.4950471999
 21
136.3770742813
 31
0.0
  0
LINE
  5
F8
330
1F
100
AcDbEntity
  8
0
  6
Continuous
 62
     7
370
    25
100
AcDbLine
 10
204.2450471999
 20
136.3770742813
 30
0.0
 11
195.4950471999
 21
136.3770742813
 31
0.0
  0
SPLINE
  5
F9
330
1F
100
AcDbEntity
  8
0
  6
Continuous
 62
     7
370
    25
100
AcDbSpline
210
0.0
220
0.0
230
1.0
 70
     8
 71
     3
 72
     8
 73
     4
 74
     0
 42
0.000000001
 43
0.00000001
 40
0.0
 40
0.0
 40
0.0
 40
0.0
 40
1.0
 40
1.0
 40
1.0
 40
1.0
 10
266.8653570156482
 20
184.5342385703694
 30
0.0
 10
266.9274799415631
 20
184.3190384327048
 30
0.0
 10
266.9683516887505
 20
184.1004130917153
 30
0.0
 10
266.9714971999217
 20
183.8757071454709
 30
0.0
  0
LINE
  5
FA
330
1F
100
AcDbEntity
  8
0
  6
Continuous
 62
     7
370
    25
100
AcDbLine
 10
266.9714971999
 20
183.8757071448
 30
0.0
 11
266.9714971999
 21
183.8179547542
 31
0.0
  0
SPLINE
  5
FB
330
1F
100
AcDbEntity
  8
0
  6
Continuous
 62
     7
370
    25
100
AcDbSpline
210
0.0
220
0.0
230
1.0
 70
     8
 71
     3
 72
     8
 73
     4
 74
     0
 42
0.000000001
 43
0.00000001
 40
0.0
 40
0.0
 40
0.0
 40
0.0
 40
1.0
 40
1.0
 40
1.0
 40
1.0
 10
266.9714971999209
 20
183.8179547535389
 30
0.0
 10
266.9683516884874
 20
183.5932487885623
 30
0.0
 10
266.9274799337954
 20
183.3746234261448
 30
0.0
 10
266.8653569991958
 20
183.1594232717578
 30
0.0
  0
LINE
  5
FC
330
1F
100
AcDbEntity
  8
0
  6
Continuous
 62
     7
370
    25
100
AcDbLine
 10
264.5902471999
 20
183.1594232853
 30
0.0
 11
266.8653570094
 21
183.1594232744
 31
0.0
  0
LINE
  5
FD
330
1F
100
AcDbEntity
  8
0
  6
Continuous
 62
     7
370
    25
100
AcDbLine
 10
266.8653570094
 20
184.5342385921
 30
0.0
 11
264.5902471999
 21
184.5342386138
 31
0.0
  0
SPLINE
  5
FE
330
1F
100
AcDbEntity
  8
0
  6
Continuous
 62
     7
370
    25
100
AcDbSpline
210
0.0
220
0.0
230
1.0
 70
     8
 71
     3
 72
     8
 73
     4
 74
     0
 42
0.000000001
 43
0.00000001
 40
0.0
 40
0.0
 40
0.0
 40
0.0
 40
1.0
 40
1.0
 40
1.0
 40
1.0
 10
266.8653570156495
 20
183.1594232635119
 30
0.0
 10
266.9274799415639
 20
183.0518231946801
 30
0.0
 10
266.9683516887505
 20
182.9425105242286
 30
0.0
 10
266.9714971999217
 20
182.830157551107
 30
0.0
  0
LINE
  5
FF
330
1F
100
AcDbEntity
  8
0
  6
Continuous
 62
     7
370
    25
100
AcDbLine
 10
266.9714971999
 20
182.8301575508
 30
0.0
 11
266.9714971999
 21
182.8012813555
 31
0.0
  0
SPLINE
  5
100
330
1F
100
AcDbEntity
  8
0
  6
Continuous
 62
     7
370
    25
100
AcDbSpline
210
0.0
220
0.0
230
1.0
 70
     8
 71
     3
 72
     8
 73
     4
 74
     0
 42
0.000000001
 43
0.00000001
 40
0.0
 40
0.0
 40
0.0
 40
0.0
 40
1.0
 40
1.0
 40
1.0
 40
1.0
 10
266.9714971999209
 20
182.8012813551423
 30
0.0
 10
266.9683516884871
 20
182.6889283726553
 30
0.0
 10
266.9274799337879
 20
182.5796156914389
 30
0.0
 10
266.8653569991823
 20
182.4720156142477
 30
0.0
  0
LINE
  5
101
330
1F
100
AcDbEntity
  8
0
  6
Continuous
 62
     7
370
    25
100
AcDbLine
 10
264.5902471999
 20
182.472015621
 30
0.0
 11
266.8653570093
 21
182.4720156318
 31
0.0
  0
SPLINE
  5
102
330
1F
100
AcDbEntity
  8
0
  6
Continuous
 62
     7
370
    25
100
AcDbSpline
210
0.0
220
0.0
230
1.0
 70
     8
 71
     3
 72
     8
 73
     4
 74
     0
 42
0.000000001
 43
0.00000001
 40
0.0
 40
0.0
 40
0.0
 40
0.0
 40
1.0
 40
1.0
 40
1.0
 40
1.0
 10
266.9714971999221
 20
184.8923805438693
 30
0.0
 10
266.9683516885353
 20
185.0047335246793
 30
0.0
 10
266.9274799359336
 20
185.1140462022652
 30
0.0
 10
266.8653570030892
 20
185.2216462779947
 30
0.0
  0
LINE
  5
103
330
1F
100
AcDbEntity
  8
0
  6
Continuous
 62
     7
370
    25
100
AcDbLine
 10
266.9714971999
 20
184.8923805436
 30
0.0
 11
266.9714971999
 21
184.8635043482
 31
0.0
  0
SPLINE
  5
104
330
1F
100
AcDbEntity
  8
0
  6
Continuous
 62
     7
370
    25
100
AcDbSpline
210
0.0
220
0.0
230
1.0
 70
     8
 71
     3
 72
     8
 73
     4
 74
     0
 42
0.000000001
 43
0.00000001
 40
0.0
 40
0.0
 40
0.0
 40
0.0
 40
1.0
 40
1.0
 40
1.0
 40
1.0
 10
266.9714971999209
 20
184.8635043479014
 30
0.0
 10
266.9683516884874
 20
184.7511513654132
 30
0.0
 10
266.9274799337959
 20
184.6418386842069
 30
0.0
 10
266.8653569991965
 20
184.5342386070135
 30
0.0
  0
LINE
  5
105
330
1F
100
AcDbEntity
  8
0
  6
Continuous
 62
     7
370
    25
100
AcDbLine
 10
264.5902471999
 20
185.221646278
 30
0.0
 11
266.8653570031
 21
185.221646278
 31
0.0
  0
LINE
  5
106
330
1F
100
AcDbEntity
  8
0
  6
Continuous
 62
     7
370
    25
100
AcDbLine
 10
266.9714971999
 20
184.8635043482
 30
0.0
 11
266.9714971999
 21
183.8757071448
 31
0.0
  0
LINE
  5
107
330
1F
100
AcDbEntity
  8
0
  6
Continuous
 62
     7
370
    25
100
AcDbLine
 10
266.9714971999
 20
184.8923805436
 30
0.0
 11
266.9714971999
 21
185.0378060648
 31
0.0
  0
LINE
  5
108
330
1F
100
AcDbEntity
  8
0
  6
Continuous
 62
     7
370
    25
100
AcDbLine
 10
266.9714971999
 20
182.8012813555
 30
0.0
 11
266.9714971999
 21
182.6558558342
 31
0.0
  0
LINE
  5
109
330
1F
100
AcDbEntity
  8
0
  6
Continuous
 62
     7
370
    25
100
AcDbLine
 10
266.9714971999
 20
183.8179547542
 30
0.0
 11
266.9714971999
 21
182.8301575508
 31
0.0
  0
LINE
  5
10A
330
1F
100
AcDbEntity
  8
0
  6
Continuous
 62
     8
370
    25
100
AcDbLine
 10
264.2600471999
 20
170.1975059495
 30
0.0
 11
264.2600471999
 21
169.0068809495
 31
0.0
  0
LINE
  5
10B
330
1F
100
AcDbEntity
  8
0
  6
Continuous
 62
     8
370
    25
100
AcDbLine
 10
264.2600471999
 20
182.0243809495
 30
0.0
 11
264.2600471999
 21
180.8337559495
 31
0.0
  0
LINE
  5
10C
330
1F
100
AcDbEntity
  8
0
  6
Continuous
 62
     8
370
    25
100
AcDbLine
 10
277.7220471999
 20
156.1481309495
 30
0.0
 11
264.7680471999
 21
156.1481309495
 31
0.0
  0
LINE
  5
10D
330
1F
100
AcDbEntity
  8
0
  6
Continuous
 62
     7
370
    25
100
AcDbLine
 10
204.2450471999
 20
36.8451581228
 30
0.0
 11
264.2450471999
 21
36.8451581228
 31
0.0
  0
LINE
  5
10E
330
1F
100
AcDbEntity
  8
0
  6
Continuous
 62
     7
370
    25
100
AcDbLine
 10
264.2450471999
 20
78.8451581228
 30
0.0
 11
204.2450471999
 21
78.8451581228
 31
0.0
  0
LINE
  5
10F
330
1F
100
AcDbEntity
  8
0
  6
Continuous
 62
     7
370
    25
100
AcDbLine
 10
264.2450471999
 20
36.8451581228
 30
0.0
 11
286.1450471999
 21
36.8451581228
 31
0.0
  0
LINE
  5
110
330
1F
100
AcDbEntity
  8
0
  6
Continuous
 62
     7
370
    25
100
AcDbLine
 10
286.1450471999
 20
78.8451581228
 30
0.0
 11
264.2450471999
 21
78.8451581228
 31
0.0
  0
LINE
  5
111
330
1F
100
AcDbEntity
  8
0
  6
Continuous
 62
     7
370
    25
100
AcDbLine
 10
286.1450471999
 20
36.8451581228
 30
0.0
 11
294.8950471999
 21
36.8451581228
 31
0.0
  0
LINE
  5
112
330
1F
100
AcDbEntity
  8
0
  6
Continuous
 62
     7
370
    25
100
AcDbLine
 10
294.8950471999
 20
78.8451581228
 30
0.0
 11
286.1450471999
 21
78.8451581228
 31
0.0
  0
LINE
  5
113
330
1F
100
AcDbEntity
  8
0
  6
Continuous
 62
     7
370
    25
100
AcDbLine
 10
195.4950471999
 20
36.8451581228
 30
0.0
 11
204.2450471999
 21
36.8451581228
 31
0.0
  0
LINE
  5
114
330
1F
100
AcDbEntity
  8
0
  6
Continuous
 62
     7
370
    25
100
AcDbLine
 10
204.2450471999
 20
78.8451581228
 30
0.0
 11
195.4950471999
 21
78.8451581228
 31
0.0
  0
LINE
  5
115
330
1F
100
AcDbEntity
  8
0
  6
Continuous
 62
     7
370
    25
100
AcDbLine
 10
204.2450471999
 20
67.4980074431
 30
0.0
 11
204.2450471999
 21
78.8451581228
 31
0.0
  0
LINE
  5
116
330
1F
100
AcDbEntity
  8
0
  6
Continuous
 62
     7
370
    25
100
AcDbLine
 10
204.2450471999
 20
36.8451581228
 30
0.0
 11
204.2450471999
 21
48.1923088025
 31
0.0
  0
LINE
  5
117
330
1F
100
AcDbEntity
  8
0
  6
Continuous
 62
     7
370
    25
100
AcDbLine
 10
264.2450471999
 20
48.1923088025
 30
0.0
 11
204.2450471999
 21
48.1923088025
 31
0.0
  0
LINE
  5
118
330
1F
100
AcDbEntity
  8
0
  6
Continuous
 62
     7
370
    25
100
AcDbLine
 10
264.2450471999
 20
36.8451581228
 30
0.0
 11
264.2450471999
 21
48.1923088025
 31
0.0
  0
LINE
  5
119
330
1F
100
AcDbEntity
  8
0
  6
Continuous
 62
     7
370
    25
100
AcDbLine
 10
204.2450471999
 20
67.4980074431
 30
0.0
 11
264.2450471999
 21
67.4980074431
 31
0.0
  0
LINE
  5
11A
330
1F
100
AcDbEntity
  8
0
  6
Continuous
 62
     7
370
    25
100
AcDbLine
 10
264.2450471999
 20
67.4980074431
 30
0.0
 11
264.2450471999
 21
48.1923088025
 31
0.0
  0
LINE
  5
11B
330
1F
100
AcDbEntity
  8
0
  6
Continuous
 62
     7
370
    25
100
AcDbLine
 10
264.2450471999
 20
67.4980074431
 30
0.0
 11
264.2450471999
 21
78.8451581228
 31
0.0
  0
LINE
  5
11C
330
1F
100
AcDbEntity
  8
0
  6
Continuous
 62
     7
370
    25
100
AcDbLine
 10
286.1450471999
 20
48.1923088025
 30
0.0
 11
264.2450471999
 21
48.1923088025
 31
0.0
  0
LINE
  5
11D
330
1F
100
AcDbEntity
  8
0
  6
Continuous
 62
     7
370
    25
100
AcDbLine
 10
286.1450471999
 20
36.8451581228
 30
0.0
 11
286.1450471999
 21
48.1923088025
 31
0.0
  0
LINE
  5
11E
330
1F
100
AcDbEntity
  8
0
  6
Continuous
 62
     7
370
    25
100
AcDbLine
 10
264.2450471999
 20
67.4980074431
 30
0.0
 11
286.1450471999
 21
67.4980074431
 31
0.0
  0
LINE
  5
11F
330
1F
100
AcDbEntity
  8
0
  6
Continuous
 62
     7
370
    25
100
AcDbLine
 10
286.1450471999
 20
78.8451581228
 30
0.0
 11
286.1450471999
 21
67.4980074431
 31
0.0
  0
LINE
  5
120
330
1F
100
AcDbEntity
  8
0
  6
Continuous
 62
     7
370
    25
100
AcDbLine
 10
286.1450471999
 20
48.2895315081
 30
0.0
 11
286.1450471999
 21
36.8451581228
 31
0.0
  0
LINE
  5
121
330
1F
100
AcDbEntity
  8
0
  6
Continuous
 62
     7
370
    25
100
AcDbLine
 10
294.8950471999
 20
48.2895315081
 30
0.0
 11
286.1450471999
 21
48.2895315081
 31
0.0
  0
LINE
  5
122
330
1F
100
AcDbEntity
  8
0
  6
Continuous
 62
     7
370
    25
100
AcDbLine
 10
294.8950471999
 20
48.2895315081
 30
0.0
 11
294.8950471999
 21
36.8451581228
 31
0.0
  0
LINE
  5
123
330
1F
100
AcDbEntity
  8
0
  6
Continuous
 62
     7
370
    25
100
AcDbLine
 10
286.1450471999
 20
78.8451581228
 30
0.0
 11
286.1450471999
 21
67.4007847375
 31
0.0
  0
LINE
  5
124
330
1F
100
AcDbEntity
  8
0
  6
Continuous
 62
     7
370
    25
100
AcDbLine
 10
286.1450471999
 20
48.2895315081
 30
0.0
 11
286.1450471999
 21
67.4007847375
 31
0.0
  0
CIRCLE
  5
125
330
1F
100
AcDbEntity
  8
0
  6
Continuous
 62
     7
370
    25
100
AcDbCircle
 10
289.9039471999
 20
65.3521581228
 30
0.0
 40
1.524000000013707
  0
CIRCLE
  5
126
330
1F
100
AcDbEntity
  8
0
  6
Continuous
 62
     7
370
    25
100
AcDbCircle
 10
289.9039471999
 20
50.3521581228
 30
0.0
 40
1.524000000028472
  0
LINE
  5
127
330
1F
100
AcDbEntity
  8
0
  6
Continuous
 62
     7
370
    25
100
AcDbLine
 10
286.1450471999
 20
67.4007847375
 30
0.0
 11
294.8950471999
 21
67.4007847375
 31
0.0
  0
LINE
  5
128
330
1F
100
AcDbEntity
  8
0
  6
Continuous
 62
     7
370
    25
100
AcDbLine
 10
294.8950471999
 20
67.4007847375
 30
0.0
 11
294.8950471999
 21
48.2895315081
 31
0.0
  0
LINE
  5
129
330
1F
100
AcDbEntity
  8
0
  6
Continuous
 62
     7
370
    25
100
AcDbLine
 10
294.8950471999
 20
78.8451581228
 30
0.0
 11
294.8950471999
 21
67.4007847375
 31
0.0
  0
CIRCLE
  5
12A
330
1F
100
AcDbEntity
  8
0
  6
Continuous
 62
     7
370
    25
100
AcDbCircle
 10
289.9039471999
 20
50.3521581228
 30
0.0
 40
1.210310000299778
  0
CIRCLE
  5
12B
330
1F
100
AcDbEntity
  8
0
  6
Continuous
 62
     7
370
    25
100
AcDbCircle
 10
289.9039471999
 20
65.3521581228
 30
0.0
 40
1.21031000028502
  0
LINE
  5
12C
330
1F
100
AcDbEntity
  8
0
  6
Continuous
 62
     7
370
    25
100
AcDbLine
 10
204.2450471999
 20
36.8451581228
 30
0.0
 11
204.2450471999
 21
48.2895315081
 31
0.0
  0
LINE
  5
12D
330
1F
100
AcDbEntity
  8
0
  6
Continuous
 62
     7
370
    25
100
AcDbLine
 10
204.2450471999
 20
67.4007847375
 30
0.0
 11
204.2450471999
 21
48.2895315081
 31
0.0
  0
LINE
  5
12E
330
1F
100
AcDbEntity
  8
0
  6
Continuous
 62
     7
370
    25
100
AcDbLine
 10
204.2450471999
 20
67.4007847375
 30
0.0
 11
204.2450471999
 21
78.8451581228
 31
0.0
  0
LINE
  5
12F
330
1F
100
AcDbEntity
  8
0
  6
Continuous
 62
     7
370
    25
100
AcDbLine
 10
195.4950471999
 20
36.8451581228
 30
0.0
 11
195.4950471999
 21
48.2895315081
 31
0.0
  0
LINE
  5
130
330
1F
100
AcDbEntity
  8
0
  6
Continuous
 62
     7
370
    25
100
AcDbLine
 10
204.2450471999
 20
48.2895315081
 30
0.0
 11
195.4950471999
 21
48.2895315081
 31
0.0
  0
LINE
  5
131
330
1F
100
AcDbEntity
  8
0
  6
Continuous
 62
     7
370
    25
100
AcDbLine
 10
195.4950471999
 20
67.4007847375
 30
0.0
 11
195.4950471999
 21
78.8451581228
 31
0.0
  0
LINE
  5
132
330
1F
100
AcDbEntity
  8
0
  6
Continuous
 62
     7
370
    25
100
AcDbLine
 10
195.4950471999
 20
48.2895315081
 30
0.0
 11
195.4950471999
 21
67.4007847375
 31
0.0
  0
CIRCLE
  5
133
330
1F
100
AcDbEntity
  8
0
  6
Continuous
 62
     7
370
    25
100
AcDbCircle
 10
200.4861471999
 20
50.3381581228
 30
0.0
 40
1.5240000000137
  0
CIRCLE
  5
134
330
1F
100
AcDbEntity
  8
0
  6
Continuous
 62
     7
370
    25
100
AcDbCircle
 10
200.4861471999
 20
65.3381581228
 30
0.0
 40
1.524000000028479
  0
LINE
  5
135
330
1F
100
AcDbEntity
  8
0
  6
Continuous
 62
     7
370
    25
100
AcDbLine
 10
195.4950471999
 20
67.4007847375
 30
0.0
 11
204.2450471999
 21
67.4007847375
 31
0.0
  0
CIRCLE
  5
136
330
1F
100
AcDbEntity
  8
0
  6
Continuous
 62
     7
370
    25
100
AcDbCircle
 10
200.4861471999
 20
50.3381581228
 30
0.0
 40
1.210310000285006
  0
CIRCLE
  5
137
330
1F
100
AcDbEntity
  8
0
  6
Continuous
 62
     7
370
    25
100
AcDbCircle
 10
200.4861471999
 20
65.3381581228
 30
0.0
 40
1.210310000299771
  0
LINE
  5
138
330
1F
100
AcDbEntity
  8
0
  6
Continuous
 62
     7
370
    25
100
AcDbLine
 10
418.8194780313
 20
323.2412018433
 30
0.0
 11
418.3360696463
 21
323.5202675639
 31
0.0
  0
LINE
  5
139
330
1F
100
AcDbEntity
  8
0
  6
Continuous
 62
     7
370
    25
100
AcDbLine
 10
418.1875353504
 20
323.2394070974
 30
0.0
 11
418.6607409325
 21
322.9662313295
 31
0.0
  0
LINE
  5
13A
330
1F
100
AcDbEntity
  8
0
  6
Continuous
 62
     7
370
    25
100
AcDbLine
 10
420.9271239999
 20
324.7617254082
 30
0.0
 11
420.0135965469
 21
325.2890935814
 31
0.0
  0
LINE
  5
13B
330
1F
100
AcDbEntity
  8
0
  6
Continuous
 62
     7
370
    25
100
AcDbLine
 10
418.8194780313
 20
322.1108643974
 30
0.0
 11
418.080060657
 21
322.5377209617
 31
0.0
  0
LINE
  5
13C
330
1F
100
AcDbEntity
  8
0
  6
Continuous
 62
     7
370
    25
100
AcDbLine
 10
418.080060657
 20
322.1711134713
 30
0.0
 11
418.6607409325
 21
321.8358938836
 31
0.0
  0
LINE
  5
13D
330
1F
100
AcDbEntity
  8
0
  6
Continuous
 62
     7
370
    25
100
AcDbLine
 10
419.8252667168
 20
323.2566625695
 30
0.0
 11
418.6972963443
 21
323.9078260052
 31
0.0
  0
LINE
  5
13E
330
1F
100
AcDbEntity
  8
0
  6
Continuous
 62
     7
370
    25
100
AcDbLine
 10
418.4554511681
 20
323.6808327632
 30
0.0
 11
419.666529618
 21
322.9816920557
 31
0.0
  0
LINE
  5
13F
330
1F
100
AcDbEntity
  8
0
  6
Continuous
 62
     7
370
    25
100
AcDbLine
 10
418.8194780313
 20
320.9805269515
 30
0.0
 11
418.080060657
 21
321.4073835158
 31
0.0
  0
LINE
  5
140
330
1F
100
AcDbEntity
  8
0
  6
Continuous
 62
     7
370
    25
100
AcDbLine
 10
418.080060657
 20
321.0407760254
 30
0.0
 11
418.6607409325
 21
320.7055564377
 31
0.0
  0
LINE
  5
141
330
1F
100
AcDbEntity
  8
0
  6
Continuous
 62
     7
370
    25
100
AcDbLine
 10
419.8252667168
 20
322.1263251236
 30
0.0
 11
418.1375268418
 21
323.1006366147
 31
0.0
  0
LINE
  5
142
330
1F
100
AcDbEntity
  8
0
  6
Continuous
 62
     7
370
    25
100
AcDbLine
 10
418.080293
 20
322.7670695178
 30
0.0
 11
419.666529618
 21
321.8513546098
 31
0.0
  0
LINE
  5
143
330
1F
100
AcDbEntity
  8
0
  6
Continuous
 62
     7
370
    25
100
AcDbLine
 10
418.8194780313
 20
319.8501895056
 30
0.0
 11
418.080060657
 21
320.2770460699
 31
0.0
  0
LINE
  5
144
330
1F
100
AcDbEntity
  8
0
  6
Continuous
 62
     7
370
    25
100
AcDbLine
 10
418.080060657
 20
319.9104385795
 30
0.0
 11
418.6607409325
 21
319.5752189918
 31
0.0
  0
LINE
  5
145
330
1F
100
AcDbEntity
  8
0
  6
Continuous
 62
     7
370
    25
100
AcDbLine
 10
419.8252667168
 20
320.9959876777
 30
0.0
 11
418.080060657
 21
322.0034736911
 31
0.0
  0
LINE
  5
146
330
1F
100
AcDbEntity
  8
0
  6
Continuous
 62
     7
370
    25
100
AcDbLine
 10
418.080060657
 20
321.6368662007
 30
0.0
 11
419.666529618
 21
320.7210171639
 31
0.0
  0
LINE
  5
147
330
1F
100
AcDbEntity
  8
0
  6
Continuous
 62
     7
370
    25
100
AcDbLine
 10
418.8194780313
 20
318.7198520598
 30
0.0
 11
418.080060657
 21
319.146708624
 31
0.0
  0
LINE
  5
148
330
1F
100
AcDbEntity
  8
0
  6
Continuous
 62
     7
370
    25
100
AcDbLine
 10
418.080060657
 20
318.7801011336
 30
0.0
 11
418.6607409325
 21
318.4448815459
 31
0.0
  0
LINE
  5
149
330
1F
100
AcDbEntity
  8
0
  6
Continuous
 62
     7
370
    25
100
AcDbLine
 10
419.8252667168
 20
319.8656502318
 30
0.0
 11
418.080060657
 21
320.8731362452
 31
0.0
  0
LINE
  5
14A
330
1F
100
AcDbEntity
  8
0
  6
Continuous
 62
     7
370
    25
100
AcDbLine
 10
418.080060657
 20
320.5065287548
 30
0.0
 11
419.666529618
 21
319.590679718
 31
0.0
  0
LINE
  5
14B
330
1F
100
AcDbEntity
  8
0
  6
Continuous
 62
     7
370
    25
100
AcDbLine
 10
418.8194780313
 20
317.5895146139
 30
0.0
 11
418.080060657
 21
318.0163711781
 31
0.0
  0
LINE
  5
14C
330
1F
100
AcDbEntity
  8
0
  6
Continuous
 62
     7
370
    25
100
AcDbLine
 10
418.080060657
 20
317.6497636877
 30
0.0
 11
418.6607409325
 21
317.3145441001
 31
0.0
  0
LINE
  5
14D
330
1F
100
AcDbEntity
  8
0
  6
Continuous
 62
     7
370
    25
100
AcDbLine
 10
419.8252667168
 20
318.7353127859
 30
0.0
 11
418.080060657
 21
319.7427987994
 31
0.0
  0
LINE
  5
14E
330
1F
100
AcDbEntity
  8
0
  6
Continuous
 62
     7
370
    25
100
AcDbLine
 10
418.080060657
 20
319.376191309
 30
0.0
 11
419.666529618
 21
318.4603422721
 31
0.0
  0
LINE
  5
14F
330
1F
100
AcDbEntity
  8
0
  6
Continuous
 62
     7
370
    25
100
AcDbLine
 10
418.8194780313
 20
316.459177168
 30
0.0
 11
418.080060657
 21
316.8860337323
 31
0.0
  0
LINE
  5
150
330
1F
100
AcDbEntity
  8
0
  6
Continuous
 62
     7
370
    25
100
AcDbLine
 10
418.080060657
 20
316.5194262419
 30
0.0
 11
418.6607409325
 21
316.1842066542
 31
0.0
  0
LINE
  5
151
330
1F
100
AcDbEntity
  8
0
  6
Continuous
 62
     7
370
    25
100
AcDbLine
 10
416.4004306098
 20
314.4673156083
 30
0.0
 11
418.1875015779
 21
313.4356614978
 31
0.0
  0
LINE
  5
152
330
1F
100
AcDbEntity
  8
0
  6
Continuous
 62
     7
370
    25
100
AcDbLine
 10
419.8252667168
 20
317.60497534
 30
0.0
 11
418.080060657
 21
318.6124613535
 31
0.0
  0
LINE
  5
153
330
1F
100
AcDbEntity
  8
0
  6
Continuous
 62
     7
370
    25
100
AcDbLine
 10
418.080060657
 20
318.2458538631
 30
0.0
 11
419.666529618
 21
317.3300048262
 31
0.0
  0
LINE
  5
154
330
1F
100
AcDbEntity
  8
0
  6
Continuous
 62
     7
370
    25
100
AcDbLine
 10
418.8194780313
 20
315.3288397221
 30
0.0
 11
418.080060657
 21
315.7556962864
 31
0.0
  0
LINE
  5
155
330
1F
100
AcDbEntity
  8
0
  6
Continuous
 62
     7
370
    25
100
AcDbLine
 10
418.080060657
 20
315.389088796
 30
0.0
 11
418.6607409325
 21
315.0538692083
 31
0.0
  0
LINE
  5
156
330
1F
100
AcDbEntity
  8
0
  6
Continuous
 62
     7
370
    25
100
AcDbLine
 10
419.8252667168
 20
316.4746378941
 30
0.0
 11
418.080060657
 21
317.4821239076
 31
0.0
  0
LINE
  5
157
330
1F
100
AcDbEntity
  8
0
  6
Continuous
 62
     7
370
    25
100
AcDbLine
 10
418.080060657
 20
317.1155164172
 30
0.0
 11
419.666529618
 21
316.1996673803
 31
0.0
  0
SPLINE
  5
158
330
1F
100
AcDbEntity
  8
0
  6
Continuous
 62
     7
370
    25
100
AcDbSpline
210
0.0
220
0.0
230
1.0
 70
     8
 71
     3
 72
    12
 73
     8
 74
     0
 42
0.000000001
 43
0.00000001
 40
0.0
 40
0.0
 40
0.0
 40
0.0
 40
0.1679971055945639
 40
0.3635104961120948
 40
0.5697730135184461
 40
0.7831882911857662
 40
1.0
 40
1.0
 40
1.0
 40
1.0
 10
422.2657866988882
 20
331.5182255950684
 30
0.0
 10
422.2616429774505
 20
331.6112979242645
 30
0.0
 10
422.2526768334791
 20
331.812686921061
 30
0.0
 10
422.1616608779306
 20
332.1180677588488
 30
0.0
 10
422.0013206826359
 20
332.4198640726779
 30
0.0
 10
421.772377315049
 20
332.6934796652373
 30
0.0
 10
421.5735912037491
 20
332.826093931808
 30
0.0
 10
421.4734134886504
 20
332.8929245274047
 30
0.0
  0
LINE
  5
159
330
1F
100
AcDbEntity
  8
0
  6
Continuous
 62
     7
370
    25
100
AcDbLine
 10
422.267344804
 20
306.6305087746
 30
0.0
 11
422.267344804
 21
331.5183478486
 31
0.0
  0
LINE
  5
15A
330
1F
100
AcDbEntity
  8
0
  6
Continuous
 62
     7
370
    25
100
AcDbLine
 10
421.4735302981
 20
332.8932004176
 30
0.0
 11
406.6022261616
 21
341.4782215583
 31
0.0
  0
SPLINE
  5
15B
330
1F
100
AcDbEntity
  8
0
  6
Continuous
 62
     7
370
    25
100
AcDbSpline
210
0.0
220
0.0
230
1.0
 70
     8
 71
     3
 72
    11
 73
     7
 74
     0
 42
0.000000001
 43
0.00000001
 40
0.0
 40
0.0
 40
0.0
 40
0.0
 40
0.1848301793023613
 40
0.4485123478943949
 40
0.7375941473568284
 40
1.0
 40
1.0
 40
1.0
 40
1.0
 10
394.0720297764539
 20
335.1511399241555
 30
0.0
 10
394.026622444543
 20
335.127281297748
 30
0.0
 10
393.916436169099
 20
335.0693855115298
 30
0.0
 10
393.7618061914109
 20
334.9338303386639
 30
0.0
 10
393.6070874239836
 20
334.7685542547916
 30
0.0
 10
393.5255517482926
 20
334.6391143997371
 30
0.0
 10
393.4867558869187
 20
334.5775250325013
 30
0.0
  0
SPLINE
  5
15C
330
1F
100
AcDbEntity
  8
0
  6
Continuous
 62
     7
370
    25
100
AcDbSpline
210
0.0
220
0.0
230
1.0
 70
     8
 71
     3
 72
    11
 73
     7
 74
     0
 42
0.000000001
 43
0.00000001
 40
0.0
 40
0.0
 40
0.0
 40
0.0
 40
0.453961490890214
 40
0.6487985883066746
 40
0.978623604913999
 40
1.0
 40
1.0
 40
1.0
 40
1.0
 10
393.4867558869187
 20
334.5775250325013
 30
0.0
 10
393.4305141214753
 20
334.4643056527607
 30
0.0
 10
393.3501337835924
 20
334.3024933069589
 30
0.0
 10
393.2918405483971
 20
334.0380554247898
 30
0.0
 10
393.2666628336987
 20
333.8866525431943
 30
0.0
 10
393.2751499784234
 20
333.7898536031046
 30
0.0
 10
393.2756665610816
 20
333.7839617919719
 30
0.0
  0
LINE
  5
15D
330
1F
100
AcDbEntity
  8
0
  6
Continuous
 62
     7
370
    25
100
AcDbLine
 10
393.2741084559
 20
333.7838395385
 30
0.0
 11
393.2741084559
 21
293.5998248335
 31
0.0
  0
LINE
  5
15E
330
1F
100
AcDbEntity
  8
0
  6
Continuous
 62
     7
370
    25
100
AcDbLine
 10
405.0148551735
 20
341.4782215583
 30
0.0
 11
394.0679229619
 21
335.1586921075
 31
0.0
  0
SPLINE
  5
15F
330
1F
100
AcDbEntity
  8
0
  6
Continuous
 62
     7
370
    25
100
AcDbSpline
210
0.0
220
0.0
230
1.0
 70
     8
 71
     3
 72
    13
 73
     9
 74
     0
 42
0.000000001
 43
0.00000001
 40
0.0
 40
0.0
 40
0.0
 40
0.0
 40
0.0015813933877901
 40
0.2240905712888422
 40
0.4510742165987828
 40
0.6848416270021562
 40
0.8929032986271812
 40
1.0
 40
1.0
 40
1.0
 40
1.0
 10
406.60210935216
 20
341.4779456680877
 30
0.0
 10
406.6014062607069
 20
341.4784659419942
 30
0.0
 10
406.5017750325772
 20
341.5521910997181
 30
0.0
 10
406.2589403735424
 20
341.6343227145159
 30
0.0
 10
405.8873104328387
 20
341.7065941484375
 30
0.0
 10
405.514885498234
 20
341.6752035887792
 30
0.0
 10
405.2185653906063
 20
341.5923119651151
 30
0.0
 10
405.0693365515412
 20
341.5013792445163
 30
0.0
 10
405.0186258048726
 20
341.4704786077021
 30
0.0
  0
SPLINE
  5
160
330
1F
100
AcDbEntity
  8
0
  6
Continuous
 62
     7
370
    25
100
AcDbSpline
210
0.0
220
0.0
230
1.0
 70
     8
 71
     3
 72
    15
 73
    11
 74
     0
 42
0.000000001
 43
0.00000001
 40
0.0
 40
0.0
 40
0.0
 40
0.0
 40
0.1115755517243502
 40
0.2459815125487868
 40
0.3811710950070228
 40
0.5168633861233218
 40
0.6529527558972419
 40
0.7897647728303755
 40
0.9283054545959663
 40
0.9999999999999999
 40
0.9999999999999999
 40
0.9999999999999999
 40
0.9999999999999999
 10
416.6893186222789
 20
303.6828264009769
 30
0.0
 10
416.568047777536
 20
303.6034869718413
 30
0.0
 10
416.300691843759
 20
303.4285738077838
 30
0.0
 10
415.9401050434954
 20
303.1222468170968
 30
0.0
 10
415.6021761691914
 20
302.7712889772508
 30
0.0
 10
415.3192971832276
 20
302.3906827634378
 30
0.0
 10
415.0944543914372
 20
301.983395839214
 30
0.0
 10
414.9392062552109
 20
301.5513690094469
 30
0.0
 10
414.8569640413207
 20
301.1740684925277
 30
0.0
 10
414.8592365123204
 20
300.9427691666976
 30
0.0
 10
414.8600114717668
 20
300.8638913295202
 30
0.0
  0
SPLINE
  5
161
330
1F
100
AcDbEntity
  8
0
  6
Continuous
 62
     7
370
    25
100
AcDbSpline
210
0.0
220
0.0
230
1.0
 70
     8
 71
     3
 72
    15
 73
    11
 74
     0
 42
0.000000001
 43
0.00000001
 40
0.0
 40
0.0
 40
0.0
 40
0.0
 40
0.0743310476949766
 40
0.2298020434918227
 40
0.3763722283338102
 40
0.5256734628930736
 40
0.6776641015324728
 40
0.8314834468806743
 40
0.9859424166137384
 40
1.0
 40
1.0
 40
1.0
 40
1.0
 10
427.7928116690492
 20
300.7826960493605
 30
0.0
 10
427.7959928483298
 20
300.8605615349605
 30
0.0
 10
427.8058277897445
 20
301.1012906550694
 30
0.0
 10
427.7302683271404
 20
301.4929881079597
 30
0.0
 10
427.575879289894
 20
301.9465919355712
 30
0.0
 10
427.3456542127407
 20
302.373706232721
 30
0.0
 10
427.0460900549543
 20
302.7803708948474
 30
0.0
 10
426.6737662431743
 20
303.1561803409418
 30
0.0
 10
426.3863593721198
 20
303.4056296364579
 30
0.0
 10
426.2103295679675
 20
303.5186429888581
 30
0.0
 10
426.1956452321884
 20
303.5280705174641
 30
0.0
  0
LINE
  5
162
330
1F
100
AcDbEntity
  8
0
  6
Continuous
 62
     7
370
    25
100
AcDbLine
 10
414.8494232447
 20
300.8240326607
 30
0.0
 11
414.8494232447
 21
286.2022363423
 31
0.0
  0
LINE
  5
163
330
1F
100
AcDbEntity
  8
0
  6
Continuous
 62
     7
370
    25
100
AcDbLine
 10
427.8034232447
 20
286.2022363423
 30
0.0
 11
427.8034232447
 21
300.8240326607
 31
0.0
  0
LINE
  5
164
330
1F
100
AcDbEntity
  8
0
  6
Continuous
 62
     7
370
    25
100
AcDbLine
 10
420.4734959058
 20
283.6776808718
 30
0.0
 11
420.3836787526
 21
283.7295480651
 31
0.0
  0
LINE
  5
165
330
1F
100
AcDbEntity
  8
0
  6
Continuous
 62
     7
370
    25
100
AcDbLine
 10
418.1382499211
 20
283.7295480651
 30
0.0
 11
418.048432768
 21
283.6776808718
 31
0.0
  0
LINE
  5
166
330
1F
100
AcDbEntity
  8
0
  6
Continuous
 62
     7
370
    25
100
AcDbLine
 10
420.9754643369
 20
281.3809382379
 30
0.0
 11
420.9754643369
 21
282.9779287578
 31
0.0
  0
LINE
  5
167
330
1F
100
AcDbEntity
  8
0
  6
Continuous
 62
     7
370
    25
100
AcDbLine
 10
417.5464643369
 20
282.9779287578
 30
0.0
 11
417.5464643369
 21
281.3809382379
 31
0.0
  0
LINE
  5
168
330
1F
100
AcDbEntity
  8
0
  6
Continuous
 62
     7
370
    25
100
AcDbLine
 10
414.2322179017
 20
287.2691745622
 30
0.0
 11
414.1424007485
 21
287.3210417555
 31
0.0
  0
LINE
  5
169
330
1F
100
AcDbEntity
  8
0
  6
Continuous
 62
     7
370
    25
100
AcDbLine
 10
411.896971917
 20
287.3210417555
 30
0.0
 11
411.8071547638
 21
287.2691745622
 31
0.0
  0
LINE
  5
16A
330
1F
100
AcDbEntity
  8
0
  6
Continuous
 62
     7
370
    25
100
AcDbLine
 10
414.7341863327
 20
284.9724319283
 30
0.0
 11
414.7341863327
 21
286.5694224482
 31
0.0
  0
LINE
  5
16B
330
1F
100
AcDbEntity
  8
0
  6
Continuous
 62
     7
370
    25
100
AcDbLine
 10
411.3051863327
 20
286.5694224482
 30
0.0
 11
411.3051863327
 21
284.9724319283
 31
0.0
  0
LINE
  5
16C
330
1F
100
AcDbEntity
  8
0
  6
Continuous
 62
     7
370
    25
100
AcDbLine
 10
430.800790445
 20
289.6395011083
 30
0.0
 11
430.7109732919
 21
289.6913683017
 31
0.0
  0
LINE
  5
16D
330
1F
100
AcDbEntity
  8
0
  6
Continuous
 62
     7
370
    25
100
AcDbLine
 10
428.4655444604
 20
289.6913683017
 30
0.0
 11
428.3757273072
 21
289.6395011083
 31
0.0
  0
LINE
  5
16E
330
1F
100
AcDbEntity
  8
0
  6
Continuous
 62
     7
370
    25
100
AcDbLine
 10
431.3027588761
 20
287.3427584745
 30
0.0
 11
431.3027588761
 21
288.9397489944
 31
0.0
  0
LINE
  5
16F
330
1F
100
AcDbEntity
  8
0
  6
Continuous
 62
     7
370
    25
100
AcDbLine
 10
427.8737588761
 20
288.9397489944
 30
0.0
 11
427.8737588761
 21
287.3427584745
 31
0.0
  0
LINE
  5
170
330
1F
100
AcDbEntity
  8
0
  6
Continuous
 62
     7
370
    25
100
AcDbLine
 10
418.7946053245
 20
312.3110344729
 30
0.0
 11
418.89574538
 21
312.2526475616
 31
0.0
  0
LINE
  5
171
330
1F
100
AcDbEntity
  8
0
  6
Continuous
 62
     7
370
    25
100
AcDbLine
 10
416.7258407875
 20
325.4061116129
 30
0.0
 11
417.0132089834
 21
325.2402174846
 31
0.0
  0
LINE
  5
172
330
1F
100
AcDbEntity
  8
0
  6
Continuous
 62
     7
370
    25
100
AcDbLine
 10
418.9942479765
 20
328.6718494969
 30
0.0
 11
418.7068797806
 21
328.8377436252
 31
0.0
  0
LINE
  5
173
330
1F
100
AcDbEntity
  8
0
  6
Continuous
 62
     7
370
    25
100
AcDbLine
 10
363.4511222126
 20
278.5734904508
 30
0.0
 11
405.8775290837
 21
254.0812470962
 31
0.0
  0
LINE
  5
174
330
1F
100
AcDbEntity
  8
0
  6
Continuous
 62
     7
370
    25
100
AcDbLine
 10
393.2741084559
 20
309.853155921
 30
0.0
 11
384.4494155979
 21
314.9475426708
 31
0.0
  0
LINE
  5
175
330
1F
100
AcDbEntity
  8
0
  6
Continuous
 62
     7
370
    25
100
AcDbLine
 10
415.9697004685
 20
315.3459240223
 30
0.0
 11
415.9472498282
 21
315.3588845011
 31
0.0
  0
LINE
  5
176
330
1F
100
AcDbEntity
  8
0
  6
Continuous
 62
     7
370
    25
100
AcDbLine
 10
416.7258407875
 20
311.8005819889
 30
0.0
 11
417.0132089834
 21
311.6346878606
 31
0.0
  0
LINE
  5
177
330
1F
100
AcDbEntity
  8
0
  6
Continuous
 62
     7
370
    25
100
AcDbLine
 10
418.5355982447
 20
304.2129709847
 30
0.0
 11
418.5355982447
 21
304.0003845843
 31
0.0
  0
LINE
  5
178
330
1F
100
AcDbEntity
  8
0
  6
Continuous
 62
     7
370
    25
100
AcDbLine
 10
424.1172482447
 20
304.0003845843
 30
0.0
 11
424.1172482447
 21
304.2129709847
 31
0.0
  0
LINE
  5
179
330
1F
100
AcDbEntity
  8
0
  6
Continuous
 62
     7
370
    25
100
AcDbLine
 10
405.8775290837
 20
254.0812470962
 30
0.0
 11
421.3631675917
 21
245.1415782717
 31
0.0
  0
LINE
  5
17A
330
1F
100
AcDbEntity
  8
0
  6
Continuous
 62
     7
370
    25
100
AcDbLine
 10
442.3614609771
 20
281.5156304917
 30
0.0
 11
432.327236993
 21
287.308264698
 31
0.0
  0
LINE
  5
17B
330
1F
100
AcDbEntity
  8
0
  6
Continuous
 62
     7
370
    25
100
AcDbLine
 10
421.3631675917
 20
245.1415782717
 30
0.0
 11
427.5503519271
 21
241.5697927825
 31
0.0
  0
LINE
  5
17C
330
1F
100
AcDbEntity
  8
0
  6
Continuous
 62
     7
370
    25
100
AcDbLine
 10
448.5486453125
 20
277.9438450025
 30
0.0
 11
442.3614609771
 21
281.5156304917
 31
0.0
  0
LINE
  5
17D
330
1F
100
AcDbEntity
  8
0
  6
Continuous
 62
     7
370
    25
100
AcDbLine
 10
357.2639378772
 20
282.1452759401
 30
0.0
 11
363.4511222126
 21
278.5734904508
 31
0.0
  0
LINE
  5
17E
330
1F
100
AcDbEntity
  8
0
  6
Continuous
 62
     7
370
    25
100
AcDbLine
 10
384.4494155979
 20
314.9475426708
 30
0.0
 11
378.2622312625
 21
318.5193281601
 31
0.0
  0
ARC
  5
17F
330
1F
100
AcDbEntity
  8
0
  6
Continuous
 62
     7
370
    25
100
AcDbCircle
 10
419.7065741304
 20
322.607217683
 30
0.0
 40
1.766676182135379
100
AcDbArc
 50
116.1138740242
 51
178.1024974887
  0
LINE
  5
180
330
1F
100
AcDbEntity
  8
0
  6
Continuous
 62
     7
370
    25
100
AcDbLine
 10
416.153795719
 20
323.6973692914
 30
0.0
 11
417.9408666871
 21
322.6657151809
 31
0.0
  0
LWPOLYLINE
  5
181
330
1F
100
AcDbEntity
  8
0
  6
Continuous
 62
     7
370
    25
100
AcDbPolyline
 90
        9
 70
   128
 43
0.0
 10
420.4538833292
 20
324.600158597
 10
420.5721991583
 20
324.6318518433
 10
420.6832124001
 20
324.6361605824
 10
420.7835499733
 20
324.6129538956
 10
420.8701631715
 20
324.5629369061
 10
420.9404202966
 20
324.4876293551
 10
420.9921866214
 20
324.3893194241
 10
421.0238892523
 20
324.2709942109
 10
421.0345649208
 20
324.1362489671
  0
LINE
  5
182
330
1F
100
AcDbEntity
  8
0
  6
Continuous
 62
     7
370
    25
100
AcDbLine
 10
418.9047891483
 20
324.0213057505
 30
0.0
 11
420.4538833292
 21
324.600158597
 31
0.0
  0
ARC
  5
183
330
1F
100
AcDbEntity
  8
0
  6
Continuous
 62
     7
370
    25
100
AcDbCircle
 10
419.553837803
 20
322.6972442377
 30
0.0
 40
1.474585720022321
100
AcDbArc
 50
116.1138740242
 51
178.1024974887
  0
LINE
  5
184
330
1F
100
AcDbEntity
  8
0
  6
Continuous
 62
     7
370
    25
100
AcDbLine
 10
418.080060657
 20
314.0611379389
 30
0.0
 11
418.080060657
 21
322.7460701493
 31
0.0
  0
LWPOLYLINE
  5
185
330
1F
100
AcDbEntity
  8
0
  6
Continuous
 62
     7
370
    25
100
AcDbPolyline
 90
        9
 70
   128
 43
0.0
 10
418.9047891483
 20
313.7381135854
 10
418.752114135
 20
313.6384206364
 10
418.6008922506
 20
313.5779995282
 10
418.45829262
 20
313.559714704
 10
418.3310756045
 20
313.5844330104
 10
418.2252723066
 20
313.6509826023
 10
418.1458986474
 20
313.7562084977
 10
418.0967175723
 20
313.8951221486
 10
418.080060657
 20
314.0611379389
  0
LINE
  5
186
330
1F
100
AcDbEntity
  8
0
  6
Continuous
 62
     7
370
    25
100
AcDbLine
 10
420.4538833292
 20
314.94780681
 30
0.0
 11
418.9047891483
 21
313.7381135854
 31
0.0
  0
ARC
  5
187
330
1F
100
AcDbEntity
  8
0
  6
Continuous
 62
     7
370
    25
100
AcDbCircle
 10
419.4822581554
 20
316.1609908743
 30
0.0
 40
1.554307258093506
100
AcDbArc
 50
308.6908360792
 51
357.0927373865
  0
LINE
  5
188
330
1F
100
AcDbEntity
  8
0
  6
Continuous
 62
     7
370
    25
100
AcDbLine
 10
421.0345649208
 20
324.1362489671
 30
0.0
 11
421.0345649208
 21
316.0821571347
 31
0.0
  0
ARC
  5
189
330
1F
100
AcDbEntity
  8
0
  6
Continuous
 62
     7
370
    25
100
AcDbCircle
 10
419.3139664401
 20
316.2569614717
 30
0.0
 40
1.862189206981321
100
AcDbArc
 50
308.6908360792
 51
357.0927373865
  0
LINE
  5
18A
330
1F
100
AcDbEntity
  8
0
  6
Continuous
 62
     7
370
    25
100
AcDbLine
 10
420.4780541084
 20
314.8034661869
 30
0.0
 11
418.9289599275
 21
313.5937729624
 31
0.0
  0
LWPOLYLINE
  5
18B
330
1F
100
AcDbEntity
  8
0
  6
Continuous
 62
     7
370
    25
100
AcDbPolyline
 90
        9
 70
   128
 43
0.0
 10
418.9289599275
 20
313.5937729624
 10
418.7460425793
 20
313.4743325282
 10
418.5648662003
 20
313.4019430216
 10
418.3940199975
 20
313.3800362833
 10
418.2416034453
 20
313.4096508677
 10
418.1148423056
 20
313.4893828069
 10
418.0197460686
 20
313.6154521703
 10
417.9608230553
 20
313.7818822633
 10
417.9408666871
 20
313.9807829705
  0
LINE
  5
18C
330
1F
100
AcDbEntity
  8
0
  6
Continuous
 62
     7
370
    25
100
AcDbLine
 10
417.9408666871
 20
313.9807829705
 30
0.0
 11
417.9408666871
 21
322.6657151809
 31
0.0
  0
LINE
  5
18D
330
1F
100
AcDbEntity
  8
0
  6
Continuous
 62
     7
370
    25
100
AcDbLine
 10
418.9289599275
 20
324.1935533613
 30
0.0
 11
420.4780541084
 21
324.7724062077
 31
0.0
  0
LWPOLYLINE
  5
18E
330
1F
100
AcDbEntity
  8
0
  6
Continuous
 62
     7
370
    25
100
AcDbPolyline
 90
        9
 70
   128
 43
0.0
 10
420.4780541084
 20
324.7724062077
 10
420.6198062999
 20
324.8103773494
 10
420.752809385
 20
324.8155395769
 10
420.8730221324
 20
324.7877360383
 10
420.9767919386
 20
324.7278115302
 10
421.0609658106
 20
324.6375868284
 10
421.1229861677
 20
324.5198033649
 10
421.160968553
 20
324.3780399305
 10
421.1737588907
 20
324.2166039355
  0
LINE
  5
18F
330
1F
100
AcDbEntity
  8
0
  6
Continuous
 62
     7
370
    25
100
AcDbLine
 10
421.1737588907
 20
324.2166039355
 30
0.0
 11
421.1737588907
 21
316.1625121032
 31
0.0
  0
LINE
  5
190
330
1F
100
AcDbEntity
  8
0
  6
Continuous
 62
     7
370
    25
100
AcDbLine
 10
416.153795719
 20
315.012437081
 30
0.0
 11
417.9408666871
 21
313.9807829705
 31
0.0
  0
LINE
  5
191
330
1F
100
AcDbEntity
  8
0
  6
Continuous
 62
   144
370
    18
100
AcDbLine
 10
416.153795719
 20
323.6973692914
 30
0.0
 11
416.153795719
 21
315.012437081
 31
0.0
  0
LINE
  5
192
330
1F
100
AcDbEntity
  8
0
  6
Continuous
 62
     7
370
    25
100
AcDbLine
 10
415.9697004685
 20
323.5655208323
 30
0.0
 11
415.9697004685
 21
315.2794229438
 31
0.0
  0
ARC
  5
193
330
1F
100
AcDbEntity
  8
0
  6
Continuous
 62
   144
370
    18
100
AcDbCircle
 10
415.8729030152
 20
323.1902799992
 30
0.0
 40
0.5796897974859249
100
AcDbArc
 50
61.0165527979
 51
77.2951386104
  0
LWPOLYLINE
  5
194
330
1F
100
AcDbEntity
  8
0
  6
Continuous
 62
     7
370
    25
100
AcDbPolyline
 90
       17
 70
   128
 43
0.0
 10
418.6278562804
 20
323.0389141926
 10
418.6364010465
 20
323.0934526478
 10
418.6607344819
 20
323.1495536946
 10
418.6971520414
 20
323.1986764572
 10
418.7401094819
 20
323.2333424403
 10
418.7830669223
 20
323.2482740622
 10
418.8194844819
 20
323.2411981189
 10
418.8438179172
 20
323.2131918585
 10
418.8523626834
 20
323.1685189803
 10
418.8438179172
 20
323.1139805251
 10
418.8194844819
 20
323.0578794783
 10
418.7830669223
 20
323.0087567156
 10
418.7401094819
 20
322.9740907325
 10
418.6971520414
 20
322.9591591106
 10
418.6607344819
 20
322.966235054
 10
418.6364010465
 20
322.9942413144
 10
418.6278562804
 20
323.0389141926
  0
LINE
  5
195
330
1F
100
AcDbEntity
  8
0
  6
Continuous
 62
     7
370
    25
100
AcDbLine
 10
418.3435231408
 20
316.1660918148
 30
0.0
 11
418.080060657
 21
315.9603530124
 31
0.0
  0
LWPOLYLINE
  5
196
330
1F
100
AcDbEntity
  8
0
  6
Continuous
 62
     7
370
    25
100
AcDbPolyline
 90
        3
 70
   128
 43
0.0
 10
415.9697004685
 20
315.2794229438
 10
415.9863573838
 20
315.1134071535
 10
415.9968701597
 20
315.0716487338
  0
LINE
  5
197
330
1F
100
AcDbEntity
  8
0
  6
Continuous
 62
     7
370
    25
100
AcDbLine
 10
418.9242047324
 20
317.3004421396
 30
0.0
 11
418.9242047324
 21
317.7585398611
 31
0.0
  0
LINE
  5
198
330
1F
100
AcDbEntity
  8
0
  6
Continuous
 62
     7
370
    25
100
AcDbLine
 10
418.9242047324
 20
318.1251473515
 30
0.0
 11
418.9242047324
 21
318.888877307
 31
0.0
  0
LINE
  5
199
330
1F
100
AcDbEntity
  8
0
  6
Continuous
 62
     7
370
    25
100
AcDbLine
 10
418.9242047324
 20
319.2554847974
 30
0.0
 11
418.9242047324
 21
320.0192147529
 31
0.0
  0
LINE
  5
19A
330
1F
100
AcDbEntity
  8
0
  6
Continuous
 62
     7
370
    25
100
AcDbLine
 10
418.9242047324
 20
320.3858222433
 30
0.0
 11
418.9242047324
 21
321.1495521988
 31
0.0
  0
LINE
  5
19B
330
1F
100
AcDbEntity
  8
0
  6
Continuous
 62
     7
370
    25
100
AcDbLine
 10
418.9242047324
 20
321.5161596892
 30
0.0
 11
418.9242047324
 21
322.2798896447
 31
0.0
  0
LINE
  5
19C
330
1F
100
AcDbEntity
  8
0
  6
Continuous
 62
     7
370
    25
100
AcDbLine
 10
418.9242047324
 20
322.6464971351
 30
0.0
 11
418.9242047324
 21
323.4102270906
 31
0.0
  0
LINE
  5
19D
330
1F
100
AcDbEntity
  8
0
  6
Continuous
 62
     7
370
    25
100
AcDbLine
 10
418.9242047324
 20
323.776834581
 30
0.0
 11
418.9242047324
 21
324.0285608072
 31
0.0
  0
LWPOLYLINE
  5
19E
330
1F
100
AcDbEntity
  8
0
  6
Continuous
 62
     7
370
    25
100
AcDbPolyline
 90
        3
 70
   128
 43
0.0
 10
418.3435231408
 20
316.1660918148
 10
418.4618389699
 20
316.2710031171
 10
418.4794387214
 20
316.2888701928
  0
LWPOLYLINE
  5
19F
330
1F
100
AcDbEntity
  8
0
  6
Continuous
 62
     7
370
    25
100
AcDbPolyline
 90
        3
 70
   128
 43
0.0
 10
418.677742518
 20
316.5409993381
 10
418.7598029831
 20
316.6839399811
 10
418.77498651
 20
316.7143442614
  0
LWPOLYLINE
  5
1A0
330
1F
100
AcDbEntity
  8
0
  6
Continuous
 62
     7
370
    25
100
AcDbPolyline
 90
        3
 70
   128
 43
0.0
 10
418.8865294421
 20
317.0165593877
 10
418.9135290638
 20
317.1533710312
 10
418.9242047324
 20
317.3004421396
  0
LWPOLYLINE
  5
1A1
330
1F
100
AcDbEntity
  8
0
  6
Continuous
 62
     7
370
    25
100
AcDbPolyline
 90
       17
 70
   128
 43
0.0
 10
418.6278562804
 20
321.9085767467
 10
418.6364010465
 20
321.9631152019
 10
418.6607344819
 20
322.0192162487
 10
418.6971520414
 20
322.0683390113
 10
418.7401094819
 20
322.1030049944
 10
418.7830669223
 20
322.1179366163
 10
418.8194844819
 20
322.110860673
 10
418.8438179172
 20
322.0828544126
 10
418.8523626834
 20
322.0381815344
 10
418.8438179172
 20
321.9836430792
 10
418.8194844819
 20
321.9275420324
 10
418.7830669223
 20
321.8784192698
 10
418.7401094819
 20
321.8437532866
 10
418.6971520414
 20
321.8288216647
 10
418.6607344819
 20
321.8358976081
 10
418.6364010465
 20
321.8639038685
 10
418.6278562804
 20
321.9085767467
  0
LWPOLYLINE
  5
1A2
330
1F
100
AcDbEntity
  8
0
  6
Continuous
 62
     7
370
    25
100
AcDbPolyline
 90
       17
 70
   128
 43
0.0
 10
419.6336449659
 20
323.0543749187
 10
419.6421897321
 20
323.1089133739
 10
419.6665231674
 20
323.1650144208
 10
419.702940727
 20
323.2141371834
 10
419.7458981674
 20
323.2488031665
 10
419.7888556079
 20
323.2637347884
 10
419.8252731674
 20
323.2566588451
 10
419.8496066028
 20
323.2286525847
 10
419.8581513689
 20
323.1839797065
 10
419.8496066028
 20
323.1294412513
 10
419.8252731674
 20
323.0733402045
 10
419.7888556079
 20
323.0242174418
 10
419.7458981674
 20
322.9895514587
 10
419.702940727
 20
322.9746198368
 10
419.6665231674
 20
322.9816957802
 10
419.6421897321
 20
323.0097020406
 10
419.6336449659
 20
323.0543749187
  0
LINE
  5
1A3
330
1F
100
AcDbEntity
  8
0
  6
Continuous
 62
     7
370
    25
100
AcDbLine
 10
418.9242047324
 20
317.3004421396
 30
0.0
 11
421.0345649208
 21
316.0821571347
 31
0.0
  0
LWPOLYLINE
  5
1A4
330
1F
100
AcDbEntity
  8
0
  6
Continuous
 62
     7
370
    25
100
AcDbPolyline
 90
       17
 70
   128
 43
0.0
 10
418.6278562804
 20
320.7782393008
 10
418.6364010465
 20
320.832777756
 10
418.6607344819
 20
320.8888788028
 10
418.6971520414
 20
320.9380015654
 10
418.7401094819
 20
320.9726675485
 10
418.7830669223
 20
320.9875991704
 10
418.8194844819
 20
320.9805232271
 10
418.8438179172
 20
320.9525169667
 10
418.8523626834
 20
320.9078440885
 10
418.8438179172
 20
320.8533056333
 10
418.8194844819
 20
320.7972045865
 10
418.7830669223
 20
320.7480818239
 10
418.7401094819
 20
320.7134158408
 10
418.6971520414
 20
320.6984842188
 10
418.6607344819
 20
320.7055601622
 10
418.6364010465
 20
320.7335664226
 10
418.6278562804
 20
320.7782393008
  0
LWPOLYLINE
  5
1A5
330
1F
100
AcDbEntity
  8
0
  6
Continuous
 62
     7
370
    25
100
AcDbPolyline
 90
       17
 70
   128
 43
0.0
 10
419.6336449659
 20
321.9240374728
 10
419.6421897321
 20
321.978575928
 10
419.6665231674
 20
322.0346769749
 10
419.702940727
 20
322.0837997375
 10
419.7458981674
 20
322.1184657206
 10
419.7888556079
 20
322.1333973425
 10
419.8252731674
 20
322.1263213992
 10
419.8496066028
 20
322.0983151388
 10
419.8581513689
 20
322.0536422606
 10
419.8496066028
 20
321.9991038054
 10
419.8252731674
 20
321.9430027586
 10
419.7888556079
 20
321.8938799959
 10
419.7458981674
 20
321.8592140128
 10
419.702940727
 20
321.8442823909
 10
419.6665231674
 20
321.8513583343
 10
419.6421897321
 20
321.8793645947
 10
419.6336449659
 20
321.9240374728
  0
LWPOLYLINE
  5
1A6
330
1F
100
AcDbEntity
  8
0
  6
Continuous
 62
     7
370
    25
100
AcDbPolyline
 90
       17
 70
   128
 43
0.0
 10
418.6278562804
 20
319.6479018549
 10
418.6364010465
 20
319.7024403101
 10
418.6607344819
 20
319.7585413569
 10
418.6971520414
 20
319.8076641195
 10
418.7401094819
 20
319.8423301026
 10
418.7830669223
 20
319.8572617245
 10
418.8194844819
 20
319.8501857812
 10
418.8438179172
 20
319.8221795208
 10
418.8523626834
 20
319.7775066426
 10
418.8438179172
 20
319.7229681874
 10
418.8194844819
 20
319.6668671406
 10
418.7830669223
 20
319.617744378
 10
418.7401094819
 20
319.5830783949
 10
418.6971520414
 20
319.5681467729
 10
418.6607344819
 20
319.5752227163
 10
418.6364010465
 20
319.6032289767
 10
418.6278562804
 20
319.6479018549
  0
LWPOLYLINE
  5
1A7
330
1F
100
AcDbEntity
  8
0
  6
Continuous
 62
     7
370
    25
100
AcDbPolyline
 90
       17
 70
   128
 43
0.0
 10
419.6336449659
 20
320.7937000269
 10
419.6421897321
 20
320.8482384821
 10
419.6665231674
 20
320.904339529
 10
419.702940727
 20
320.9534622916
 10
419.7458981674
 20
320.9881282747
 10
419.7888556079
 20
321.0030598966
 10
419.8252731674
 20
320.9959839533
 10
419.8496066028
 20
320.9679776929
 10
419.8581513689
 20
320.9233048147
 10
419.8496066028
 20
320.8687663595
 10
419.8252731674
 20
320.8126653127
 10
419.7888556079
 20
320.76354255
 10
419.7458981674
 20
320.7288765669
 10
419.702940727
 20
320.713944945
 10
419.6665231674
 20
320.7210208884
 10
419.6421897321
 20
320.7490271488
 10
419.6336449659
 20
320.7937000269
  0
LWPOLYLINE
  5
1A8
330
1F
100
AcDbEntity
  8
0
  6
Continuous
 62
     7
370
    25
100
AcDbPolyline
 90
       17
 70
   128
 43
0.0
 10
418.6278562804
 20
318.517564409
 10
418.6364010465
 20
318.5721028642
 10
418.6607344819
 20
318.628203911
 10
418.6971520414
 20
318.6773266736
 10
418.7401094819
 20
318.7119926567
 10
418.7830669223
 20
318.7269242787
 10
418.8194844819
 20
318.7198483353
 10
418.8438179172
 20
318.6918420749
 10
418.8523626834
 20
318.6471691967
 10
418.8438179172
 20
318.5926307415
 10
418.8194844819
 20
318.5365296947
 10
418.7830669223
 20
318.4874069321
 10
418.7401094819
 20
318.452740949
 10
418.6971520414
 20
318.437809327
 10
418.6607344819
 20
318.4448852704
 10
418.6364010465
 20
318.4728915308
 10
418.6278562804
 20
318.517564409
  0
LWPOLYLINE
  5
1A9
330
1F
100
AcDbEntity
  8
0
  6
Continuous
 62
     7
370
    25
100
AcDbPolyline
 90
       17
 70
   128
 43
0.0
 10
419.6336449659
 20
319.6633625811
 10
419.6421897321
 20
319.7179010363
 10
419.6665231674
 20
319.7740020831
 10
419.702940727
 20
319.8231248457
 10
419.7458981674
 20
319.8577908288
 10
419.7888556079
 20
319.8727224507
 10
419.8252731674
 20
319.8656465074
 10
419.8496066028
 20
319.837640247
 10
419.8581513689
 20
319.7929673688
 10
419.8496066028
 20
319.7384289136
 10
419.8252731674
 20
319.6823278668
 10
419.7888556079
 20
319.6332051042
 10
419.7458981674
 20
319.598539121
 10
419.702940727
 20
319.5836074991
 10
419.6665231674
 20
319.5906834425
 10
419.6421897321
 20
319.6186897029
 10
419.6336449659
 20
319.6633625811
  0
LWPOLYLINE
  5
1AA
330
1F
100
AcDbEntity
  8
0
  6
Continuous
 62
     7
370
    25
100
AcDbPolyline
 90
       17
 70
   128
 43
0.0
 10
418.6278562804
 20
317.3872269631
 10
418.6364010465
 20
317.4417654183
 10
418.6607344819
 20
317.4978664651
 10
418.6971520414
 20
317.5469892277
 10
418.7401094819
 20
317.5816552108
 10
418.7830669223
 20
317.5965868328
 10
418.8194844819
 20
317.5895108894
 10
418.8438179172
 20
317.561504629
 10
418.8523626834
 20
317.5168317508
 10
418.8438179172
 20
317.4622932956
 10
418.8194844819
 20
317.4061922488
 10
418.7830669223
 20
317.3570694862
 10
418.7401094819
 20
317.3224035031
 10
418.6971520414
 20
317.3074718812
 10
418.6607344819
 20
317.3145478245
 10
418.6364010465
 20
317.3425540849
 10
418.6278562804
 20
317.3872269631
  0
LWPOLYLINE
  5
1AB
330
1F
100
AcDbEntity
  8
0
  6
Continuous
 62
     7
370
    25
100
AcDbPolyline
 90
       17
 70
   128
 43
0.0
 10
419.6336449659
 20
318.5330251352
 10
419.6421897321
 20
318.5875635904
 10
419.6665231674
 20
318.6436646372
 10
419.702940727
 20
318.6927873998
 10
419.7458981674
 20
318.7274533829
 10
419.7888556079
 20
318.7423850048
 10
419.8252731674
 20
318.7353090615
 10
419.8496066028
 20
318.7073028011
 10
419.8581513689
 20
318.6626299229
 10
419.8496066028
 20
318.6080914677
 10
419.8252731674
 20
318.5519904209
 10
419.7888556079
 20
318.5028676583
 10
419.7458981674
 20
318.4682016751
 10
419.702940727
 20
318.4532700532
 10
419.6665231674
 20
318.4603459966
 10
419.6421897321
 20
318.488352257
 10
419.6336449659
 20
318.5330251352
  0
LWPOLYLINE
  5
1AC
330
1F
100
AcDbEntity
  8
0
  6
Continuous
 62
     7
370
    25
100
AcDbPolyline
 90
       17
 70
   128
 43
0.0
 10
418.6278562804
 20
316.2568895172
 10
418.6364010465
 20
316.3114279724
 10
418.6607344819
 20
316.3675290192
 10
418.6971520414
 20
316.4166517818
 10
418.7401094819
 20
316.451317765
 10
418.7830669223
 20
316.4662493869
 10
418.8194844819
 20
316.4591734435
 10
418.8438179172
 20
316.4311671831
 10
418.8523626834
 20
316.3864943049
 10
418.8438179172
 20
316.3319558497
 10
418.8194844819
 20
316.2758548029
 10
418.7830669223
 20
316.2267320403
 10
418.7401094819
 20
316.1920660572
 10
418.6971520414
 20
316.1771344353
 10
418.6607344819
 20
316.1842103786
 10
418.6364010465
 20
316.212216639
 10
418.6278562804
 20
316.2568895172
  0
LWPOLYLINE
  5
1AD
330
1F
100
AcDbEntity
  8
0
  6
Continuous
 62
     7
370
    25
100
AcDbPolyline
 90
       17
 70
   128
 43
0.0
 10
419.6336449659
 20
317.4026876893
 10
419.6421897321
 20
317.4572261445
 10
419.6665231674
 20
317.5133271913
 10
419.702940727
 20
317.5624499539
 10
419.7458981674
 20
317.597115937
 10
419.7888556079
 20
317.6120475589
 10
419.8252731674
 20
317.6049716156
 10
419.8496066028
 20
317.5769653552
 10
419.8581513689
 20
317.532292477
 10
419.8496066028
 20
317.4777540218
 10
419.8252731674
 20
317.421652975
 10
419.7888556079
 20
317.3725302124
 10
419.7458981674
 20
317.3378642293
 10
419.702940727
 20
317.3229326073
 10
419.6665231674
 20
317.3300085507
 10
419.6421897321
 20
317.3580148111
 10
419.6336449659
 20
317.4026876893
  0
LWPOLYLINE
  5
1AE
330
1F
100
AcDbEntity
  8
0
  6
Continuous
 62
     7
370
    25
100
AcDbPolyline
 90
       17
 70
   128
 43
0.0
 10
418.6278562804
 20
315.1265520713
 10
418.6364010465
 20
315.1810905265
 10
418.6607344819
 20
315.2371915733
 10
418.6971520414
 20
315.2863143359
 10
418.7401094819
 20
315.3209803191
 10
418.7830669223
 20
315.335911941
 10
418.8194844819
 20
315.3288359976
 10
418.8438179172
 20
315.3008297372
 10
418.8523626834
 20
315.256156859
 10
418.8438179172
 20
315.2016184038
 10
418.8194844819
 20
315.145517357
 10
418.7830669223
 20
315.0963945944
 10
418.7401094819
 20
315.0617286113
 10
418.6971520414
 20
315.0467969894
 10
418.6607344819
 20
315.0538729327
 10
418.6364010465
 20
315.0818791931
 10
418.6278562804
 20
315.1265520713
  0
LINE
  5
1AF
330
1F
100
AcDbEntity
  8
0
  6
Continuous
 62
     7
370
    25
100
AcDbLine
 10
420.4538833292
 20
314.94780681
 30
0.0
 11
418.3435231408
 21
316.1660918148
 31
0.0
  0
LWPOLYLINE
  5
1B0
330
1F
100
AcDbEntity
  8
0
  6
Continuous
 62
     7
370
    25
100
AcDbPolyline
 90
       17
 70
   128
 43
0.0
 10
419.6336449659
 20
316.2723502434
 10
419.6421897321
 20
316.3268886986
 10
419.6665231674
 20
316.3829897454
 10
419.702940727
 20
316.432112508
 10
419.7458981674
 20
316.4667784911
 10
419.7888556079
 20
316.4817101131
 10
419.8252731674
 20
316.4746341697
 10
419.8496066028
 20
316.4466279093
 10
419.8581513689
 20
316.4019550311
 10
419.8496066028
 20
316.3474165759
 10
419.8252731674
 20
316.2913155291
 10
419.7888556079
 20
316.2421927665
 10
419.7458981674
 20
316.2075267834
 10
419.702940727
 20
316.1925951614
 10
419.6665231674
 20
316.1996711048
 10
419.6421897321
 20
316.2276773652
 10
419.6336449659
 20
316.2723502434
  0
ARC
  5
1B1
330
1F
100
AcDbEntity
  8
0
  6
Continuous
 62
   144
370
    18
100
AcDbCircle
 10
415.8638132675
 20
314.4841924758
 30
0.0
 40
0.6026045014107354
100
AcDbArc
 50
61.2352006107
 51
82.0412627429
  0
ARC
  5
1B2
330
1F
100
AcDbEntity
  8
0
  6
Continuous
 62
     7
370
    25
100
AcDbCircle
 10
408.4159344122
 20
324.4379451129
 30
0.0
 40
2.442585283560317
100
AcDbArc
 50
2.8920750245
 51
57.3725811494
  0
SPLINE
  5
1B3
330
1F
100
AcDbEntity
  8
0
  6
Continuous
 62
     7
370
    25
100
AcDbSpline
210
0.0
220
0.0
230
1.0
 70
     8
 71
     3
 72
     8
 73
     4
 74
     0
 42
0.000000001
 43
0.00000001
 40
0.0
 40
0.0
 40
0.0
 40
0.0
 40
1.0
 40
1.0
 40
1.0
 40
1.0
 10
410.8554086859912
 20
324.5611852644486
 30
0.0
 10
410.8554336875526
 20
324.5575620858773
 30
0.0
 10
410.8554446075784
 20
324.5544033199881
 30
0.0
 10
410.8554446075721
 20
324.5507944590292
 30
0.0
  0
ARC
  5
1B4
330
1F
100
AcDbEntity
  8
0
  6
Continuous
 62
     7
370
    25
100
AcDbCircle
 10
409.7329125924
 20
326.7172733064
 30
0.0
 40
2.440022278809755
100
AcDbArc
 50
242.6096722366
 51
297.3903277634
  0
ARC
  5
1B5
330
1F
100
AcDbEntity
  8
0
  6
Continuous
 62
     7
370
    25
100
AcDbCircle
 10
411.0475361382
 20
324.4398903561
 30
0.0
 40
2.439677632020786
100
AcDbArc
 50
122.60547834
 51
177.3945215143
  0
SPLINE
  5
1B6
330
1F
100
AcDbEntity
  8
0
  6
Continuous
 62
     7
370
    25
100
AcDbSpline
210
0.0
220
0.0
230
1.0
 70
     8
 71
     3
 72
     8
 73
     4
 74
     0
 42
0.000000001
 43
0.00000001
 40
0.0
 40
0.0
 40
0.0
 40
0.0
 40
1.0
 40
1.0
 40
1.0
 40
1.0
 10
409.7418928485595
 20
326.5002611281672
 30
0.0
 10
409.7448862991973
 20
326.4985330458973
 30
0.0
 10
409.7478797498348
 20
326.496791136501
 30
0.0
 10
409.7508731046806
 20
326.4950354557201
 30
0.0
  0
LINE
  5
1B7
330
1F
100
AcDbEntity
  8
0
  6
Continuous
 62
     7
370
    25
100
AcDbLine
 10
420.6888247728
 20
332.8093808835
 30
0.0
 11
417.9466342275
 21
331.2263479776
 31
0.0
  0
ARC
  5
1B8
330
1F
100
AcDbEntity
  8
0
  6
Continuous
 62
     7
370
    25
100
AcDbCircle
 10
419.359943312
 20
330.7563731427
 30
0.0
 40
2.445560629493591
100
AcDbArc
 50
2.914391198
 51
57.0856089476
  0
LINE
  5
1B9
330
1F
100
AcDbEntity
  8
0
  6
Continuous
 62
     7
370
    25
100
AcDbLine
 10
409.7418928486
 20
326.5002611282
 30
0.0
 11
409.7329125924
 21
326.4950769367
 31
0.0
  0
SPLINE
  5
1BA
330
1F
100
AcDbEntity
  8
0
  6
Continuous
 62
   144
370
    18
100
AcDbSpline
210
0.0
220
0.0
230
1.0
 70
     8
 71
     3
 72
    13
 73
     9
 74
     0
 42
0.000000001
 43
0.00000001
 40
0.0
 40
0.0
 40
0.0
 40
0.0
 40
0.167562650374051
 40
0.3340511639557576
 40
0.500000000000218
 40
0.6659488360446274
 40
0.8324373496261912
 40
1.0
 40
1.0
 40
1.0
 40
1.0
 10
417.9466345149007
 20
331.226347809025
 30
0.0
 10
417.9317804501786
 20
331.2145958499427
 30
0.0
 10
417.9021675406264
 20
331.191167266058
 30
0.0
 10
417.8536155040855
 20
331.1579949498669
 30
0.0
 10
417.8022917168132
 20
331.1265214573689
 30
0.0
 10
417.7478331304811
 20
331.0969280854297
 30
0.0
 10
417.6905401549915
 20
331.0689973767903
 30
0.0
 10
417.6500701959737
 20
331.0519679818216
 30
0.0
 10
417.6297701511743
 20
331.043425905448
 30
0.0
  0
LINE
  5
1BB
330
1F
100
AcDbEntity
  8
0
  6
Continuous
 62
   144
370
    18
100
AcDbLine
 10
409.7508731047
 20
326.4950354557
 30
0.0
 11
417.6297701512
 21
331.0434259054
 31
0.0
  0
LINE
  5
1BC
330
1F
100
AcDbEntity
  8
0
  6
Continuous
 62
     7
370
    25
100
AcDbLine
 10
408.6103805773
 20
284.3667797541
 30
0.0
 11
408.6103805773
 21
324.550794459
 31
0.0
  0
ARC
  5
1BD
330
1F
100
AcDbEntity
  8
0
  6
Continuous
 62
   144
370
    18
100
AcDbCircle
 10
409.7372417552
 20
286.5502228184
 30
0.0
 40
2.45707951222994
100
AcDbArc
 50
242.7020270253
 51
283.8545627981
  0
LINE
  5
1BE
330
1F
100
AcDbEntity
  8
0
  6
Continuous
 62
     7
370
    25
100
AcDbLine
 10
408.6103805773
 20
324.550794459
 30
0.0
 11
393.7390764408
 21
333.1358155997
 31
0.0
  0
ARC
  5
1BF
330
1F
100
AcDbEntity
  8
0
  6
Continuous
 62
     7
370
    25
100
AcDbCircle
 10
396.1762320017
 20
333.0249114967
 30
0.0
 40
2.439677632020945
100
AcDbArc
 50
122.60547834
 51
177.3945215143
  0
LINE
  5
1C0
330
1F
100
AcDbEntity
  8
0
  6
Continuous
 62
     7
370
    25
100
AcDbLine
 10
409.7329125924
 20
326.4950769367
 30
0.0
 11
394.8616084559
 21
335.0800980773
 31
0.0
  0
SPLINE
  5
1C1
330
1F
100
AcDbEntity
  8
0
  6
Continuous
 62
     7
370
    25
100
AcDbSpline
210
0.0
220
0.0
230
1.0
 70
    11
 71
     3
 72
    23
 73
    19
 74
     0
 42
0.000000001
 43
0.00000001
 40
0.0
 40
0.0
 40
0.0
 40
0.0
 40
0.0600271168814641
 40
0.124999999999999
 40
0.1899728831185375
 40
0.2499999999999988
 40
0.3100271168814637
 40
0.3750000000000001
 40
0.4399728831185363
 40
0.4999999999999996
 40
0.5600271168814634
 40
0.6249999999999996
 40
0.6899728831185372
 40
0.7499999999999998
 40
0.8100271168814649
 40
0.8749999999999994
 40
0.9399728831185363
 40
1.0
 40
1.0
 40
1.0
 40
1.0
 10
406.1318298878896
 20
286.3057499581187
 30
0.0
 10
406.053994298419
 20
286.3506834874831
 30
0.0
 10
405.8919100740002
 20
286.4798988458512
 30
0.0
 10
405.681306115905
 20
286.7611182859077
 30
0.0
 10
405.5430609951017
 20
287.0841231729038
 30
0.0
 10
405.4973685048241
 20
287.3875514318108
 30
0.0
 10
405.5430609951017
 20
287.6382242643741
 30
0.0
 10
405.681306115905
 20
287.8016147323791
 30
0.0
 10
405.8919100740002
 20
287.8396760181857
 30
0.0
 10
406.1318298878896
 20
287.7539372590226
 30
0.0
 10
406.3717497017791
 20
287.5626704972972
 30
0.0
 10
406.5823536598743
 20
287.2814510572407
 30
0.0
 10
406.7205987806776
 20
286.9584461702447
 30
0.0
 10
406.7662912709553
 20
286.6550179113376
 30
0.0
 10
406.7205987806776
 20
286.4043450787743
 30
0.0
 10
406.5823536598743
 20
286.2409546107694
 30
0.0
 10
406.3717497017791
 20
286.2028933249628
 30
0.0
 10
406.2096654773603
 20
286.2608164287544
 30
0.0
 10
406.1318298878897
 20
286.3057499581188
 30
0.0
  0
SPLINE
  5
1C2
330
1F
100
AcDbEntity
  8
0
  6
Continuous
 62
     7
370
    25
100
AcDbSpline
210
0.0
220
0.0
230
1.0
 70
    11
 71
     3
 72
    23
 73
    19
 74
     0
 42
0.000000001
 43
0.00000001
 40
0.0
 40
0.0
 40
0.0
 40
0.0
 40
0.0600271168814641
 40
0.1249999999999995
 40
0.1899728831185376
 40
0.2499999999999988
 40
0.3100271168814638
 40
0.3749999999999997
 40
0.4399728831185358
 40
0.4999999999999997
 40
0.5600271168814636
 40
0.6249999999999997
 40
0.6899728831185373
 40
0.7499999999999999
 40
0.810027116881465
 40
0.8749999999999994
 40
0.9399728831185363
 40
1.0
 40
1.0
 40
1.0
 40
1.0
 10
396.2266073863505
 20
292.0239131937307
 30
0.0
 10
396.1487717968798
 20
292.068846723095
 30
0.0
 10
395.9866875724611
 20
292.1980620814631
 30
0.0
 10
395.7760836143658
 20
292.4792815215196
 30
0.0
 10
395.6378384935625
 20
292.8022864085156
 30
0.0
 10
395.5921460032848
 20
293.1057146674227
 30
0.0
 10
395.6378384935625
 20
293.356387499986
 30
0.0
 10
395.7760836143658
 20
293.5197779679909
 30
0.0
 10
395.9866875724611
 20
293.5578392537975
 30
0.0
 10
396.2266073863505
 20
293.4721004946344
 30
0.0
 10
396.4665272002399
 20
293.2808337329091
 30
0.0
 10
396.6771311583352
 20
292.9996142928526
 30
0.0
 10
396.8153762791384
 20
292.6766094058565
 30
0.0
 10
396.8610687694161
 20
292.3731811469495
 30
0.0
 10
396.8153762791384
 20
292.1225083143862
 30
0.0
 10
396.6771311583352
 20
291.9591178463812
 30
0.0
 10
396.4665272002399
 20
291.9210565605746
 30
0.0
 10
396.3044429758211
 20
291.9789796643663
 30
0.0
 10
396.2266073863505
 20
292.0239131937306
 30
0.0
  0
LINE
  5
1C3
330
1F
100
AcDbEntity
  8
0
  6
Continuous
 62
     7
370
    25
100
AcDbLine
 10
393.7390764408
 20
292.9518008948
 30
0.0
 11
393.7390764408
 21
333.1358155997
 31
0.0
  0
LINE
  5
1C4
330
1F
100
AcDbEntity
  8
0
  6
Continuous
 62
   144
370
    18
100
AcDbLine
 10
408.6103805773
 20
284.3667797541
 30
0.0
 11
393.7390764408
 21
292.9518008948
 31
0.0
  0
LINE
  5
1C5
330
1F
100
AcDbEntity
  8
0
  6
Continuous
 62
     7
370
    25
100
AcDbLine
 10
405.8085406675
 20
341.3996275281
 30
0.0
 11
405.8175209237
 21
341.3944433366
 31
0.0
  0
SPLINE
  5
1C6
330
1F
100
AcDbEntity
  8
0
  6
Continuous
 62
     7
370
    25
100
AcDbSpline
210
0.0
220
0.0
230
1.0
 70
     8
 71
     3
 72
     8
 73
     4
 74
     0
 42
0.000000001
 43
0.00000001
 40
0.0
 40
0.0
 40
0.0
 40
0.0
 40
1.0
 40
1.0
 40
1.0
 40
1.0
 10
405.8265011797734
 20
341.3995860471834
 30
0.0
 10
405.8235078249277
 20
341.3978856740235
 30
0.0
 10
405.8205143742902
 20
341.3961714188802
 30
0.0
 10
405.8175209236524
 20
341.3944433366104
 30
0.0
  0
LINE
  5
1C7
330
1F
100
AcDbEntity
  8
0
  6
Continuous
 62
     7
370
    25
100
AcDbLine
 10
405.8265011798
 20
341.3995860472
 30
0.0
 11
420.6888250601
 21
332.819749098
 31
0.0
  0
SPLINE
  5
1C8
330
1F
100
AcDbEntity
  8
0
  6
Continuous
 62
     7
370
    25
100
AcDbSpline
210
0.0
220
0.0
230
1.0
 70
     8
 71
     3
 72
     8
 73
     4
 74
     0
 42
0.000000001
 43
0.00000001
 40
0.0
 40
0.0
 40
0.0
 40
0.0
 40
1.0
 40
1.0
 40
1.0
 40
1.0
 10
420.6978050288912
 20
332.8145232609942
 30
0.0
 10
420.6946801329427
 20
332.8163563259201
 30
0.0
 10
420.6919502561119
 20
332.8179449607799
 30
0.0
 10
420.6888250601429
 20
332.8197490980107
 30
0.0
  0
SPLINE
  5
1C9
330
1F
100
AcDbEntity
  8
0
  6
Continuous
 62
     7
370
    25
100
AcDbSpline
210
0.0
220
0.0
230
1.0
 70
     8
 71
     3
 72
     8
 73
     4
 74
     0
 42
0.000000001
 43
0.00000001
 40
0.0
 40
0.0
 40
0.0
 40
0.0
 40
1.0
 40
1.0
 40
1.0
 40
1.0
 10
420.6888250601428
 20
332.8093807149904
 30
0.0
 10
420.6919501561039
 20
332.8111847944879
 30
0.0
 10
420.6946800329348
 20
332.8127481091921
 30
0.0
 10
420.6978050288912
 20
332.8145232609942
 30
0.0
  0
LINE
  5
1CA
330
1F
100
AcDbEntity
  8
0
  6
Continuous
 62
     7
370
    25
100
AcDbLine
 10
394.8616084559
 20
335.0800980773
 30
0.0
 11
405.8085406675
 21
341.3996275281
 31
0.0
  0
LINE
  5
1CB
330
1F
100
AcDbEntity
  8
0
  6
Continuous
 62
   144
370
    18
100
AcDbLine
 10
417.9466345149
 20
331.22638929
 30
0.0
 11
417.6300124133
 21
331.0436072414
 31
0.0
  0
SPLINE
  5
1CC
330
1F
100
AcDbEntity
  8
0
  6
Continuous
 62
     7
370
    25
100
AcDbSpline
210
0.0
220
0.0
230
1.0
 70
     8
 71
     3
 72
     8
 73
     4
 74
     0
 42
0.000000001
 43
0.00000001
 40
0.0
 40
0.0
 40
0.0
 40
0.0
 40
1.0
 40
1.0
 40
1.0
 40
1.0
 10
421.8023768191554
 20
330.8703239098096
 30
0.0
 10
421.8023768191554
 20
330.8739327707648
 30
0.0
 10
421.802365899124
 20
330.8770915366508
 30
0.0
 10
421.8023408975562
 20
330.8807147152184
 30
0.0
  0
SPLINE
  5
1CD
330
1F
100
AcDbEntity
  8
0
  6
Continuous
 62
     7
370
    25
100
AcDbSpline
210
0.0
220
0.0
230
1.0
 70
     8
 71
     3
 72
     9
 73
     5
 74
     0
 42
0.000000001
 43
0.00000001
 40
0.0
 40
0.0
 40
0.0
 40
0.0
 40
0.4581638624081408
 40
1.0
 40
1.0
 40
1.0
 40
1.0
 10
420.296481541419
 20
312.0843436894524
 30
0.0
 10
420.3667779757063
 20
311.9768204343538
 30
0.0
 10
420.5202087459066
 20
311.7421374662703
 30
0.0
 10
420.5422036074832
 20
311.3861326773093
 30
0.0
 10
420.5541212183267
 20
311.1932364174945
 30
0.0
  0
LINE
  5
1CE
330
1F
100
AcDbEntity
  8
0
  6
Continuous
 62
   144
370
    18
100
AcDbLine
 10
420.5541212183
 20
311.1932364175
 30
0.0
 11
420.5541212183
 21
306.5071583734
 31
0.0
  0
LINE
  5
1CF
330
1F
100
AcDbEntity
  8
0
  6
Continuous
 62
   144
370
    18
100
AcDbLine
 10
415.9472498282
 20
303.1175368744
 30
0.0
 11
415.9472498282
 21
323.2281329694
 31
0.0
  0
ARC
  5
1D0
330
1F
100
AcDbEntity
  8
0
  6
Continuous
 62
   144
370
    18
100
AcDbCircle
 10
419.8173096132
 20
323.0347837968
 30
0.0
 40
3.874886661814037
100
AcDbArc
 50
142.4631019093
 51
177.1398663363
  0
ARC
  5
1D1
330
1F
100
AcDbEntity
  8
0
  6
Continuous
 62
     7
370
    25
100
AcDbCircle
 10
418.5041071659
 20
311.3811467711
 30
0.0
 40
1.780900840440816
100
AcDbArc
 50
358.9580533571
 51
17.3902912208
  0
LINE
  5
1D2
330
1F
100
AcDbEntity
  8
0
  6
Continuous
 62
   144
370
    18
100
AcDbLine
 10
420.2847135347
 20
311.3487621628
 30
0.0
 11
420.2847135347
 21
309.3577343265
 31
0.0
  0
ARC
  5
1D3
330
1F
100
AcDbEntity
  8
0
  6
Continuous
 62
     7
370
    25
100
AcDbCircle
 10
406.9073689393
 20
287.471185299
 30
0.0
 40
1.116570012432673
100
AcDbArc
 50
162.2809750111
 51
258.5312895973
  0
ARC
  5
1D4
330
1F
100
AcDbEntity
  8
0
  6
Continuous
 62
     7
370
    25
100
AcDbCircle
 10
397.0021464378
 20
293.1893485346
 30
0.0
 40
1.116570012432447
100
AcDbArc
 50
162.2809750111
 51
258.5312895973
  0
ARC
  5
1D5
330
1F
100
AcDbEntity
  8
0
  6
Continuous
 62
   144
370
    18
100
AcDbCircle
 10
394.0339129729
 20
293.654174136
 30
0.0
 40
0.7617458569669164
100
AcDbArc
 50
184.0914350817
 51
247.2287058759
  0
LINE
  5
1D6
330
1F
100
AcDbEntity
  8
0
  6
Continuous
 62
   144
370
    18
100
AcDbLine
 10
420.5541212183
 20
311.1932364175
 30
0.0
 11
420.2847135347
 21
311.3487621628
 31
0.0
  0
LINE
  5
1D7
330
1F
100
AcDbEntity
  8
0
  6
Continuous
 62
     7
370
    25
100
AcDbLine
 10
427.8034232447
 20
300.8240326607
 30
0.0
 11
427.8031615757
 21
300.7904228553
 31
0.0
  0
LINE
  5
1D8
330
1F
100
AcDbEntity
  8
0
  6
Continuous
 62
     7
370
    25
100
AcDbLine
 10
414.8494232447
 20
300.8240326607
 30
0.0
 11
414.8496670296
 21
300.856473609
 31
0.0
  0
LWPOLYLINE
  5
1D9
330
1F
100
AcDbEntity
  8
0
  6
Continuous
 62
   144
370
    18
100
AcDbPolyline
 90
       10
 70
   128
 43
0.0
 10
414.8494232447
 20
286.2022363423
 10
414.8686147365
 20
285.914611309
 10
414.9787889003
 20
285.4586621538
 10
415.1851867303
 20
285.0139848252
 10
415.4846794458
 20
284.5873201784
 10
415.8727270426
 20
284.1851360145
 10
416.3434471147
 20
283.8135290355
 10
416.8897040255
 20
283.4781324243
 10
417.5032170771
 20
283.1840304517
 10
417.573990852
 20
283.154573809
  0
LWPOLYLINE
  5
1DA
330
1F
100
AcDbEntity
  8
0
  6
Continuous
 62
   144
370
    18
100
AcDbPolyline
 90
       15
 70
   128
 43
0.0
 10
420.9754643369
 20
282.4686369638
 10
421.2266816205
 20
282.4635872019
 10
422.0232906887
 20
282.4848483965
 10
422.8093359568
 20
282.5624614031
 10
423.5729017797
 20
282.6952496876
 10
424.302413278
 20
282.881200315
 10
424.9868118009
 20
283.1174944633
 10
425.6157225646
 20
283.400550154
 10
426.1796119228
 20
283.7260765515
 10
426.6699318877
 20
284.0891390073
 10
427.0792497085
 20
284.4842338648
 10
427.4013605442
 20
284.9053718886
 10
427.6313815228
 20
285.3461690555
 10
427.7658257609
 20
285.7999433299
 10
427.8034232447
 20
286.2022363423
  0
SPLINE
  5
1DB
330
1F
100
AcDbEntity
  8
0
  6
Continuous
 62
   144
370
    18
100
AcDbSpline
210
0.0
220
0.0
230
1.0
 70
    11
 71
     3
 72
    70
 73
    66
 74
     0
 42
0.000000001
 43
0.00000001
 40
0.0
 40
0.0
 40
0.0
 40
0.0
 40
0.03125
 40
0.03125
 40
0.0625
 40
0.0625
 40
0.09375
 40
0.09375
 40
0.125
 40
0.125
 40
0.15625
 40
0.15625
 40
0.1875
 40
0.1875
 40
0.21875
 40
0.21875
 40
0.25
 40
0.25
 40
0.28125
 40
0.28125
 40
0.3125
 40
0.3125
 40
0.34375
 40
0.34375
 40
0.375
 40
0.375
 40
0.40625
 40
0.40625
 40
0.4375
 40
0.4375
 40
0.46875
 40
0.46875
 40
0.5
 40
0.5
 40
0.53125
 40
0.53125
 40
0.5625
 40
0.5625
 40
0.59375
 40
0.59375
 40
0.625
 40
0.625
 40
0.65625
 40
0.65625
 40
0.6875
 40
0.6875
 40
0.71875
 40
0.71875
 40
0.75
 40
0.75
 40
0.78125
 40
0.78125
 40
0.8125
 40
0.8125
 40
0.84375
 40
0.84375
 40
0.875
 40
0.875
 40
0.90625
 40
0.90625
 40
0.9375
 40
0.9375
 40
0.96875
 40
0.96875
 40
1.0
 40
1.0
 40
1.0
 40
1.0
 10
416.7464926229852
 20
294.8608136327715
 30
0.0
 10
416.8420661287292
 20
294.9159870432384
 30
0.0
 10
416.9389127573002
 20
294.9793482047632
 30
0.0
 10
417.1347485599053
 20
295.1218632590367
 30
0.0
 10
417.2348637806938
 20
295.2020600981871
 30
0.0
 10
417.4297197218979
 20
295.3737278517752
 30
0.0
 10
417.5245425476647
 20
295.4650413406963
 30
0.0
 10
417.7078866910866
 20
295.6594240197298
 30
0.0
 10
417.7962140823964
 20
295.7625591862097
 30
0.0
 10
417.9577538285482
 20
295.9732869900375
 30
0.0
 10
418.0320056717144
 20
296.0819046653909
 30
0.0
 10
418.1653823669888
 20
296.3072540001294
 30
0.0
 10
418.2224989268702
 20
296.4206977648355
 30
0.0
 10
418.3160909969819
 20
296.6489371493158
 30
0.0
 10
418.3529303763014
 20
296.7651838944142
 30
0.0
 10
418.4021014792772
 20
296.9941850416549
 30
0.0
 10
418.4144711496219
 20
297.1058679604374
 30
0.0
 10
418.4146424259289
 20
297.3238938400719
 30
0.0
 10
418.4020055218592
 20
297.4309827241451
 30
0.0
 10
418.3531164042348
 20
297.6299389702139
 30
0.0
 10
418.3170567174365
 20
297.7229864242698
 30
0.0
 10
418.2224880508176
 20
297.8955196052463
 30
0.0
 10
418.1648335718576
 20
297.9731533762696
 30
0.0
 10
418.0330770976744
 20
298.1084232343937
 30
0.0
 10
417.9578554312623
 20
298.167001291261
 30
0.0
 10
417.7952607241074
 20
298.2608779051509
 30
0.0
 10
417.7085579192214
 20
298.2961366591809
 30
0.0
 10
417.5258170011466
 20
298.3426204687034
 30
0.0
 10
417.4289128711124
 20
298.3536080603093
 30
0.0
 10
417.2347994560193
 20
298.3489835687927
 30
0.0
 10
417.1367813669961
 20
298.3337856800583
 30
0.0
 10
416.9395641198668
 20
298.2762809483731
 30
0.0
 10
416.841267427296
 20
298.2338880656927
 30
0.0
 10
416.6529162431495
 20
298.1252743755485
 30
0.0
 10
416.5612438545199
 20
298.0583034610707
 30
0.0
 10
416.3862088241206
 20
297.9009820570537
 30
0.0
 10
416.3047243574659
 20
297.8125217753757
 30
0.0
 10
416.1524139406861
 20
297.617189609634
 30
0.0
 10
416.0810881922017
 20
297.5091683015769
 30
0.0
 10
415.9532661529113
 20
297.2833778765406
 30
0.0
 10
415.8961044233226
 20
297.1650175509769
 30
0.0
 10
415.7936079424854
 20
296.9179055514203
 30
0.0
 10
415.7489031268984
 20
296.7903120854617
 30
0.0
 10
415.6732235399402
 20
296.5356107749017
 30
0.0
 10
415.6416780820244
 20
296.4068947348925
 30
0.0
 10
415.5909040391086
 20
296.1501690259234
 30
0.0
 10
415.5723068577128
 20
296.0256496391686
 30
0.0
 10
415.5472774453456
 20
295.7846287129882
 30
0.0
 10
415.540888626333
 20
295.6667978476128
 30
0.0
 10
415.5408619634286
 20
295.4480425485601
 30
0.0
 10
415.5470251394281
 20
295.3469791917892
 30
0.0
 10
415.5720171845707
 20
295.1611385407546
 30
0.0
 10
415.5910352926315
 20
295.0766690239269
 30
0.0
 10
415.6412083913293
 20
294.9309243717845
 30
0.0
 10
415.6725665954816
 20
294.8683563946395
 30
0.0
 10
415.7491915052232
 20
294.7642494760761
 30
0.0
 10
415.7934303099681
 20
294.7240046207287
 30
0.0
 10
415.895122876401
 20
294.6651456767345
 30
0.0
 10
415.9533287000248
 20
294.6465406391484
 30
0.0
 10
416.0813302418915
 20
294.6319687699884
 30
0.0
 10
416.1510255656892
 20
294.6356646717998
 30
0.0
 10
416.3033965133245
 20
294.66449221719
 30
0.0
 10
416.3865863695137
 20
294.6900336255014
 30
0.0
 10
416.559935022668
 20
294.7605731871058
 30
0.0
 10
416.6509191172412
 20
294.8056402223045
 30
0.0
 10
416.7464926229852
 20
294.8608136327715
 30
0.0
  0
LINE
  5
1DC
330
1F
100
AcDbEntity
  8
0
  6
Continuous
 62
     7
370
    25
100
AcDbLine
 10
432.327236993
 20
287.357160023
 30
0.0
 11
426.6778905175
 21
284.0958617213
 31
0.0
  0
LINE
  5
1DD
330
1F
100
AcDbEntity
  8
0
  6
Continuous
 62
     7
370
    25
100
AcDbLine
 10
424.975166457
 20
283.1129000441
 30
0.0
 11
419.3058656175
 21
279.8400823334
 31
0.0
  0
LINE
  5
1DE
330
1F
100
AcDbEntity
  8
0
  6
Continuous
 62
     7
370
    25
100
AcDbLine
 10
432.327236993
 20
285.8057740462
 30
0.0
 11
432.327236993
 21
287.357160023
 31
0.0
  0
LINE
  5
1DF
330
1F
100
AcDbEntity
  8
0
  6
Continuous
 62
     7
370
    25
100
AcDbLine
 10
419.3058656175
 20
278.2886963566
 30
0.0
 11
419.3058656175
 21
279.8400823334
 31
0.0
  0
LINE
  5
1E0
330
1F
100
AcDbEntity
  8
0
  6
Continuous
 62
     7
370
    25
100
AcDbLine
 10
419.3058656175
 20
279.8400823334
 30
0.0
 11
410.3256094964
 21
285.0242738434
 31
0.0
  0
LINE
  5
1E1
330
1F
100
AcDbEntity
  8
0
  6
Continuous
 62
     7
370
    25
100
AcDbLine
 10
410.3256094964
 20
285.0242738434
 30
0.0
 11
410.3256094964
 21
283.4728878667
 31
0.0
  0
LINE
  5
1E2
330
1F
100
AcDbEntity
  8
0
  6
Continuous
 62
     7
370
    25
100
AcDbLine
 10
410.3256094964
 20
285.0242738434
 30
0.0
 11
411.3051863327
 21
285.5897715141
 31
0.0
  0
LINE
  5
1E3
330
1F
100
AcDbEntity
  8
0
  6
Continuous
 62
     7
370
    25
100
AcDbLine
 10
414.2232668798
 20
287.2743435568
 30
0.0
 11
414.8494232447
 21
287.6358159321
 31
0.0
  0
LINE
  5
1E4
330
1F
100
AcDbEntity
  8
0
  6
Continuous
 62
     7
370
    25
100
AcDbLine
 10
427.8034232447
 20
289.9687021116
 30
0.0
 11
428.3747032015
 21
289.6389092125
 31
0.0
  0
LINE
  5
1E5
330
1F
100
AcDbEntity
  8
0
  6
Continuous
 62
     7
370
    25
100
AcDbLine
 10
431.3027588761
 20
287.9485786512
 30
0.0
 11
432.327236993
 21
287.357160023
 31
0.0
  0
LWPOLYLINE
  5
1E6
330
1F
100
AcDbEntity
  8
0
  6
Continuous
 62
     7
370
    25
100
AcDbPolyline
 90
       26
 70
   128
 43
0.0
 10
419.3404573629
 20
282.1663348837
 10
418.9436600207
 20
282.1836780801
 10
418.5668000757
 20
282.2574428629
 10
418.2335570242
 20
282.3829943196
 10
417.9648697527
 20
282.5524435903
 10
417.7776208706
 20
282.7551435543
 10
417.6835759139
 20
282.9783578272
 10
417.688644073
 20
283.2080610355
 10
417.7925068968
 20
283.4298200817
 10
417.9886383023
 20
283.6297010293
 10
418.2647146317
 20
283.7951446234
 10
418.6033889941
 20
283.9157554345
 10
418.9833812337
 20
283.9839550417
 10
419.3808150405
 20
283.9954582129
 10
419.7707181869
 20
283.9495421615
 10
420.1285916241
 20
283.8490919619
 10
420.4319488479
 20
283.7004192696
 10
420.6617288083
 20
283.5128657367
 10
420.8034935854
 20
283.2982160413
 10
420.8483355767
 20
283.0699574132
 10
420.7934371951
 20
282.8424321816
 10
420.6422479077
 20
282.6299365935
 10
420.4042674936
 20
282.4458225282
 10
420.0944491374
 20
282.3016585496
 10
419.7322598659
 20
282.2065030106
 10
419.3404573629
 20
282.1663348837
  0
LWPOLYLINE
  5
1E7
330
1F
100
AcDbEntity
  8
0
  6
Continuous
 62
     7
370
    25
100
AcDbPolyline
 90
       21
 70
   128
 43
0.0
 10
420.4734959058
 20
283.6776808718
 10
420.6214302977
 20
283.5802594308
 10
420.8315948984
 20
283.3748029922
 10
420.9504801599
 20
283.1462816658
 10
420.9711769029
 20
282.9079762802
 10
420.8924823079
 20
282.6737362784
 10
420.7189698188
 20
282.4571748378
 10
420.4607233507
 20
282.2708777222
 10
420.1327512496
 20
282.1256718427
 10
419.7541140621
 20
282.0299960373
 10
419.346816805
 20
281.989410636
 10
418.9345301145
 20
282.0062743149
 10
418.5412145945
 20
282.0796070181
 10
418.1897283133
 20
282.2051469156
 10
417.9004983761
 20
282.3755980848
 10
417.6903337754
 20
282.5810545234
 10
417.5714485139
 20
282.8095758498
 10
417.5507517709
 20
283.0478812354
 10
417.6294463659
 20
283.2821212372
 10
417.802958855
 20
283.4986826778
 10
418.048432768
 20
283.6776808718
  0
LWPOLYLINE
  5
1E8
330
1F
100
AcDbEntity
  8
0
  6
Continuous
 62
   144
370
    18
100
AcDbPolyline
 90
        8
 70
   128
 43
0.0
 10
419.346816805
 20
280.3924201161
 10
418.9345301145
 20
280.409283795
 10
418.5412145945
 20
280.4826164982
 10
418.1897283133
 20
280.6081563957
 10
417.9004983761
 20
280.7786075649
 10
417.6903337754
 20
280.9840640035
 10
417.5714485139
 20
281.21258533
 10
417.5464643369
 20
281.3809382379
  0
LWPOLYLINE
  5
1E9
330
1F
100
AcDbEntity
  8
0
  6
Continuous
 62
   144
370
    18
100
AcDbPolyline
 90
        8
 70
   128
 43
0.0
 10
420.9754643369
 20
281.3809382379
 10
420.9711769029
 20
281.3109857603
 10
420.8924823079
 20
281.0767457585
 10
420.7189698188
 20
280.8601843179
 10
420.4607233507
 20
280.6738872023
 10
420.1327512496
 20
280.5286813228
 10
419.7541140621
 20
280.4330055174
 10
419.346816805
 20
280.3924201161
  0
LINE
  5
1EA
330
1F
100
AcDbEntity
  8
0
  6
Continuous
 62
     7
370
    25
100
AcDbLine
 10
418.3926225202
 20
282.7577039899
 30
0.0
 11
418.3408525993
 21
283.3537905804
 31
0.0
  0
LINE
  5
1EB
330
1F
100
AcDbEntity
  8
0
  6
Continuous
 62
     7
370
    25
100
AcDbLine
 10
419.3127342578
 20
282.4855428504
 30
0.0
 11
418.3926225202
 21
282.7577039899
 31
0.0
  0
LINE
  5
1EC
330
1F
100
AcDbEntity
  8
0
  6
Continuous
 62
     7
370
    25
100
AcDbLine
 10
420.1810760745
 20
282.8094683014
 30
0.0
 11
419.3127342578
 21
282.4855428504
 31
0.0
  0
LINE
  5
1ED
330
1F
100
AcDbEntity
  8
0
  6
Continuous
 62
     7
370
    25
100
AcDbLine
 10
420.1293061536
 20
283.4055548919
 30
0.0
 11
420.1810760745
 21
282.8094683014
 31
0.0
  0
LINE
  5
1EE
330
1F
100
AcDbEntity
  8
0
  6
Continuous
 62
     7
370
    25
100
AcDbLine
 10
419.209194416
 20
283.6777160315
 30
0.0
 11
420.1293061536
 21
283.4055548919
 31
0.0
  0
LINE
  5
1EF
330
1F
100
AcDbEntity
  8
0
  6
Continuous
 62
     7
370
    25
100
AcDbLine
 10
418.3408525993
 20
283.3537905804
 30
0.0
 11
419.209194416
 21
283.6777160315
 31
0.0
  0
LINE
  5
1F0
330
1F
100
AcDbEntity
  8
0
  6
Continuous
 62
     7
370
    25
100
AcDbLine
 10
419.209194416
 20
282.9466262155
 30
0.0
 11
418.5655976167
 21
282.7065394438
 31
0.0
  0
LINE
  5
1F1
330
1F
100
AcDbEntity
  8
0
  6
Continuous
 62
     7
370
    25
100
AcDbLine
 10
419.9563310571
 20
282.7256296221
 30
0.0
 11
419.209194416
 21
282.9466262155
 31
0.0
  0
LINE
  5
1F2
330
1F
100
AcDbEntity
  8
0
  6
Continuous
 62
     7
370
    25
100
AcDbLine
 10
420.1293061536
 20
283.4055548919
 30
0.0
 11
420.1293061536
 21
282.7901560966
 31
0.0
  0
LINE
  5
1F3
330
1F
100
AcDbEntity
  8
0
  6
Continuous
 62
     7
370
    25
100
AcDbLine
 10
419.209194416
 20
282.9466262155
 30
0.0
 11
419.209194416
 21
283.6777160315
 31
0.0
  0
LWPOLYLINE
  5
1F4
330
1F
100
AcDbEntity
  8
0
  6
Continuous
 62
     7
370
    25
100
AcDbPolyline
 90
       26
 70
   128
 43
0.0
 10
413.0991793587
 20
285.7578285742
 10
412.7023820166
 20
285.7751717705
 10
412.3255220716
 20
285.8489365534
 10
411.9922790201
 20
285.97448801
 10
411.7235917486
 20
286.1439372808
 10
411.5363428665
 20
286.3466372447
 10
411.4422979097
 20
286.5698515177
 10
411.4473660688
 20
286.7995547259
 10
411.5512288927
 20
287.0213137721
 10
411.7473602981
 20
287.2211947197
 10
412.0234366276
 20
287.3866383138
 10
412.36211099
 20
287.5072491249
 10
412.7421032296
 20
287.5754487321
 10
413.1395370364
 20
287.5869519033
 10
413.5294401827
 20
287.5410358519
 10
413.8873136199
 20
287.4405856523
 10
414.1906708438
 20
287.2919129601
 10
414.4204508042
 20
287.1043594271
 10
414.5622155812
 20
286.8897097317
 10
414.6070575726
 20
286.6614511036
 10
414.5521591909
 20
286.433925872
 10
414.4009699036
 20
286.2214302839
 10
414.1629894895
 20
286.0373162186
 10
413.8531711333
 20
285.89315224
 10
413.4909818617
 20
285.797996701
 10
413.0991793587
 20
285.7578285742
  0
LWPOLYLINE
  5
1F5
330
1F
100
AcDbEntity
  8
0
  6
Continuous
 62
     7
370
    25
100
AcDbPolyline
 90
       21
 70
   128
 43
0.0
 10
414.2322179017
 20
287.2691745622
 10
414.3801522936
 20
287.1717531212
 10
414.5903168943
 20
286.9662966827
 10
414.7092021558
 20
286.7377753562
 10
414.7298988987
 20
286.4994699706
 10
414.6512043038
 20
286.2652299688
 10
414.4776918146
 20
286.0486685282
 10
414.2194453465
 20
285.8623714126
 10
413.8914732455
 20
285.7171655331
 10
413.5128360579
 20
285.6214897277
 10
413.1055388008
 20
285.5809043264
 10
412.6932521103
 20
285.5977680053
 10
412.2999365903
 20
285.6711007085
 10
411.9484503092
 20
285.796640606
 10
411.6592203719
 20
285.9670917752
 10
411.4490557712
 20
286.1725482138
 10
411.3301705097
 20
286.4010695403
 10
411.3094737667
 20
286.6393749258
 10
411.3881683617
 20
286.8736149276
 10
411.5616808508
 20
287.0901763682
 10
411.8071547638
 20
287.2691745622
  0
LWPOLYLINE
  5
1F6
330
1F
100
AcDbEntity
  8
0
  6
Continuous
 62
   144
370
    18
100
AcDbPolyline
 90
        8
 70
   128
 43
0.0
 10
413.1055388008
 20
283.9839138065
 10
412.6932521103
 20
284.0007774854
 10
412.2999365903
 20
284.0741101886
 10
411.9484503092
 20
284.1996500861
 10
411.6592203719
 20
284.3701012554
 10
411.4490557712
 20
284.5755576939
 10
411.3301705097
 20
284.8040790204
 10
411.3051863327
 20
284.9724319283
  0
LWPOLYLINE
  5
1F7
330
1F
100
AcDbEntity
  8
0
  6
Continuous
 62
   144
370
    18
100
AcDbPolyline
 90
        8
 70
   128
 43
0.0
 10
414.7341863327
 20
284.9724319283
 10
414.7298988987
 20
284.9024794508
 10
414.6512043038
 20
284.6682394489
 10
414.4776918146
 20
284.4516780083
 10
414.2194453465
 20
284.2653808927
 10
413.8914732455
 20
284.1201750132
 10
413.5128360579
 20
284.0244992078
 10
413.1055388008
 20
283.9839138065
  0
LINE
  5
1F8
330
1F
100
AcDbEntity
  8
0
  6
Continuous
 62
     7
370
    25
100
AcDbLine
 10
413.9397980703
 20
286.4009619918
 30
0.0
 11
413.0714562537
 21
286.0770365408
 31
0.0
  0
LINE
  5
1F9
330
1F
100
AcDbEntity
  8
0
  6
Continuous
 62
     7
370
    25
100
AcDbLine
 10
413.8880281494
 20
286.9970485824
 30
0.0
 11
413.9397980703
 21
286.4009619918
 31
0.0
  0
LINE
  5
1FA
330
1F
100
AcDbEntity
  8
0
  6
Continuous
 62
     7
370
    25
100
AcDbLine
 10
412.9679164118
 20
287.2692097219
 30
0.0
 11
413.8880281494
 21
286.9970485824
 31
0.0
  0
LINE
  5
1FB
330
1F
100
AcDbEntity
  8
0
  6
Continuous
 62
     7
370
    25
100
AcDbLine
 10
412.0995745951
 20
286.9452842708
 30
0.0
 11
412.9679164118
 21
287.2692097219
 31
0.0
  0
LINE
  5
1FC
330
1F
100
AcDbEntity
  8
0
  6
Continuous
 62
   144
370
    18
100
AcDbLine
 10
413.0714562537
 20
286.0770365408
 30
0.0
 11
412.1513445161
 21
286.3491976803
 31
0.0
  0
LINE
  5
1FD
330
1F
100
AcDbEntity
  8
0
  6
Continuous
 62
   144
370
    18
100
AcDbLine
 10
412.1513445161
 20
286.3491976803
 30
0.0
 11
412.0995745951
 21
286.9452842708
 31
0.0
  0
LINE
  5
1FE
330
1F
100
AcDbEntity
  8
0
  6
Continuous
 62
     7
370
    25
100
AcDbLine
 10
412.9679164118
 20
286.5381199059
 30
0.0
 11
412.3243196125
 21
286.2980331342
 31
0.0
  0
LINE
  5
1FF
330
1F
100
AcDbEntity
  8
0
  6
Continuous
 62
     7
370
    25
100
AcDbLine
 10
413.715053053
 20
286.3171233125
 30
0.0
 11
412.9679164118
 21
286.5381199059
 31
0.0
  0
LINE
  5
200
330
1F
100
AcDbEntity
  8
0
  6
Continuous
 62
     7
370
    25
100
AcDbLine
 10
413.8880281494
 20
286.9970485824
 30
0.0
 11
413.8880281494
 21
286.381649787
 31
0.0
  0
LINE
  5
201
330
1F
100
AcDbEntity
  8
0
  6
Continuous
 62
     7
370
    25
100
AcDbLine
 10
412.9679164118
 20
286.5381199059
 30
0.0
 11
412.9679164118
 21
287.2692097219
 31
0.0
  0
LWPOLYLINE
  5
202
330
1F
100
AcDbEntity
  8
0
  6
Continuous
 62
     7
370
    25
100
AcDbPolyline
 90
       26
 70
   128
 43
0.0
 10
429.6677519021
 20
288.1281551203
 10
429.27095456
 20
288.1454983167
 10
428.894094615
 20
288.2192630995
 10
428.5608515635
 20
288.3448145562
 10
428.2921642919
 20
288.5142638269
 10
428.1049154099
 20
288.7169637909
 10
428.0108704531
 20
288.9401780638
 10
428.0159386122
 20
289.1698812721
 10
428.1198014361
 20
289.3916403182
 10
428.3159328415
 20
289.5915212659
 10
428.592009171
 20
289.75696486
 10
428.9306835334
 20
289.8775756711
 10
429.3106757729
 20
289.9457752783
 10
429.7081095798
 20
289.9572784495
 10
430.0980127261
 20
289.9113623981
 10
430.4558861633
 20
289.8109121985
 10
430.7592433871
 20
289.6622395062
 10
430.9890233476
 20
289.4746859733
 10
431.1307881246
 20
289.2600362779
 10
431.1756301159
 20
289.0317776498
 10
431.1207317343
 20
288.8042524182
 10
430.969542447
 20
288.5917568301
 10
430.7315620329
 20
288.4076427648
 10
430.4217436767
 20
288.2634787862
 10
430.0595544051
 20
288.1683232472
 10
429.6677519021
 20
288.1281551203
  0
LWPOLYLINE
  5
203
330
1F
100
AcDbEntity
  8
0
  6
Continuous
 62
     7
370
    25
100
AcDbPolyline
 90
       21
 70
   128
 43
0.0
 10
430.800790445
 20
289.6395011083
 10
430.9487248369
 20
289.5420796674
 10
431.1588894376
 20
289.3366232288
 10
431.2777746991
 20
289.1081019023
 10
431.2984714421
 20
288.8697965168
 10
431.2197768471
 20
288.635556515
 10
431.046264358
 20
288.4189950744
 10
430.7880178899
 20
288.2326979587
 10
430.4600457889
 20
288.0874920793
 10
430.0814086013
 20
287.9918162739
 10
429.6741113442
 20
287.9512308726
 10
429.2618246537
 20
287.9680945514
 10
428.8685091337
 20
288.0414272547
 10
428.5170228526
 20
288.1669671522
 10
428.2277929153
 20
288.3374183214
 10
428.0176283146
 20
288.54287476
 10
427.8987430531
 20
288.7713960864
 10
427.8780463101
 20
289.009701472
 10
427.9567409051
 20
289.2439414738
 10
428.1302533942
 20
289.4605029144
 10
428.3757273072
 20
289.6395011083
  0
LWPOLYLINE
  5
204
330
1F
100
AcDbEntity
  8
0
  6
Continuous
 62
   144
370
    18
100
AcDbPolyline
 90
        8
 70
   128
 43
0.0
 10
429.6741113442
 20
286.3542403527
 10
429.2618246537
 20
286.3711040316
 10
428.8685091337
 20
286.4444367348
 10
428.5170228526
 20
286.5699766323
 10
428.2277929153
 20
286.7404278015
 10
428.0176283146
 20
286.9458842401
 10
427.8987430531
 20
287.1744055665
 10
427.8737588761
 20
287.3427584745
  0
LWPOLYLINE
  5
205
330
1F
100
AcDbEntity
  8
0
  6
Continuous
 62
   144
370
    18
100
AcDbPolyline
 90
        8
 70
   128
 43
0.0
 10
431.3027588761
 20
287.3427584745
 10
431.2984714421
 20
287.2728059969
 10
431.2197768471
 20
287.0385659951
 10
431.046264358
 20
286.8220045545
 10
430.7880178899
 20
286.6357074389
 10
430.4600457889
 20
286.4905015594
 10
430.0814086013
 20
286.394825754
 10
429.6741113442
 20
286.3542403527
  0
LINE
  5
206
330
1F
100
AcDbEntity
  8
0
  6
Continuous
 62
     7
370
    25
100
AcDbLine
 10
428.7199170594
 20
288.7195242265
 30
0.0
 11
428.6681471385
 21
289.315610817
 31
0.0
  0
LINE
  5
207
330
1F
100
AcDbEntity
  8
0
  6
Continuous
 62
     7
370
    25
100
AcDbLine
 10
429.640028797
 20
288.447363087
 30
0.0
 11
428.7199170594
 21
288.7195242265
 31
0.0
  0
LINE
  5
208
330
1F
100
AcDbEntity
  8
0
  6
Continuous
 62
     7
370
    25
100
AcDbLine
 10
430.5083706137
 20
288.771288538
 30
0.0
 11
429.640028797
 21
288.447363087
 31
0.0
  0
LINE
  5
209
330
1F
100
AcDbEntity
  8
0
  6
Continuous
 62
     7
370
    25
100
AcDbLine
 10
429.5364889552
 20
289.639536268
 30
0.0
 11
430.4566006928
 21
289.3673751285
 31
0.0
  0
LINE
  5
20A
330
1F
100
AcDbEntity
  8
0
  6
Continuous
 62
     7
370
    25
100
AcDbLine
 10
428.6681471385
 20
289.315610817
 30
0.0
 11
429.5364889552
 21
289.639536268
 31
0.0
  0
LINE
  5
20B
330
1F
100
AcDbEntity
  8
0
  6
Continuous
 62
   144
370
    18
100
AcDbLine
 10
430.4566006928
 20
289.3673751285
 30
0.0
 11
430.5083706137
 21
288.771288538
 31
0.0
  0
LINE
  5
20C
330
1F
100
AcDbEntity
  8
0
  6
Continuous
 62
     7
370
    25
100
AcDbLine
 10
429.5364889552
 20
288.9084464521
 30
0.0
 11
428.8928921559
 21
288.6683596804
 31
0.0
  0
LINE
  5
20D
330
1F
100
AcDbEntity
  8
0
  6
Continuous
 62
     7
370
    25
100
AcDbLine
 10
430.2836255963
 20
288.6874498587
 30
0.0
 11
429.5364889552
 21
288.9084464521
 31
0.0
  0
LINE
  5
20E
330
1F
100
AcDbEntity
  8
0
  6
Continuous
 62
     7
370
    25
100
AcDbLine
 10
429.5364889552
 20
288.9084464521
 30
0.0
 11
429.5364889552
 21
289.639536268
 31
0.0
  0
LINE
  5
20F
330
1F
100
AcDbEntity
  8
0
  6
Continuous
 62
   144
370
    18
100
AcDbLine
 10
430.4566006928
 20
289.3673751285
 30
0.0
 11
430.4566006928
 21
288.7519763332
 31
0.0
  0
SPLINE
  5
210
330
1F
100
AcDbEntity
  8
0
  6
Continuous
 62
     7
370
    25
100
AcDbSpline
210
0.0
220
0.0
230
1.0
 70
     8
 71
     3
 72
     8
 73
     4
 74
     0
 42
0.000000001
 43
0.00000001
 40
0.0
 40
0.0
 40
0.0
 40
0.0
 40
1.0
 40
1.0
 40
1.0
 40
1.0
 10
419.2842599834133
 20
312.9994010670479
 30
0.0
 10
419.4196395080141
 20
313.1718628182483
 30
0.0
 10
419.5246189558429
 20
313.3550924563752
 30
0.0
 10
419.6124740496725
 20
313.5443876419868
 30
0.0
  0
LINE
  5
211
330
1F
100
AcDbEntity
  8
0
  6
Continuous
 62
     7
370
    25
100
AcDbLine
 10
419.284259983
 20
312.9994010666
 30
0.0
 11
419.2488940109
 21
312.9554061334
 31
0.0
  0
LINE
  5
212
330
1F
100
AcDbEntity
  8
0
  6
Continuous
 62
     7
370
    25
100
AcDbLine
 10
418.7705750428
 20
312.4970732554
 30
0.0
 11
417.1618294686
 21
313.425782325
 31
0.0
  0
LINE
  5
213
330
1F
100
AcDbEntity
  8
0
  6
Continuous
 62
     7
370
    25
100
AcDbLine
 10
419.1831207221
 20
313.7922480421
 30
0.0
 11
419.6124740497
 21
313.544387642
 31
0.0
  0
LINE
  5
214
330
1F
100
AcDbEntity
  8
0
  6
Continuous
 62
   144
370
    18
100
AcDbLine
 10
417.1618294686
 20
313.425782325
 30
0.0
 11
417.4923594647
 21
313.8369584979
 31
0.0
  0
SPLINE
  5
215
330
1F
100
AcDbEntity
  8
0
  6
Continuous
 62
   144
370
    18
100
AcDbSpline
210
0.0
220
0.0
230
1.0
 70
     8
 71
     3
 72
     8
 73
     4
 74
     0
 42
0.000000001
 43
0.00000001
 40
0.0
 40
0.0
 40
0.0
 40
0.0
 40
1.0
 40
1.0
 40
1.0
 40
1.0
 10
419.2488940104986
 20
312.9554061329596
 30
0.0
 10
419.1090660589458
 20
312.7855124002335
 30
0.0
 10
418.9462852183569
 20
312.6356507878114
 30
0.0
 10
418.7705750273304
 20
312.4970732669904
 30
0.0
  0
LWPOLYLINE
  5
216
330
1F
100
AcDbEntity
  8
0
  6
Continuous
 62
     7
370
    25
100
AcDbPolyline
 90
       17
 70
   128
 43
0.0
 10
419.5090439122
 20
312.6324166706
 10
419.6409331968
 20
312.7602539155
 10
419.7799158899
 20
312.8299677095
 10
419.9048331362
 20
312.8309447592
 10
419.9966674175
 20
312.7630363178
 10
420.0414377968
 20
312.6365808298
 10
420.0323283899
 20
312.4708299969
 10
419.9707260212
 20
312.291017881
 10
419.866009093
 20
312.1245192467
 10
419.7341198084
 20
311.9966820017
 10
419.5951371154
 20
311.9269682078
 10
419.4702198691
 20
311.9259911581
 10
419.3783855878
 20
311.9938995995
 10
419.3336152084
 20
312.1203550875
 10
419.3427246154
 20
312.2861059203
 10
419.4043269841
 20
312.4659180363
 10
419.5090439122
 20
312.6324166706
  0
ARC
  5
217
330
1F
100
AcDbEntity
  8
0
  6
Continuous
 62
     7
370
    25
100
AcDbCircle
 10
420.180291885
 20
312.3786147067
 30
0.0
 40
1.090068288638047
100
AcDbArc
 50
94.7095085271
 51
145.2851149409
  0
LINE
  5
218
330
1F
100
AcDbEntity
  8
0
  6
Continuous
 62
     7
370
    25
100
AcDbLine
 10
420.1261589944
 20
313.4618404286
 30
0.0
 11
420.0907930222
 21
313.4650026795
 31
0.0
  0
ARC
  5
219
330
1F
100
AcDbEntity
  8
0
  6
Continuous
 62
     7
370
    25
100
AcDbCircle
 10
420.0137907817
 20
312.9542630378
 30
0.0
 40
0.5198667357209923
100
AcDbArc
 50
352.6842361312
 51
77.5171068615
  0
LINE
  5
21A
330
1F
100
AcDbEntity
  8
0
  6
Continuous
 62
     7
370
    25
100
AcDbLine
 10
420.529425514
 20
312.8409073207
 30
0.0
 11
420.529425514
 21
312.8880645047
 31
0.0
  0
LINE
  5
21B
330
1F
100
AcDbEntity
  8
0
  6
Continuous
 62
     7
370
    25
100
AcDbLine
 10
420.0907930222
 20
311.7575348507
 30
0.0
 11
420.1261589944
 21
311.8015297838
 31
0.0
  0
ARC
  5
21C
330
1F
100
AcDbEntity
  8
0
  6
Continuous
 62
     7
370
    25
100
AcDbCircle
 10
419.1947611203
 20
312.3783212106
 30
0.0
 40
1.090068288601215
100
AcDbArc
 50
274.7095085257
 51
325.2851149416
  0
LINE
  5
21D
330
1F
100
AcDbEntity
  8
0
  6
Continuous
 62
     7
370
    25
100
AcDbLine
 10
419.2488940109
 20
311.2950954886
 30
0.0
 11
419.284259983
 21
311.2919332378
 31
0.0
  0
ARC
  5
21E
330
1F
100
AcDbEntity
  8
0
  6
Continuous
 62
     7
370
    25
100
AcDbCircle
 10
419.3612622236
 20
311.8026728795
 30
0.0
 40
0.5198667357220029
100
AcDbArc
 50
172.6842361313
 51
257.5171068614
  0
LINE
  5
21F
330
1F
100
AcDbEntity
  8
0
  6
Continuous
 62
     7
370
    25
100
AcDbLine
 10
418.8456274913
 20
311.9160285966
 30
0.0
 11
418.8456274913
 21
311.8688714126
 31
0.0
  0
ARC
  5
220
330
1F
100
AcDbEntity
  8
0
  6
Continuous
 62
   144
370
    18
100
AcDbCircle
 10
418.6962649582
 20
312.9542323619
 30
0.0
 40
1.836660063309758
100
AcDbArc
 50
321.1261340637
 51
356.462506196
  0
ARC
  5
221
330
1F
100
AcDbEntity
  8
0
  6
Continuous
 62
   144
370
    18
100
AcDbCircle
 10
420.6787880471
 20
311.8027035553
 30
0.0
 40
1.83666006335786
100
AcDbArc
 50
141.1261340642
 51
176.4625061955
  0
SPLINE
  5
222
330
1F
100
AcDbEntity
  8
0
  6
Continuous
 62
     7
370
    25
100
AcDbSpline
210
0.0
220
0.0
230
1.0
 70
     8
 71
     3
 72
     8
 73
     4
 74
     0
 42
0.000000001
 43
0.00000001
 40
0.0
 40
0.0
 40
0.0
 40
0.0
 40
1.0
 40
1.0
 40
1.0
 40
1.0
 10
420.0907930218478
 20
313.4650026795266
 30
0.0
 10
419.9509650724004
 20
313.4785905376734
 30
0.0
 10
419.7881842377223
 20
313.5072454549267
 30
0.0
 10
419.6124740497524
 20
313.5443876420044
 30
0.0
  0
SPLINE
  5
223
330
1F
100
AcDbEntity
  8
0
  6
Continuous
 62
     7
370
    25
100
AcDbSpline
210
0.0
220
0.0
230
1.0
 70
     8
 71
     3
 72
     8
 73
     4
 74
     0
 42
0.000000001
 43
0.00000001
 40
0.0
 40
0.0
 40
0.0
 40
0.0
 40
1.0
 40
1.0
 40
1.0
 40
1.0
 10
418.8456274912813
 20
311.8688714120724
 30
0.0
 10
418.8434032788164
 20
311.6866738315199
 30
0.0
 10
418.8145025839136
 20
311.5248413166295
 30
0.0
 10
418.770575035591
 20
311.3744804417171
 30
0.0
  0
LINE
  5
224
330
1F
100
AcDbEntity
  8
0
  6
Continuous
 62
     7
370
    25
100
AcDbLine
 10
417.1618294686
 20
312.3031895004
 30
0.0
 11
418.7705750561
 21
311.3744804474
 31
0.0
  0
LINE
  5
225
330
1F
100
AcDbEntity
  8
0
  6
Continuous
 62
   144
370
    18
100
AcDbLine
 10
417.1618294686
 20
312.3031895004
 30
0.0
 11
417.1618294686
 21
313.425782325
 31
0.0
  0
SPLINE
  5
226
330
1F
100
AcDbEntity
  8
0
  6
Continuous
 62
   144
370
    18
100
AcDbSpline
210
0.0
220
0.0
230
1.0
 70
     8
 71
     3
 72
     8
 73
     4
 74
     0
 42
0.000000001
 43
0.00000001
 40
0.0
 40
0.0
 40
0.0
 40
0.0
 40
1.0
 40
1.0
 40
1.0
 40
1.0
 10
418.7705750471902
 20
312.4970732351026
 30
0.0
 10
418.8145025893717
 20
312.2959947096525
 30
0.0
 10
418.8434032790014
 20
312.1007941832679
 30
0.0
 10
418.8456274912808
 20
311.9160285970679
 30
0.0
  0
SPLINE
  5
227
330
1F
100
AcDbEntity
  8
0
  6
Continuous
 62
     7
370
    25
100
AcDbSpline
210
0.0
220
0.0
230
1.0
 70
     8
 71
     3
 72
     8
 73
     4
 74
     0
 42
0.000000001
 43
0.00000001
 40
0.0
 40
0.0
 40
0.0
 40
0.0
 40
1.0
 40
1.0
 40
1.0
 40
1.0
 10
420.4543730512061
 20
313.4691091726096
 30
0.0
 10
420.3665179577243
 20
313.455533692599
 30
0.0
 10
420.2615385215123
 20
313.4508205913076
 30
0.0
 10
420.1261589947636
 20
313.4618404286189
 30
0.0
  0
LINE
  5
228
330
1F
100
AcDbEntity
  8
0
  6
Continuous
 62
     7
370
    25
100
AcDbLine
 10
419.4855372468
 20
314.0284061954
 30
0.0
 11
420.4543730644
 21
313.4691091843
 31
0.0
  0
SPLINE
  5
229
330
1F
100
AcDbEntity
  8
0
  6
Continuous
 62
     7
370
    25
100
AcDbSpline
210
0.0
220
0.0
230
1.0
 70
     8
 71
     3
 72
     8
 73
     4
 74
     0
 42
0.000000001
 43
0.00000001
 40
0.0
 40
0.0
 40
0.0
 40
0.0
 40
1.0
 40
1.0
 40
1.0
 40
1.0
 10
418.7705750737801
 20
311.3744804435971
 30
0.0
 10
418.9462852484245
 20
311.3373382600981
 30
0.0
 10
419.1090660706027
 20
311.3086833458775
 30
0.0
 10
419.2488940104986
 20
311.2950954886591
 30
0.0
  0
SPLINE
  5
22A
330
1F
100
AcDbEntity
  8
0
  6
Continuous
 62
     7
370
    25
100
AcDbSpline
210
0.0
220
0.0
230
1.0
 70
     8
 71
     3
 72
     8
 73
     4
 74
     0
 42
0.000000001
 43
0.00000001
 40
0.0
 40
0.0
 40
0.0
 40
0.0
 40
1.0
 40
1.0
 40
1.0
 40
1.0
 10
419.2842599834131
 20
311.2919332377521
 30
0.0
 10
419.4196395100345
 20
311.2809134004512
 30
0.0
 10
419.5246189608234
 20
311.2856265140242
 30
0.0
 10
419.6124740551978
 20
311.2992019938042
 30
0.0
  0
SPLINE
  5
22B
330
1F
100
AcDbEntity
  8
0
  6
Continuous
 62
     7
370
    25
100
AcDbSpline
210
0.0
220
0.0
230
1.0
 70
     8
 71
     3
 72
     8
 73
     4
 74
     0
 42
0.000000001
 43
0.00000001
 40
0.0
 40
0.0
 40
0.0
 40
0.0
 40
1.0
 40
1.0
 40
1.0
 40
1.0
 10
420.5294255139797
 20
312.8880645052063
 30
0.0
 10
420.5272013017001
 20
313.0728300914119
 30
0.0
 10
420.4983006120846
 20
313.2680306178295
 30
0.0
 10
420.4543730699005
 20
313.4691091432838
 30
0.0
  0
SPLINE
  5
22C
330
1F
100
AcDbEntity
  8
0
  6
Continuous
 62
     7
370
    25
100
AcDbSpline
210
0.0
220
0.0
230
1.0
 70
     8
 71
     3
 72
     8
 73
     4
 74
     0
 42
0.000000001
 43
0.00000001
 40
0.0
 40
0.0
 40
0.0
 40
0.0
 40
1.0
 40
1.0
 40
1.0
 40
1.0
 10
419.6124740851227
 20
311.2992020208149
 30
0.0
 10
419.7881842597872
 20
311.4377795324477
 30
0.0
 10
419.9509650819409
 20
311.5876411316532
 30
0.0
 10
420.0907930218488
 20
311.7575348502302
 30
0.0
  0
LINE
  5
22D
330
1F
100
AcDbEntity
  8
0
  6
Continuous
 62
     7
370
    25
100
AcDbLine
 10
420.433723989
 20
312.3584368148
 30
0.0
 11
420.4543730655
 21
312.3465163744
 31
0.0
  0
SPLINE
  5
22E
330
1F
100
AcDbEntity
  8
0
  6
Continuous
 62
   144
370
    18
100
AcDbSpline
210
0.0
220
0.0
230
1.0
 70
     8
 71
     3
 72
     8
 73
     4
 74
     0
 42
0.000000001
 43
0.00000001
 40
0.0
 40
0.0
 40
0.0
 40
0.0
 40
1.0
 40
1.0
 40
1.0
 40
1.0
 10
420.4543730699609
 20
312.3465163896083
 30
0.0
 10
420.4983006121422
 20
312.4968772544109
 30
0.0
 10
420.5272013017018
 20
312.6587097548468
 30
0.0
 10
420.5294255139813
 20
312.8409073202101
 30
0.0
  0
SPLINE
  5
22F
330
1F
100
AcDbEntity
  8
0
  6
Continuous
 62
   144
370
    18
100
AcDbSpline
210
0.0
220
0.0
230
1.0
 70
     8
 71
     3
 72
     8
 73
     4
 74
     0
 42
0.000000001
 43
0.00000001
 40
0.0
 40
0.0
 40
0.0
 40
0.0
 40
1.0
 40
1.0
 40
1.0
 40
1.0
 10
420.1261589947623
 20
311.8015297843191
 30
0.0
 10
420.2615385213855
 20
311.9739915380954
 30
0.0
 10
420.3665179721726
 20
312.1572211825937
 30
0.0
 10
420.4543730665541
 20
312.3465163711521
 30
0.0
  0
ARC
  5
230
330
1F
100
AcDbEntity
  8
0
  6
Continuous
 62
   144
370
    18
100
AcDbCircle
 10
417.2832733338
 20
326.2046984354
 30
0.0
 40
0.9738952493606671
100
AcDbArc
 50
173.6037743405
 51
235.0840452661
  0
LWPOLYLINE
  5
231
330
1F
100
AcDbEntity
  8
0
  6
Continuous
 62
   144
370
    18
100
AcDbPolyline
 90
       12
 70
   128
 43
0.0
 10
418.7068797806
 20
328.8377436252
 10
418.5898195892
 20
328.8909577003
 10
418.3241966723
 20
328.9303490551
 10
418.0280943008
 20
328.8790586078
 10
417.7163602841
 20
328.7396582756
 10
417.4046262673
 20
328.5191381732
 10
417.1085238958
 20
328.2285560993
 10
416.842900979
 20
327.8824830526
 10
416.6210769589
 20
327.4982725807
 10
416.4541750183
 20
327.0951906009
 10
416.3505643173
 20
326.6934493268
 10
416.3154403292
 20
326.3131937435
  0
LWPOLYLINE
  5
232
330
1F
100
AcDbEntity
  8
0
  6
Continuous
 62
     7
370
    25
100
AcDbPolyline
 90
        9
 70
   128
 43
0.0
 10
416.6028085251
 20
326.1472996152
 10
416.6379325132
 20
325.8075973253
 10
416.7415432142
 20
325.5254824203
 10
416.9084451548
 20
325.3151013194
 10
417.1302691749
 20
325.1870034095
 10
417.3958920917
 20
325.1476120547
 10
417.6919944632
 20
325.198902502
 10
418.0037284799
 20
325.3383028342
 10
418.0750124381
 20
325.3815498172
  0
LWPOLYLINE
  5
233
330
1F
100
AcDbEntity
  8
0
  6
Continuous
 62
     7
370
    25
100
AcDbPolyline
 90
       16
 70
   128
 43
0.0
 10
419.4028452316
 20
327.6816729026
 10
419.4046484348
 20
327.7647673663
 10
419.3695244467
 20
328.1044696561
 10
419.2659137457
 20
328.3865845612
 10
419.0990118051
 20
328.5969656621
 10
418.877187785
 20
328.725063572
 10
418.6115648682
 20
328.7644549268
 10
418.3154624967
 20
328.7131644795
 10
418.0037284799
 20
328.5737641472
 10
417.6919944632
 20
328.3532440448
 10
417.3958920917
 20
328.062661971
 10
417.1302691749
 20
327.7165889243
 10
416.9084451548
 20
327.3323784524
 10
416.7415432142
 20
326.9292964726
 10
416.6379325132
 20
326.5275551985
 10
416.6028085251
 20
326.1472996152
  0
LINE
  5
234
330
1F
100
AcDbEntity
  8
0
  6
Continuous
 62
     7
370
    25
100
AcDbLine
 10
416.5784870596
 20
313.803193981
 30
0.0
 11
415.9472498282
 21
313.4387884839
 31
0.0
  0
ARC
  5
235
330
1F
100
AcDbEntity
  8
0
  6
Continuous
 62
     7
370
    25
100
AcDbCircle
 10
419.5714745917
 20
310.7309017917
 30
0.0
 40
1.146895485316797
100
AcDbArc
 50
142.1370436359
 51
177.3554900034
  0
LINE
  5
236
330
1F
100
AcDbEntity
  8
0
  6
Continuous
 62
     7
370
    25
100
AcDbLine
 10
418.4258005176
 20
308.7409149689
 30
0.0
 11
418.4258005176
 21
310.7838184262
 31
0.0
  0
ARC
  5
237
330
1F
100
AcDbEntity
  8
0
  6
Continuous
 62
     7
370
    25
100
AcDbCircle
 10
418.7488045411
 20
308.6885185203
 30
0.0
 40
0.327226201633144
100
AcDbArc
 50
170.7859630095
 51
309.2032852357
  0
LINE
  5
238
330
1F
100
AcDbEntity
  8
0
  6
Continuous
 62
     7
370
    25
100
AcDbLine
 10
420.4194173765
 20
309.2799714538
 30
0.0
 11
418.9556356288
 21
308.4349482377
 31
0.0
  0
LINE
  5
239
330
1F
100
AcDbEntity
  8
0
  6
Continuous
 62
     7
370
    25
100
AcDbLine
 10
420.4194173765
 20
306.492536276
 30
0.0
 11
420.4194173765
 21
309.2799714538
 31
0.0
  0
LINE
  5
23A
330
1F
100
AcDbEntity
  8
0
  6
Continuous
 62
   144
370
    18
100
AcDbLine
 10
415.9472498282
 20
313.4387884839
 30
0.0
 11
415.9472498282
 21
303.1175368744
 31
0.0
  0
LINE
  5
23B
330
1F
100
AcDbEntity
  8
0
  6
Continuous
 62
     7
370
    25
100
AcDbLine
 10
418.6682674329
 20
308.600842366
 30
0.0
 11
418.9556356288
 21
308.4349482377
 31
0.0
  0
LWPOLYLINE
  5
23C
330
1F
100
AcDbEntity
  8
0
  6
Continuous
 62
   144
370
    18
100
AcDbPolyline
 90
        3
 70
   128
 43
0.0
 10
418.4659726307
 20
308.5304113614
 10
418.5649017305
 20
308.5529268354
 10
418.6682674329
 20
308.600842366
  0
LINE
  5
23D
330
1F
100
AcDbEntity
  8
0
  6
Continuous
 62
     7
370
    25
100
AcDbLine
 10
420.1320491806
 20
309.4458655821
 30
0.0
 11
420.4194173765
 21
309.2799714538
 31
0.0
  0
LINE
  5
23E
330
1F
100
AcDbEntity
  8
0
  6
Continuous
 62
   144
370
    18
100
AcDbLine
 10
420.1320491806
 20
309.4458655821
 30
0.0
 11
418.6682674329
 21
308.600842366
 31
0.0
  0
LWPOLYLINE
  5
23F
330
1F
100
AcDbEntity
  8
0
  6
Continuous
 62
     7
370
    25
100
AcDbPolyline
 90
       29
 70
   128
 43
0.0
 10
405.8775290837
 20
254.0812470962
 10
405.5274982531
 20
254.2972596662
 10
404.8606261469
 20
254.7949126644
 10
404.2474920536
 20
255.3741026224
 10
403.6909570766
 20
256.0321268324
 10
403.1936182075
 20
256.7659147176
 10
402.7577962076
 20
257.572042161
 10
402.3855247784
 20
258.4467474831
 10
402.078541072
 20
259.3859489955
 10
401.838277584
 20
260.3852640476
 10
401.6658554702
 20
261.4400294772
 10
401.5620793138
 20
262.5453233711
 10
401.5274333715
 20
263.695988032
 10
401.5620793138
 20
264.8866540464
 10
401.6658554702
 20
266.1117653401
 10
401.838277584
 20
267.365605105
 10
402.078541072
 20
268.6423224755
 10
402.3855247784
 20
269.9359598311
 10
402.7577962076
 20
271.2404805964
 10
403.1936182075
 20
272.5497974101
 10
403.6909570766
 20
273.8578005311
 10
404.2474920536
 20
275.1583863482
 10
404.8606261469
 20
276.4454858621
 10
405.5274982531
 20
277.7130930052
 10
406.2449965083
 20
278.9552926687
 10
407.0097728083
 20
280.1662883039
 10
407.8182584332
 20
281.3404289713
 10
408.6666806992
 20
282.4722357099
 10
409.5510805643
 20
283.5564271042
  0
LWPOLYLINE
  5
240
330
1F
100
AcDbEntity
  8
0
  6
Continuous
 62
     7
370
    25
100
AcDbPolyline
 90
       29
 70
   128
 43
0.0
 10
363.4511222126
 20
278.5734904508
 10
363.1010913819
 20
278.7895030209
 10
362.4342192757
 20
279.2871560191
 10
361.8210851824
 20
279.8663459771
 10
361.2645502054
 20
280.5243701871
 10
360.7672113363
 20
281.2581580723
 10
360.3313893364
 20
282.0642855157
 10
359.9591179073
 20
282.9389908378
 10
359.6521342008
 20
283.8781923502
 10
359.4118707128
 20
284.8775074022
 10
359.239448599
 20
285.9322728319
 10
359.1356724426
 20
287.0375667258
 10
359.1010265003
 20
288.1882313867
 10
359.1356724426
 20
289.3788974011
 10
359.239448599
 20
290.6040086948
 10
359.4118707128
 20
291.8578484597
 10
359.6521342008
 20
293.1345658302
 10
359.9591179073
 20
294.4282031858
 10
360.3313893364
 20
295.732723951
 10
360.7672113363
 20
297.0420407648
 10
361.2645502054
 20
298.3500438858
 10
361.8210851824
 20
299.6506297029
 10
362.4342192757
 20
300.9377292167
 10
363.1010913819
 20
302.2053363599
 10
363.8185896371
 20
303.4475360234
 10
364.5833659371
 20
304.6585316585
 10
365.391851562
 20
305.8326723259
 10
366.240273828
 20
306.9644790646
 10
367.1246736931
 20
308.0486704589
  0
LINE
  5
241
330
1F
100
AcDbEntity
  8
0
  6
Continuous
 62
     7
370
    25
100
AcDbLine
 10
409.5510805643
 20
283.5564271042
 30
0.0
 11
367.1246736931
 21
308.0486704589
 31
0.0
  0
LINE
  5
242
330
1F
100
AcDbEntity
  8
0
  6
Continuous
 62
     7
370
    25
100
AcDbLine
 10
410.3256094964
 20
284.0035531394
 30
0.0
 11
409.5510805643
 21
283.5564271042
 31
0.0
  0
LINE
  5
243
330
1F
100
AcDbEntity
  8
0
  6
Continuous
 62
     7
370
    25
100
AcDbLine
 10
380.7758641174
 20
315.9293349461
 30
0.0
 11
393.2741084559
 21
308.7142520668
 31
0.0
  0
LINE
  5
244
330
1F
100
AcDbEntity
  8
0
  6
Continuous
 62
     7
370
    25
100
AcDbLine
 10
367.1246736931
 20
308.0486704589
 30
0.0
 11
380.7758641174
 21
315.9293349461
 31
0.0
  0
ARC
  5
245
330
1F
100
AcDbEntity
  8
0
  6
Continuous
 62
     7
370
    25
100
AcDbCircle
 10
380.7286761257
 20
308.3892513878
 30
0.0
 40
7.540231214795415
100
AcDbArc
 50
60.4322984265
 51
89.6414313648
  0
ARC
  5
246
330
1F
100
AcDbEntity
  8
0
  6
Continuous
 62
   144
370
    18
100
AcDbCircle
 10
417.2832733338
 20
312.5991688114
 30
0.0
 40
0.9738952493603927
100
AcDbArc
 50
173.6037743405
 51
235.0840452661
  0
ARC
  5
247
330
1F
100
AcDbEntity
  8
0
  6
Continuous
 62
   144
370
    18
100
AcDbCircle
 10
419.2504007489
 20
312.5922816953
 30
0.0
 40
2.937227565122292
100
AcDbArc
 50
146.1178343873
 51
177.7486840114
  0
LWPOLYLINE
  5
248
330
1F
100
AcDbEntity
  8
0
  6
Continuous
 62
     7
370
    25
100
AcDbPolyline
 90
        9
 70
   128
 43
0.0
 10
416.6028085251
 20
312.5417699912
 10
416.6379325132
 20
312.2020677014
 10
416.7415432142
 20
311.9199527963
 10
416.9084451548
 20
311.7095716954
 10
417.1302691749
 20
311.5814737855
 10
417.3958920917
 20
311.5420824307
 10
417.6919944632
 20
311.593372878
 10
418.0037284799
 20
311.7327732103
 10
418.0750124381
 20
311.7760201932
  0
ARC
  5
249
330
1F
100
AcDbEntity
  8
0
  6
Continuous
 62
     7
370
    25
100
AcDbCircle
 10
419.5377689448
 20
312.426387567
 30
0.0
 40
2.937227565123631
100
AcDbArc
 50
146.1178343873
 51
177.7486840114
  0
LWPOLYLINE
  5
24A
330
1F
100
AcDbEntity
  8
0
  6
Continuous
 62
     7
370
    25
100
AcDbPolyline
 90
       34
 70
   128
 43
0.0
 10
419.3530119621
 20
305.3521970691
 10
419.7621446157
 20
305.5472097237
 10
420.2278143746
 20
305.6939995139
 10
420.7331907205
 20
305.7872610744
 10
421.2600080355
 20
305.8236236892
 10
421.7892257691
 20
305.8017731188
 10
422.3017166138
 20
305.7224990996
 10
422.7789578149
 20
305.5886668014
 10
423.2037006322
 20
305.405113272
 10
423.5605937534
 20
305.1784726142
 10
423.8367381314
 20
304.916936212
 10
424.0221531889
 20
304.6299566723
 10
424.1101375425
 20
304.3279061833
 10
424.0975112085
 20
304.0217016369
 10
423.9847305355
 20
303.722410063
 10
423.7758717108
 20
303.440848639
 10
423.4784834366
 20
303.1871937283
 10
423.1033140999
 20
302.9706130803
 10
422.6639232981
 20
302.7989344839
 10
422.1761917595
 20
302.6783628509
 10
421.6577473728
 20
302.6132559542
 10
421.1273280688
 20
302.6059669267
 10
420.6041045832
 20
302.6567592129
 10
420.106987576
 20
302.7637970472
 10
419.6539441511
 20
302.9232118034
 10
419.2613484782
 20
303.1292418168
 10
418.9433899879
 20
303.374440626
 10
418.7115605285
 20
303.6499461071
 10
418.5742390205
 20
303.9458007743
 10
418.5363886212
 20
304.2513116689
 10
418.5993773425
 20
304.5554368314
 10
418.760928608
 20
304.8471843858
 10
419.015203534
 20
305.1160098156
 10
419.3530119621
 20
305.3521970691
  0
LWPOLYLINE
  5
24B
330
1F
100
AcDbEntity
  8
0
  6
Continuous
 62
     7
370
    25
100
AcDbPolyline
 90
       43
 70
   128
 43
0.0
 10
425.521564943
 20
304.6876741977
 10
425.3071725259
 20
305.041377413
 10
425.0038567479
 20
305.3726836744
 10
424.6183931821
 20
305.6741921476
 10
424.1593924478
 20
305.9391676313
 10
423.6371078628
 20
306.1616910113
 10
423.0632064018
 20
306.3367914828
 10
422.4505080749
 20
306.4605575908
 10
421.8126995505
 20
306.5302246048
 10
421.1640284169
 20
306.5442362789
 10
420.5189849154
 20
306.5022796155
 10
419.891978252
 20
306.4052918571
 10
419.2970147193
 20
306.2554395499
 10
418.7473848196
 20
306.0560701468
 10
418.2553663766
 20
305.811637231
 10
417.8319502693
 20
305.5276010297
 10
417.4865949138
 20
305.2103064424
 10
417.2270149781
 20
304.8668413059
 10
417.0590090489
 20
304.5048780637
 10
416.9863301013
 20
304.1325023765
 10
417.0106016626
 20
303.7580325019
 10
417.1312815464
 20
303.3898334781
 10
417.3456739636
 20
303.0361302628
 10
417.6489897416
 20
302.7048240014
 10
418.0344533073
 20
302.4033155283
 10
418.4934540417
 20
302.1383400445
 10
419.0157386267
 20
301.9158166645
 10
419.5896400877
 20
301.740716193
 10
420.2023384145
 20
301.616950085
 10
420.840146939
 20
301.547283071
 10
421.4888180726
 20
301.5332713969
 10
422.133861574
 20
301.5752280603
 10
422.7608682375
 20
301.6722158187
 10
423.3558317701
 20
301.8220681259
 10
423.9054616698
 20
302.021437529
 10
424.3974801128
 20
302.2658704448
 10
424.8208962202
 20
302.5499066461
 10
425.1662515757
 20
302.8672012334
 10
425.4258315114
 20
303.2106663699
 10
425.5938374405
 20
303.5726296121
 10
425.6665163882
 20
303.9450052993
 10
425.6422448268
 20
304.3194751739
 10
425.521564943
 20
304.6876741977
  0
SPLINE
  5
24C
330
1F
100
AcDbEntity
  8
0
  6
Continuous
 62
     7
370
    25
100
AcDbSpline
210
0.0
220
0.0
230
1.0
 70
     8
 71
     3
 72
    13
 73
     9
 74
     0
 42
0.000000001
 43
0.00000001
 40
0.0
 40
0.0
 40
0.0
 40
0.0
 40
0.25
 40
0.25
 40
0.5
 40
0.75
 40
0.75
 40
1.0
 40
1.0
 40
1.0
 40
1.0
 10
426.1956452121574
 20
304.5845421124465
 30
0.0
 10
425.8986020587335
 20
304.8184450034638
 30
0.0
 10
425.6015589124754
 20
305.0406117913909
 30
0.0
 10
425.0074726054979
 20
305.452823203706
 30
0.0
 10
424.4133862984444
 20
305.8324866851775
 30
0.0
 10
423.8192999912197
 20
306.1387406557097
 30
0.0
 10
423.2252136839191
 20
306.4124466951279
 30
0.0
 10
422.9281705302312
 20
306.5332386431986
 30
0.0
 10
422.6311273765161
 20
306.6422944778676
 30
0.0
  0
SPLINE
  5
24D
330
1F
100
AcDbEntity
  8
0
  6
Continuous
 62
     7
370
    25
100
AcDbSpline
210
0.0
220
0.0
230
1.0
 70
     8
 71
     3
 72
    13
 73
     9
 74
     0
 42
0.000000001
 43
0.00000001
 40
0.0
 40
0.0
 40
0.0
 40
0.0
 40
0.25
 40
0.25
 40
0.5
 40
0.75
 40
0.75
 40
1.0
 40
1.0
 40
1.0
 40
1.0
 10
424.8909411253472
 20
301.7736000807386
 30
0.0
 10
424.9996664667834
 20
302.0702687786254
 30
0.0
 10
425.1083918106801
 20
302.3552013694264
 30
0.0
 10
425.325842493576
 20
302.892944394282
 30
0.0
 10
425.5432931764855
 20
303.3981394875802
 30
0.0
 10
425.7607438594261
 20
303.8299250682127
 30
0.0
 10
425.9781945423804
 20
304.2291627170831
 30
0.0
 10
426.0869198838643
 20
304.4127204695682
 30
0.0
 10
426.1956452253532
 20
304.5845421085015
 30
0.0
  0
SPLINE
  5
24E
330
1F
100
AcDbEntity
  8
0
  6
Continuous
 62
     7
370
    25
100
AcDbSpline
210
0.0
220
0.0
230
1.0
 70
     8
 71
     3
 72
    13
 73
     9
 74
     0
 42
0.000000001
 43
0.00000001
 40
0.0
 40
0.0
 40
0.0
 40
0.0
 40
0.25
 40
0.25
 40
0.5
 40
0.75
 40
0.75
 40
1.0
 40
1.0
 40
1.0
 40
1.0
 10
420.0217191256585
 20
301.0204104453995
 30
0.0
 10
420.4274876213628
 20
301.1455997780599
 30
0.0
 10
420.8332561262658
 20
301.2590529999109
 30
0.0
 10
421.6447931178365
 20
301.4538372950593
 30
0.0
 10
422.4563301095021
 20
301.6160736591145
 30
0.0
 10
423.2678671013815
 20
301.7049005113929
 30
0.0
 10
424.0794040933557
 20
301.7611794321483
 30
0.0
 10
424.4851725893896
 20
301.7732578206885
 30
0.0
 10
424.8909410854577
 20
301.7736000956963
 30
0.0
  0
SPLINE
  5
24F
330
1F
100
AcDbEntity
  8
0
  6
Continuous
 62
     7
370
    25
100
AcDbSpline
210
0.0
220
0.0
230
1.0
 70
     8
 71
     3
 72
    13
 73
     9
 74
     0
 42
0.000000001
 43
0.00000001
 40
0.0
 40
0.0
 40
0.0
 40
0.0
 40
0.25
 40
0.25
 40
0.5
 40
0.75
 40
0.75
 40
1.0
 40
1.0
 40
1.0
 40
1.0
 10
416.457201293281
 20
303.0781628146916
 30
0.0
 10
416.7542444449197
 20
302.969106980785
 30
0.0
 10
417.0512875965583
 20
302.8483150336325
 30
0.0
 10
417.6453738998356
 20
302.5746089965082
 30
0.0
 10
418.2394602031129
 20
302.2683550287395
 30
0.0
 10
418.8335465063902
 20
301.8886915509077
 30
0.0
 10
419.4276328096676
 20
301.4764801424312
 30
0.0
 10
419.7246759613062
 20
301.2543133667834
 30
0.0
 10
420.0217191129448
 20
301.0204104778897
 30
0.0
  0
SPLINE
  5
250
330
1F
100
AcDbEntity
  8
0
  6
Continuous
 62
     7
370
    25
100
AcDbSpline
210
0.0
220
0.0
230
1.0
 70
     8
 71
     3
 72
    13
 73
     9
 74
     0
 42
0.000000001
 43
0.00000001
 40
0.0
 40
0.0
 40
0.0
 40
0.0
 40
0.2500000000000001
 40
0.2500000000000001
 40
0.5000000000000001
 40
0.75
 40
0.75
 40
1.0
 40
1.0
 40
1.0
 40
1.0
 10
417.7619053641137
 20
305.8891048547437
 30
0.0
 10
417.6531800220845
 20
305.7172832156418
 30
0.0
 10
417.5444546775999
 20
305.5337254587304
 30
0.0
 10
417.3270039935416
 20
305.1344878089021
 30
0.0
 10
417.1095533094834
 20
304.7027022270805
 30
0.0
 10
416.8921026254252
 20
304.1975071317534
 30
0.0
 10
416.674651941367
 20
303.6597641044259
 30
0.0
 10
416.5659265965899
 20
303.3748315113982
 30
0.0
 10
416.4572012545607
 20
303.0781628118935
 30
0.0
  0
SPLINE
  5
251
330
1F
100
AcDbEntity
  8
0
  6
Continuous
 62
     7
370
    25
100
AcDbSpline
210
0.0
220
0.0
230
1.0
 70
     8
 71
     3
 72
    13
 73
     9
 74
     0
 42
0.000000001
 43
0.00000001
 40
0.0
 40
0.0
 40
0.0
 40
0.0
 40
0.2500000000000001
 40
0.2500000000000001
 40
0.5000000000000001
 40
0.75
 40
0.75
 40
1.0
 40
1.0
 40
1.0
 40
1.0
 10
422.6311273664755
 20
306.6422944662929
 30
0.0
 10
422.2253588709872
 20
306.6419521927212
 30
0.0
 10
421.8195903635866
 20
306.6298738289607
 30
0.0
 10
421.0080533722556
 20
306.5735949113011
 30
0.0
 10
420.1965163807171
 20
306.4847680625363
 30
0.0
 10
419.3849793887107
 20
306.3225317018878
 30
0.0
 10
418.5734423964967
 20
306.1277474096362
 30
0.0
 10
418.1676739002874
 20
306.014294191633
 30
0.0
 10
417.7619054040032
 20
305.8891048600609
 30
0.0
  0
LINE
  5
252
330
1F
100
AcDbEntity
  8
0
  6
Continuous
 62
     7
370
    25
100
AcDbLine
 10
424.8909411369
 20
299.59588576
 30
0.0
 11
424.8909411082
 21
301.7736000957
 31
0.0
  0
LINE
  5
253
330
1F
100
AcDbEntity
  8
0
  6
Continuous
 62
     7
370
    25
100
AcDbLine
 10
420.0217191689
 20
298.8426961064
 30
0.0
 11
420.0217191296
 21
301.0204104648
 31
0.0
  0
SPLINE
  5
254
330
1F
100
AcDbEntity
  8
0
  6
Continuous
 62
   144
370
    18
100
AcDbSpline
210
0.0
220
0.0
230
1.0
 70
     8
 71
     3
 72
    13
 73
     9
 74
     0
 42
0.000000001
 43
0.00000001
 40
0.0
 40
0.0
 40
0.0
 40
0.0
 40
0.25
 40
0.25
 40
0.5
 40
0.75
 40
0.75
 40
1.0
 40
1.0
 40
1.0
 40
1.0
 10
424.8909411513538
 20
299.5958857567633
 30
0.0
 10
424.4851726556494
 20
299.4706964241029
 30
0.0
 10
424.0794041507465
 20
299.3572432022521
 30
0.0
 10
423.2678671591758
 20
299.1624589071035
 30
0.0
 10
422.4563301675102
 20
299.0002225430484
 30
0.0
 10
421.6447931756308
 20
298.91139569077
 30
0.0
 10
420.8332561836566
 20
298.8551167700145
 30
0.0
 10
420.4274876876227
 20
298.8430383814743
 30
0.0
 10
420.0217191915546
 20
298.8426961064665
 30
0.0
  0
ARC
  5
255
330
1F
100
AcDbEntity
  8
0
  6
Continuous
 62
     7
370
    25
100
AcDbCircle
 10
419.4651825686
 20
304.0377494895
 30
0.0
 40
0.9762768163210895
100
AcDbArc
 50
159.551012976
 51
205.6759657597
  0
LWPOLYLINE
  5
256
330
1F
100
AcDbEntity
  8
0
  6
Continuous
 62
     7
370
    25
100
AcDbPolyline
 90
       18
 70
   128
 43
0.0
 10
424.1024193094
 20
304.3788345247
 10
424.1558297372
 20
304.1647730796
 10
424.1477653864
 20
303.862494281
 10
424.0436236127
 20
303.5662177902
 10
423.8469508395
 20
303.2860329477
 10
423.564444522
 20
303.0314811123
 10
423.2057250742
 20
302.8112307415
 10
422.7830082565
 20
302.6327821974
 10
422.3106891832
 20
302.5022123313
 10
421.8048521139
 20
302.4239675432
 10
421.2827227233
 20
302.4007123657
 10
420.7620815015
 20
302.4332387258
 10
420.2606582609
 20
302.5204389775
 10
419.7955283686
 20
302.6593436207
 10
419.3825312652
 20
302.8452224244
 10
419.0357310718
 20
303.0717455089
 10
418.7669376529
 20
303.3311989022
 10
418.585304446
 20
303.6147472301
  0
LINE
  5
257
330
1F
100
AcDbEntity
  8
0
  6
Continuous
 62
     7
370
    25
100
AcDbLine
 10
416.4572012573
 20
303.0781628194
 30
0.0
 11
416.4572012646
 21
300.900448478
 31
0.0
  0
SPLINE
  5
258
330
1F
100
AcDbEntity
  8
0
  6
Continuous
 62
   144
370
    18
100
AcDbSpline
210
0.0
220
0.0
230
1.0
 70
     8
 71
     3
 72
    13
 73
     9
 74
     0
 42
0.000000001
 43
0.00000001
 40
0.0
 40
0.0
 40
0.0
 40
0.0
 40
0.25
 40
0.25
 40
0.5
 40
0.75
 40
0.75
 40
1.0
 40
1.0
 40
1.0
 40
1.0
 10
420.0217191611841
 20
298.8426961009158
 30
0.0
 10
419.7246760041412
 20
298.9517519355392
 30
0.0
 10
419.4276328403769
 20
299.0725438864434
 30
0.0
 10
418.8335465262318
 20
299.3462499267616
 30
0.0
 10
418.2394602120519
 20
299.6525038987292
 30
0.0
 10
417.6453738977938
 20
300.0321673835561
 30
0.0
 10
417.0512875835009
 20
300.4443788002172
 30
0.0
 10
416.7542444263374
 20
300.6665455805331
 30
0.0
 10
416.4572012691614
 20
300.9004484744208
 30
0.0
  0
LINE
  5
259
330
1F
100
AcDbEntity
  8
0
  6
Continuous
 62
     7
370
    25
100
AcDbLine
 10
426.1956452369
 20
302.4068277668
 30
0.0
 11
426.1956452277
 21
304.5845421123
 31
0.0
  0
SPLINE
  5
25A
330
1F
100
AcDbEntity
  8
0
  6
Continuous
 62
   144
370
    18
100
AcDbSpline
210
0.0
220
0.0
230
1.0
 70
     8
 71
     3
 72
    13
 73
     9
 74
     0
 42
0.000000001
 43
0.00000001
 40
0.0
 40
0.0
 40
0.0
 40
0.0
 40
0.2500000000000001
 40
0.2500000000000001
 40
0.5000000000000002
 40
0.7500000000000001
 40
0.7500000000000001
 40
1.0
 40
1.0
 40
1.0
 40
1.0
 10
426.1956452172433
 20
302.4068277364217
 30
0.0
 10
426.0869198777233
 20
302.1101590450309
 30
0.0
 10
425.9781945382034
 20
301.8252264668858
 30
0.0
 10
425.7607438591635
 20
301.2874834534151
 30
0.0
 10
425.5432931801237
 20
300.7822883705888
 30
0.0
 10
425.3258425010838
 20
300.3505027978256
 30
0.0
 10
425.1083918220439
 20
299.951265155707
 30
0.0
 10
424.9996664825239
 20
299.7677074060574
 30
0.0
 10
424.890941143004
 20
299.5958857696536
 30
0.0
  0
ARC
  5
25B
330
1F
100
AcDbEntity
  8
0
  6
Continuous
 62
     7
370
    25
100
AcDbCircle
 10
438.6407215049
 20
274.9573392087
 30
0.0
 40
7.540231214795675
100
AcDbArc
 50
60.4322984265
 51
89.6414313648
  0
LWPOLYLINE
  5
25C
330
1F
100
AcDbEntity
  8
0
  6
Continuous
 62
     7
370
    25
100
AcDbPolyline
 90
       29
 70
   128
 43
0.0
 10
425.0367190723
 20
274.6167582797
 10
424.1523192072
 20
273.5325668855
 10
423.3038969412
 20
272.4007601468
 10
422.4954113163
 20
271.2266194794
 10
421.7306350162
 20
270.0156238442
 10
421.0131367611
 20
268.7734241808
 10
420.3462646549
 20
267.5058170376
 10
419.7331305616
 20
266.2187175238
 10
419.1765955846
 20
264.9181317067
 10
418.6792567155
 20
263.6101285857
 10
418.2434347156
 20
262.3008117719
 10
417.8711632864
 20
260.9962910066
 10
417.5641795799
 20
259.7026536511
 10
417.323916092
 20
258.4259362805
 10
417.1514939782
 20
257.1720965157
 10
417.0477178218
 20
255.9469852219
 10
417.0130718795
 20
254.7563192076
 10
417.0477178218
 20
253.6056545467
 10
417.1514939782
 20
252.5003606527
 10
417.323916092
 20
251.4455952231
 10
417.5641795799
 20
250.4462801711
 10
417.8711632864
 20
249.5070786586
 10
418.2434347156
 20
248.6323733365
 10
418.6792567155
 20
247.8262458932
 10
419.1765955846
 20
247.0924580079
 10
419.7331305616
 20
246.434433798
 10
420.3462646549
 20
245.85524384
 10
421.0131367611
 20
245.3575908418
 10
421.3631675917
 20
245.1415782717
  0
LWPOLYLINE
  5
25D
330
1F
100
AcDbEntity
  8
0
  6
Continuous
 62
     7
370
    25
100
AcDbPolyline
 90
       29
 70
   128
 43
0.0
 10
405.8775290837
 20
254.0812470962
 10
405.5274982531
 20
254.2972596662
 10
404.8606261469
 20
254.7949126644
 10
404.2474920536
 20
255.3741026224
 10
403.6909570766
 20
256.0321268324
 10
403.1936182075
 20
256.7659147176
 10
402.7577962076
 20
257.572042161
 10
402.3855247784
 20
258.4467474831
 10
402.078541072
 20
259.3859489955
 10
401.838277584
 20
260.3852640476
 10
401.6658554702
 20
261.4400294772
 10
401.5620793138
 20
262.5453233711
 10
401.5274333715
 20
263.695988032
 10
401.5620793138
 20
264.8866540464
 10
401.6658554702
 20
266.1117653401
 10
401.838277584
 20
267.365605105
 10
402.078541072
 20
268.6423224755
 10
402.3855247784
 20
269.9359598311
 10
402.7577962076
 20
271.2404805964
 10
403.1936182075
 20
272.5497974101
 10
403.6909570766
 20
273.8578005311
 10
404.2474920536
 20
275.1583863482
 10
404.8606261469
 20
276.4454858621
 10
405.5274982531
 20
277.7130930052
 10
406.2449965083
 20
278.9552926687
 10
407.0097728083
 20
280.1662883039
 10
407.8182584332
 20
281.3404289713
 10
408.6666806992
 20
282.4722357099
 10
409.5510805643
 20
283.5564271042
  0
LINE
  5
25E
330
1F
100
AcDbEntity
  8
0
  6
Continuous
 62
     7
370
    25
100
AcDbLine
 10
425.0367190723
 20
274.6167582797
 30
0.0
 11
409.5510805643
 21
283.5564271042
 31
0.0
  0
LINE
  5
25F
330
1F
100
AcDbEntity
  8
0
  6
Continuous
 62
     7
370
    25
100
AcDbLine
 10
432.327236993
 20
286.1693608439
 30
0.0
 11
438.6879094966
 21
282.497422767
 31
0.0
  0
LWPOLYLINE
  5
260
330
1F
100
AcDbEntity
  8
0
  6
Continuous
 62
     7
370
    25
100
AcDbPolyline
 90
       34
 70
   128
 43
0.0
 10
429.1744953431
 20
242.1393751123
 10
428.806488038
 20
241.9675078967
 10
428.4517814757
 20
241.8830101692
 10
428.1231956755
 20
241.8889358978
 10
427.8326065845
 20
241.9850709113
 10
427.5905168495
 20
242.1679406398
 10
427.4056762243
 20
242.4309356949
 10
427.2847653306
 20
242.76455075
 10
427.2321542032
 20
243.1567280878
 10
427.2497443454
 20
243.5932933976
 10
427.3369000035
 20
244.0584680715
 10
427.4904711449
 20
244.5354394849
 10
427.7049073086
 20
245.0069686481
 10
427.9724582128
 20
245.4560132687
 10
428.2834538708
 20
245.866343704
 10
428.6266540892
 20
246.2231295431
 10
428.9896547179
 20
246.513475616
 10
429.3593359683
 20
246.7268880593
 10
429.722336597
 20
246.8556535912
 10
430.0655368154
 20
246.8951182898
 10
430.3765324734
 20
246.8438557983
 10
430.6440833776
 20
246.7037188764
 10
430.8585195413
 20
246.4797724378
 10
431.0120906827
 20
246.1801104902
 10
431.0992463408
 20
245.8155635972
 10
431.116836483
 20
245.3993074333
 10
431.0642253556
 20
244.9463865807
 10
430.9433144619
 20
244.4731707793
 10
430.7584738367
 20
243.9967632809
 10
430.5163841017
 20
243.5343826939
 10
430.2257950107
 20
243.1027406574
 10
429.8972092106
 20
242.7174378392
 10
429.5425026482
 20
242.3924000871
 10
429.1744953431
 20
242.1393751123
  0
LWPOLYLINE
  5
261
330
1F
100
AcDbEntity
  8
0
  6
Continuous
 62
     7
370
    25
100
AcDbPolyline
 90
       34
 70
   128
 43
0.0
 10
446.9245018965
 20
252.386235785
 10
446.5564945913
 20
252.2143685694
 10
446.201788029
 20
252.1298708419
 10
445.8732022289
 20
252.1357965705
 10
445.5826131379
 20
252.231931584
 10
445.3405234029
 20
252.4148013125
 10
445.1556827777
 20
252.6777963676
 10
445.034771884
 20
253.0114114227
 10
444.9821607566
 20
253.4035887605
 10
444.9997508988
 20
253.8401540703
 10
445.0869065568
 20
254.3053287442
 10
445.2404776983
 20
254.7823001576
 10
445.454913862
 20
255.2538293208
 10
445.7224647662
 20
255.7028739414
 10
446.0334604242
 20
256.1132043767
 10
446.3766606426
 20
256.4699902158
 10
446.7396612712
 20
256.7603362887
 10
447.1093425217
 20
256.973748732
 10
447.4723431504
 20
257.1025142639
 10
447.8155433688
 20
257.1419789625
 10
448.1265390268
 20
257.090716471
 10
448.394089931
 20
256.9505795491
 10
448.6085260946
 20
256.7266331105
 10
448.7620972361
 20
256.4269711629
 10
448.8492528942
 20
256.0624242699
 10
448.8668430363
 20
255.646168106
 10
448.814231909
 20
255.1932472534
 10
448.6933210153
 20
254.720031452
 10
448.5084803901
 20
254.2436239536
 10
448.2663906551
 20
253.7812433666
 10
447.9758015641
 20
253.3496013301
 10
447.6472157639
 20
252.9642985119
 10
447.2925092016
 20
252.6392607598
 10
446.9245018965
 20
252.386235785
  0
LWPOLYLINE
  5
262
330
1F
100
AcDbEntity
  8
0
  6
Continuous
 62
     7
370
    25
100
AcDbPolyline
 90
       34
 70
   128
 43
0.0
 10
429.1744953431
 20
262.6364275345
 10
428.806488038
 20
262.4645603189
 10
428.4517814757
 20
262.3800625914
 10
428.1231956755
 20
262.38598832
 10
427.8326065845
 20
262.4821233335
 10
427.5905168495
 20
262.664993062
 10
427.4056762243
 20
262.9279881171
 10
427.2847653306
 20
263.2616031722
 10
427.2321542032
 20
263.65378051
 10
427.2497443454
 20
264.0903458198
 10
427.3369000035
 20
264.5555204937
 10
427.4904711449
 20
265.0324919071
 10
427.7049073086
 20
265.5040210703
 10
427.9724582128
 20
265.9530656909
 10
428.2834538708
 20
266.3633961262
 10
428.6266540892
 20
266.7201819653
 10
428.9896547179
 20
267.0105280382
 10
429.3593359683
 20
267.2239404815
 10
429.722336597
 20
267.3527060134
 10
430.0655368154
 20
267.392170712
 10
430.3765324734
 20
267.3409082205
 10
430.6440833776
 20
267.2007712986
 10
430.8585195413
 20
266.97682486
 10
431.0120906827
 20
266.6771629124
 10
431.0992463408
 20
266.3126160194
 10
431.116836483
 20
265.8963598555
 10
431.0642253556
 20
265.4434390029
 10
430.9433144619
 20
264.9702232015
 10
430.7584738367
 20
264.4938157031
 10
430.5163841017
 20
264.0314351161
 10
430.2257950107
 20
263.5997930796
 10
429.8972092106
 20
263.2144902614
 10
429.5425026482
 20
262.8894525093
 10
429.1744953431
 20
262.6364275345
  0
LWPOLYLINE
  5
263
330
1F
100
AcDbEntity
  8
0
  6
Continuous
 62
     7
370
    25
100
AcDbPolyline
 90
       34
 70
   128
 43
0.0
 10
446.9245018965
 20
272.8832882072
 10
446.5564945913
 20
272.7114209916
 10
446.201788029
 20
272.6269232641
 10
445.8732022289
 20
272.6328489927
 10
445.5826131379
 20
272.7289840062
 10
445.3405234029
 20
272.9118537347
 10
445.1556827777
 20
273.1748487898
 10
445.034771884
 20
273.5084638449
 10
444.9821607566
 20
273.9006411827
 10
444.9997508988
 20
274.3372064925
 10
445.0869065568
 20
274.8023811664
 10
445.2404776983
 20
275.2793525798
 10
445.454913862
 20
275.750881743
 10
445.7224647662
 20
276.1999263636
 10
446.0334604242
 20
276.6102567989
 10
446.3766606426
 20
276.967042638
 10
446.7396612712
 20
277.2573887109
 10
447.1093425217
 20
277.4708011542
 10
447.4723431504
 20
277.5995666861
 10
447.8155433688
 20
277.6390313847
 10
448.1265390268
 20
277.5877688932
 10
448.394089931
 20
277.4476319713
 10
448.6085260946
 20
277.2236855327
 10
448.7620972361
 20
276.9240235851
 10
448.8492528942
 20
276.5594766921
 10
448.8668430363
 20
276.1432205282
 10
448.814231909
 20
275.6902996756
 10
448.6933210153
 20
275.2170838742
 10
448.5084803901
 20
274.7406763758
 10
448.2663906551
 20
274.2782957888
 10
447.9758015641
 20
273.8466537523
 10
447.6472157639
 20
273.4613509341
 10
447.2925092016
 20
273.136313182
 10
446.9245018965
 20
272.8832882072
  0
LWPOLYLINE
  5
264
330
1F
100
AcDbEntity
  8
0
  6
Continuous
 62
     7
370
    25
100
AcDbPolyline
 90
       56
 70
   128
 43
0.0
 10
438.0494986198
 20
265.7175668192
 10
438.637908542
 20
266.0183949045
 10
439.218647641
 20
266.2375937706
 10
439.7841450945
 20
266.372305825
 10
440.3270287784
 20
266.4207748903
 10
440.8402213737
 20
266.3823690979
 10
441.31703263
 20
266.257589126
 10
441.7512465835
 20
266.0480616726
 10
442.1372025911
 20
265.7565182483
 10
442.4698691262
 20
265.3867595675
 10
442.7449093716
 20
264.9436060002
 10
442.9587377571
 20
264.4328347307
 10
443.1085667028
 20
263.8611044437
 10
443.1924429592
 20
263.2358685179
 10
443.209273071
 20
262.5652778597
 10
443.1588376319
 20
261.8580746439
 10
443.0417941451
 20
261.1234783459
 10
442.8596684514
 20
260.3710655518
 10
442.6148348378
 20
259.6106451133
 10
442.3104850847
 20
258.8521302734
 10
441.9505868568
 20
258.1054094333
 10
441.5398319777
 20
257.3802172409
 10
441.0835752656
 20
256.6860076857
 10
440.5877647243
 20
256.0318308507
 10
440.0588640026
 20
255.4262149314
 10
439.5037681302
 20
254.8770550577
 10
438.9297136307
 20
254.3915103681
 10
438.3441841824
 20
253.9759106803
 10
437.7548130572
 20
253.6356739719
 10
437.1692836089
 20
253.3752357485
 10
436.5952291094
 20
253.1979912208
 10
436.040133237
 20
253.1062510423
 10
435.5112325153
 20
253.1012111864
 10
435.015421974
 20
253.1829373554
 10
434.5591652619
 20
253.3503641237
 10
434.1484103828
 20
253.6013088273
 10
433.7885121548
 20
253.9325000183
 10
433.4841624018
 20
254.3396201129
 10
433.2393287881
 20
254.8173616781
 10
433.0572030944
 20
255.3594966221
 10
432.9401596077
 20
255.9589573867
 10
432.8897241686
 20
256.6079290841
 10
432.9065542804
 20
257.2979513758
 10
432.9904305368
 20
258.0200287659
 10
433.1402594825
 20
258.7647478714
 10
433.354087868
 20
259.5224001398
 10
433.6291281134
 20
260.2831084151
 10
433.9617946485
 20
261.0369557017
 10
434.3477506561
 20
261.7741144472
 10
434.7819646095
 20
262.4849746602
 10
435.2587758659
 20
263.1602691905
 10
435.7719684611
 20
263.7911945413
 10
436.3148521451
 20
264.3695256357
 10
436.8803495986
 20
264.8877230435
 10
437.4610886976
 20
265.339031269
 10
438.0494986198
 20
265.7175668192
  0
LWPOLYLINE
  5
265
330
1F
100
AcDbEntity
  8
0
  6
Continuous
 62
     7
370
    25
100
AcDbPolyline
 90
       33
 70
   128
 43
0.0
 10
444.8063469975
 20
248.3881512511
 10
445.6974628832
 20
249.4737680168
 10
446.5525500403
 20
250.6078271178
 10
447.3675802461
 20
251.7849861248
 10
448.138713982
 20
252.9996995698
 10
448.8623185206
 20
254.2462450696
 10
449.5349850396
 20
255.5187502839
 10
450.1535446802
 20
256.8112205789
 10
450.7150834751
 20
258.1175672674
 10
451.2169560761
 20
259.4316362922
 10
451.6567982158
 20
260.747237217
 10
452.0325378457
 20
262.0581723886
 10
452.3424048973
 20
263.3582661339
 10
452.5849396206
 20
264.6413938527
 10
452.7589994608
 20
265.9015108696
 10
452.863764441
 20
267.1326809104
 10
452.8987410247
 20
268.3291040666
 10
452.863764441
 20
269.4851441189
 10
452.7589994608
 20
270.5953550882
 10
452.5849396206
 20
271.6545068913
 10
452.3424048973
 20
272.657609979
 10
452.0325378457
 20
273.5999388418
 10
451.6567982158
 20
274.4770542708
 10
451.216956076
 20
275.2848242705
 10
450.7150834751
 20
276.0194435242
 10
450.1535446802
 20
276.6774513205
 10
449.5349850396
 20
277.2557478561
 10
448.8623185206
 20
277.7516088388
 10
448.138713982
 20
278.1626983215
 10
447.3675802461
 20
278.4870797063
 10
446.5525500403
 20
278.7232248677
 10
445.6974628832
 20
278.8700213516
 10
444.8063469975
 20
278.9267776156
  0
LINE
  5
266
330
1F
100
AcDbEntity
  8
0
  6
Continuous
 62
     7
370
    25
100
AcDbLine
 10
431.292650242
 20
240.5868601693
 30
0.0
 11
444.8063469975
 21
248.3881512511
 31
0.0
  0
LWPOLYLINE
  5
267
330
1F
100
AcDbEntity
  8
0
  6
Continuous
 62
     7
370
    25
100
AcDbPolyline
 90
       33
 70
   128
 43
0.0
 10
431.292650242
 20
271.1254865338
 10
430.4015343564
 20
270.0398697681
 10
429.5464471993
 20
268.9058106672
 10
428.7314169934
 20
267.7286516601
 10
427.9602832576
 20
266.5139382152
 10
427.236678719
 20
265.2673927153
 10
426.5640121999
 20
263.994887501
 10
425.9454525594
 20
262.7024172061
 10
425.3839137645
 20
261.3960705175
 10
424.8820411635
 20
260.0820014927
 10
424.4421990238
 20
258.766400568
 10
424.0664593939
 20
257.4554653964
 10
423.7565923423
 20
256.155371651
 10
423.514057619
 20
254.8722439322
 10
423.3399977787
 20
253.6121269153
 10
423.2352327986
 20
252.3809568746
 10
423.2002562149
 20
251.1845337183
 10
423.2352327986
 20
250.028493666
 10
423.3399977787
 20
248.9182826967
 10
423.514057619
 20
247.8591308937
 10
423.7565923423
 20
246.8560278059
 10
424.0664593939
 20
245.9136989431
 10
424.4421990238
 20
245.0365835141
 10
424.8820411635
 20
244.2288135144
 10
425.3839137645
 20
243.4941942607
 10
425.9454525594
 20
242.8361864645
 10
426.5640121999
 20
242.2578899289
 10
427.236678719
 20
241.7620289461
 10
427.9602832576
 20
241.3509394634
 10
428.7314169934
 20
241.0265580786
 10
429.5464471993
 20
240.7904129172
 10
430.4015343564
 20
240.6436164333
 10
431.292650242
 20
240.5868601693
  0
LINE
  5
268
330
1F
100
AcDbEntity
  8
0
  6
Continuous
 62
     7
370
    25
100
AcDbLine
 10
444.8063469975
 20
278.9267776156
 30
0.0
 11
431.292650242
 21
271.1254865338
 31
0.0
  0
LWPOLYLINE
  5
269
330
1F
100
AcDbEntity
  8
0
  6
Continuous
 62
     7
370
    25
100
AcDbPolyline
 90
       29
 70
   128
 43
0.0
 10
425.1054659067
 20
274.6972720231
 10
424.214350021
 20
273.6116552573
 10
423.3592628639
 20
272.4775961564
 10
422.5442326581
 20
271.3004371493
 10
421.7730989222
 20
270.0857237044
 10
421.0494943836
 20
268.8391782046
 10
420.3768278646
 20
267.5666729903
 10
419.758268224
 20
266.2742026953
 10
419.1967294291
 20
264.9678560067
 10
418.6948568282
 20
263.6537869819
 10
418.2550146884
 20
262.3381860572
 10
417.8792750585
 20
261.0272508856
 10
417.5694080069
 20
259.7271571402
 10
417.3268732836
 20
258.4440294214
 10
417.1528134434
 20
257.1839124045
 10
417.0480484632
 20
255.9527423638
 10
417.0130718795
 20
254.7563192076
 10
417.0480484632
 20
253.6002791552
 10
417.1528134434
 20
252.490068186
 10
417.3268732836
 20
251.4309163829
 10
417.5694080069
 20
250.4278132952
 10
417.8792750585
 20
249.4854844323
 10
418.2550146884
 20
248.6083690034
 10
418.6948568282
 20
247.8005990037
 10
419.1967294291
 20
247.0659797499
 10
419.758268224
 20
246.4079719537
 10
420.3768278646
 20
245.8296754181
 10
421.0494943836
 20
245.3338144354
 10
421.3631675917
 20
245.1415782717
  0
LINE
  5
26A
330
1F
100
AcDbEntity
  8
0
  6
Continuous
 62
     7
370
    25
100
AcDbLine
 10
431.292650242
 20
271.1254865338
 30
0.0
 11
425.1054659067
 21
274.6972720231
 31
0.0
  0
ARC
  5
26B
330
1F
100
AcDbEntity
  8
0
  6
Continuous
 62
     7
370
    25
100
AcDbCircle
 10
438.6209603396
 20
274.8899548907
 30
0.0
 40
7.608608426547529
100
AcDbArc
 50
60.5532604299
 51
90.0135372104
  0
LINE
  5
26C
330
1F
100
AcDbEntity
  8
0
  6
Continuous
 62
     7
370
    25
100
AcDbLine
 10
425.1054659067
 20
274.6972720231
 30
0.0
 11
438.6191626622
 21
282.4985631049
 31
0.0
  0
ARC
  5
26D
330
1F
100
AcDbEntity
  8
0
  6
Continuous
 62
     7
370
    25
100
AcDbCircle
 10
424.6838296214
 20
267.4743209074
 30
0.0
 40
4.330007570826009
100
AcDbArc
 50
306.1613962473
 51
353.8439802854
  0
LINE
  5
26E
330
1F
100
AcDbEntity
  8
0
  6
Continuous
 62
     7
370
    25
100
AcDbLine
 10
438.6191626622
 20
282.4985631049
 30
0.0
 11
444.8063469975
 21
278.9267776156
 31
0.0
  0
LWPOLYLINE
  5
26F
330
1F
100
AcDbEntity
  8
0
  6
Continuous
 62
     7
370
    25
100
AcDbPolyline
 90
       29
 70
   128
 43
0.0
 10
433.3570979364
 20
254.56417236
 10
433.4762663241
 20
254.4946273042
 10
433.9106412428
 20
254.3131083295
 10
434.3862421409
 20
254.2177485631
 10
434.8963926245
 20
254.209886647
 10
435.433931299
 20
254.2896329453
 10
435.9913122998
 20
254.4558679948
 10
436.5607112193
 20
254.7062582198
 10
437.1341349448
 20
255.0372886904
 10
437.7035338643
 20
255.4443124644
 10
438.2609148651
 20
255.9216158202
 10
438.7984535396
 20
256.462498465
 10
439.3086040232
 20
257.0593675921
 10
439.7842049213
 20
257.7038444673
 10
440.21857984
 20
258.3868820479
 10
440.6056311074
 20
259.0988919836
 10
440.9399253723
 20
259.8298792156
 10
441.2167698758
 20
260.5695822856
 10
441.4322783281
 20
261.3076173838
 10
441.5834254629
 20
262.0336241153
 10
441.6680895057
 20
262.737410937
 10
441.6850819589
 20
263.4090982247
 10
441.6341642858
 20
264.0392569611
 10
441.5160512589
 20
264.619041099
 10
441.3324009261
 20
265.1403117399
 10
441.0857913356
 20
265.5957513867
 10
440.7796843454
 20
265.9789666652
 10
440.4183770267
 20
266.2845780727
 10
440.1996371105
 20
266.4170821497
  0
LWPOLYLINE
  5
270
330
1F
100
AcDbEntity
  8
0
  6
Continuous
 62
     7
370
    25
100
AcDbPolyline
 90
       21
 70
   128
 43
0.0
 10
436.4447294157
 20
255.5594439027
 10
436.9899959035
 20
255.9130552514
 10
437.526996707
 20
256.3389776239
 10
438.0475914416
 20
256.830754471
 10
438.5438884218
 20
257.380930957
 10
439.0083642912
 20
257.9811669672
 10
439.4339780692
 20
258.6223635356
 10
439.8142778846
 20
259.2948007757
 10
440.1434987799
 20
259.9882852245
 10
440.4166501021
 20
260.6923043647
 10
440.6295911553
 20
261.3961859836
 10
440.7790939704
 20
262.0892599535
 10
440.8628922371
 20
262.7610199794
 10
440.879715659
 20
263.4012828641
 10
440.8293092102
 20
264.0003428749
 10
440.7124370012
 20
264.5491188727
 10
440.5308706954
 20
265.0392919728
 10
440.287362653
 20
265.4634316506
 10
439.9856042077
 20
265.815108381
 10
439.6301697099
 20
266.0889911032
 10
439.2876816328
 20
266.2583298806
  0
LWPOLYLINE
  5
271
330
1F
100
AcDbEntity
  8
0
  6
Continuous
 62
     7
370
    25
100
AcDbPolyline
 90
        9
 70
   128
 43
0.0
 10
433.0385221372
 20
255.4332952146
 10
433.0751809469
 20
255.404402923
 10
433.4554807623
 20
255.1710505036
 10
433.8810945403
 20
255.0212571434
 10
434.3455704097
 20
254.9572935571
 10
434.8418673899
 20
254.9801293675
 10
435.3624621245
 20
255.089418407
 10
435.899462928
 20
255.2835039651
 10
436.4447294157
 20
255.5594439027
  0
ARC
  5
272
330
1F
100
AcDbEntity
  8
0
  6
Continuous
 62
   144
370
    18
100
AcDbCircle
 10
425.5422959413
 20
266.9770733113
 30
0.0
 40
10.59065554924465
100
AcDbArc
 50
318.933131755
 51
341.0722447777
  0
ARC
  5
273
330
1F
100
AcDbEntity
  8
0
  6
Continuous
 62
     7
370
    25
100
AcDbCircle
 10
424.6838296214
 20
246.9772684852
 30
0.0
 40
4.330007570826092
100
AcDbArc
 50
306.1613962473
 51
353.8439802854
  0
ARC
  5
274
330
1F
100
AcDbEntity
  8
0
  6
Continuous
 62
     7
370
    25
100
AcDbCircle
 10
442.4338361748
 20
277.7211815801
 30
0.0
 40
4.330007570826445
100
AcDbArc
 50
306.1613962473
 51
353.8439802854
  0
ARC
  5
275
330
1F
100
AcDbEntity
  8
0
  6
Continuous
 62
     7
370
    25
100
AcDbCircle
 10
442.4338361748
 20
257.2241291579
 30
0.0
 40
4.330007570826782
100
AcDbArc
 50
306.1613962473
 51
353.8439802854
  0
LWPOLYLINE
  5
276
330
1F
100
AcDbEntity
  8
0
  6
Continuous
 62
     7
370
    25
100
AcDbPolyline
 90
       29
 70
   128
 43
0.0
 10
363.4511222126
 20
278.5734904508
 10
363.1374490044
 20
278.7657266145
 10
362.4647824854
 20
279.2615875973
 10
361.8462228448
 20
279.8398841328
 10
361.2846840499
 20
280.4978919291
 10
360.782811449
 20
281.2325111828
 10
360.3429693093
 20
282.0402811825
 10
359.9672296793
 20
282.9173966115
 10
359.6573626277
 20
283.8597254743
 10
359.4148279044
 20
284.862828562
 10
359.2407680642
 20
285.9219803651
 10
359.136003084
 20
287.0321913344
 10
359.1010265003
 20
288.1882313867
 10
359.136003084
 20
289.384654543
 10
359.2407680642
 20
290.6158245837
 10
359.4148279044
 20
291.8759416006
 10
359.6573626277
 20
293.1590693194
 10
359.9672296793
 20
294.4591630647
 10
360.3429693093
 20
295.7700982363
 10
360.782811449
 20
297.0856991611
 10
361.2846840499
 20
298.3997681859
 10
361.8462228448
 20
299.7061148744
 10
362.4647824854
 20
300.9985851694
 10
363.1374490044
 20
302.2710903837
 10
363.861053543
 20
303.5176358835
 10
364.6321872789
 20
304.7323493285
 10
365.4472174847
 20
305.9095083355
 10
366.3023046418
 20
307.0435674365
 10
367.1934205275
 20
308.1291842022
  0
LWPOLYLINE
  5
277
330
1F
100
AcDbEntity
  8
0
  6
Continuous
 62
     7
370
    25
100
AcDbPolyline
 90
       29
 70
   128
 43
0.0
 10
357.2639378772
 20
282.1452759401
 10
356.950264669
 20
282.3375121037
 10
356.27759815
 20
282.8333730865
 10
355.6590385094
 20
283.411669622
 10
355.0974997145
 20
284.0696774183
 10
354.5956271136
 20
284.804296672
 10
354.1557849739
 20
285.6120666717
 10
353.7800453439
 20
286.4891821007
 10
353.4701782923
 20
287.4315109635
 10
353.227643569
 20
288.4346140513
 10
353.0535837288
 20
289.4937658543
 10
352.9488187486
 20
290.6039768236
 10
352.9138421649
 20
291.7600168759
 10
352.9488187486
 20
292.9564400322
 10
353.0535837288
 20
294.1876100729
 10
353.227643569
 20
295.4477270898
 10
353.4701782923
 20
296.7308548086
 10
353.7800453439
 20
298.030948554
 10
354.1557849739
 20
299.3418837256
 10
354.5956271136
 20
300.6574846503
 10
355.0974997145
 20
301.9715536751
 10
355.6590385094
 20
303.2779003637
 10
356.27759815
 20
304.5703706586
 10
356.950264669
 20
305.8428758729
 10
357.6738692077
 20
307.0894213727
 10
358.4450029435
 20
308.3041348177
 10
359.2600331493
 20
309.4812938247
 10
360.1151203064
 20
310.6153529257
 10
361.0062361921
 20
311.7009696914
  0
LINE
  5
278
330
1F
100
AcDbEntity
  8
0
  6
Continuous
 62
     7
370
    25
100
AcDbLine
 10
367.1934205275
 20
308.1291842022
 30
0.0
 11
361.0062361921
 21
311.7009696914
 31
0.0
  0
ARC
  5
279
330
1F
100
AcDbEntity
  8
0
  6
Continuous
 62
     7
370
    25
100
AcDbCircle
 10
380.7211358996
 20
308.3683955901
 30
0.0
 40
7.562092687778702
100
AcDbArc
 50
60.4605825936
 51
90.1062150467
  0
LINE
  5
27A
330
1F
100
AcDbEntity
  8
0
  6
Continuous
 62
     7
370
    25
100
AcDbLine
 10
380.707117283
 20
315.930475284
 30
0.0
 11
367.1934205275
 21
308.1291842022
 31
0.0
  0
ARC
  5
27B
330
1F
100
AcDbEntity
  8
0
  6
Continuous
 62
     7
370
    25
100
AcDbCircle
 10
374.5339515642
 20
311.9401810793
 30
0.0
 40
7.56209268777791
100
AcDbArc
 50
60.4605825936
 51
90.1062150467
  0
LINE
  5
27C
330
1F
100
AcDbEntity
  8
0
  6
Continuous
 62
     7
370
    25
100
AcDbLine
 10
361.0062361921
 20
311.7009696914
 30
0.0
 11
374.5199329476
 21
319.5022607732
 31
0.0
  0
LINE
  5
27D
330
1F
100
AcDbEntity
  8
0
  6
Continuous
 62
     7
370
    25
100
AcDbLine
 10
374.5199329476
 20
319.5022607732
 30
0.0
 11
380.707117283
 21
315.930475284
 31
0.0
  0
SPLINE
  5
27E
330
1F
100
AcDbEntity
  8
0
  6
Continuous
 62
     7
370
    25
100
AcDbSpline
210
0.0
220
0.0
230
1.0
 70
     8
 71
     3
 72
     8
 73
     4
 74
     0
 42
0.000000001
 43
0.00000001
 40
0.0
 40
0.0
 40
0.0
 40
0.0
 40
1.0
 40
1.0
 40
1.0
 40
1.0
 10
419.2842599834134
 20
326.6049306910131
 30
0.0
 10
419.4196395080141
 20
326.7773924422135
 30
0.0
 10
419.5246189558429
 20
326.9606220803404
 30
0.0
 10
419.6124740496726
 20
327.1499172659519
 30
0.0
  0
LINE
  5
27F
330
1F
100
AcDbEntity
  8
0
  6
Continuous
 62
     7
370
    25
100
AcDbLine
 10
419.284259983
 20
326.6049306905
 30
0.0
 11
419.2488940109
 21
326.5609357574
 31
0.0
  0
SPLINE
  5
280
330
1F
100
AcDbEntity
  8
0
  6
Continuous
 62
     7
370
    25
100
AcDbSpline
210
0.0
220
0.0
230
1.0
 70
     8
 71
     3
 72
     8
 73
     4
 74
     0
 42
0.000000001
 43
0.00000001
 40
0.0
 40
0.0
 40
0.0
 40
0.0
 40
1.0
 40
1.0
 40
1.0
 40
1.0
 10
419.2488940104986
 20
326.5609357569247
 30
0.0
 10
419.1090660589458
 20
326.3910420241986
 30
0.0
 10
418.9462852183569
 20
326.2411804117765
 30
0.0
 10
418.7705750273304
 20
326.1026028909555
 30
0.0
  0
LINE
  5
281
330
1F
100
AcDbEntity
  8
0
  6
Continuous
 62
     7
370
    25
100
AcDbLine
 10
418.7705750428
 20
326.1026028794
 30
0.0
 11
417.1618294686
 21
327.0313119489
 31
0.0
  0
LINE
  5
282
330
1F
100
AcDbEntity
  8
0
  6
Continuous
 62
   144
370
    18
100
AcDbLine
 10
417.1618294686
 20
327.0313119489
 30
0.0
 11
418.00372848
 21
328.0786263153
 31
0.0
  0
LINE
  5
283
330
1F
100
AcDbEntity
  8
0
  6
Continuous
 62
     7
370
    25
100
AcDbLine
 10
418.0037284799
 20
328.0786263153
 30
0.0
 11
419.6124740497
 21
327.149917266
 31
0.0
  0
LWPOLYLINE
  5
284
330
1F
100
AcDbEntity
  8
0
  6
Continuous
 62
     7
370
    25
100
AcDbPolyline
 90
       17
 70
   128
 43
0.0
 10
419.5090439122
 20
326.2379462945
 10
419.6409331968
 20
326.3657835395
 10
419.7799158899
 20
326.4354973335
 10
419.9048331362
 20
326.4364743832
 10
419.9966674175
 20
326.3685659417
 10
420.0414377968
 20
326.2421104537
 10
420.0323283899
 20
326.0763596209
 10
419.9707260212
 20
325.896547505
 10
419.866009093
 20
325.7300488707
 10
419.7341198085
 20
325.6022116257
 10
419.5951371154
 20
325.5324978317
 10
419.4702198691
 20
325.531520782
 10
419.3783855878
 20
325.5994292235
 10
419.3336152084
 20
325.7258847115
 10
419.3427246154
 20
325.8916355443
 10
419.4043269841
 20
326.0714476602
 10
419.5090439122
 20
326.2379462945
  0
ARC
  5
285
330
1F
100
AcDbEntity
  8
0
  6
Continuous
 62
     7
370
    25
100
AcDbCircle
 10
420.6787880471
 20
325.4082331793
 30
0.0
 40
1.836660063357923
100
AcDbArc
 50
141.1261340642
 51
176.4625061955
  0
ARC
  5
286
330
1F
100
AcDbEntity
  8
0
  6
Continuous
 62
     7
370
    25
100
AcDbCircle
 10
420.180291885
 20
325.9841443306
 30
0.0
 40
1.09006828863858
100
AcDbArc
 50
94.7095085271
 51
145.2851149409
  0
LINE
  5
287
330
1F
100
AcDbEntity
  8
0
  6
Continuous
 62
     7
370
    25
100
AcDbLine
 10
420.1261589944
 20
327.0673700526
 30
0.0
 11
420.0907930222
 21
327.0705323035
 31
0.0
  0
LINE
  5
288
330
1F
100
AcDbEntity
  8
0
  6
Continuous
 62
     7
370
    25
100
AcDbLine
 10
420.529425514
 20
326.4464369447
 30
0.0
 11
420.529425514
 21
326.4935941287
 31
0.0
  0
ARC
  5
289
330
1F
100
AcDbEntity
  8
0
  6
Continuous
 62
     7
370
    25
100
AcDbCircle
 10
418.6962649582
 20
326.5597619859
 30
0.0
 40
1.836660063310503
100
AcDbArc
 50
321.1261340637
 51
356.462506196
  0
LINE
  5
28A
330
1F
100
AcDbEntity
  8
0
  6
Continuous
 62
     7
370
    25
100
AcDbLine
 10
420.0907930222
 20
325.3630644747
 30
0.0
 11
420.1261589944
 21
325.4070594078
 31
0.0
  0
ARC
  5
28B
330
1F
100
AcDbEntity
  8
0
  6
Continuous
 62
     7
370
    25
100
AcDbCircle
 10
419.1947611203
 20
325.9838508345
 30
0.0
 40
1.090068288600945
100
AcDbArc
 50
274.7095085257
 51
325.2851149416
  0
LINE
  5
28C
330
1F
100
AcDbEntity
  8
0
  6
Continuous
 62
     7
370
    25
100
AcDbLine
 10
419.2488940109
 20
324.9006251126
 30
0.0
 11
419.284259983
 21
324.8974628617
 31
0.0
  0
ARC
  5
28D
330
1F
100
AcDbEntity
  8
0
  6
Continuous
 62
     7
370
    25
100
AcDbCircle
 10
419.3612622236
 20
325.4082025034
 30
0.0
 40
0.5198667357219905
100
AcDbArc
 50
172.6842361313
 51
257.5171068614
  0
LINE
  5
28E
330
1F
100
AcDbEntity
  8
0
  6
Continuous
 62
     7
370
    25
100
AcDbLine
 10
418.8456274913
 20
325.5215582205
 30
0.0
 11
418.8456274913
 21
325.4744010365
 31
0.0
  0
ARC
  5
28F
330
1F
100
AcDbEntity
  8
0
  6
Continuous
 62
   144
370
    18
100
AcDbCircle
 10
420.0137907817
 20
326.5597926618
 30
0.0
 40
0.5198667357211033
100
AcDbArc
 50
352.6842361312
 51
77.5171068615
  0
SPLINE
  5
290
330
1F
100
AcDbEntity
  8
0
  6
Continuous
 62
     7
370
    25
100
AcDbSpline
210
0.0
220
0.0
230
1.0
 70
     8
 71
     3
 72
     8
 73
     4
 74
     0
 42
0.000000001
 43
0.00000001
 40
0.0
 40
0.0
 40
0.0
 40
0.0
 40
1.0
 40
1.0
 40
1.0
 40
1.0
 10
418.7705750471902
 20
326.1026028590677
 30
0.0
 10
418.8145025893718
 20
325.9015243336176
 30
0.0
 10
418.8434032790014
 20
325.706323807233
 30
0.0
 10
418.8456274912808
 20
325.5215582210329
 30
0.0
  0
SPLINE
  5
291
330
1F
100
AcDbEntity
  8
0
  6
Continuous
 62
     7
370
    25
100
AcDbSpline
210
0.0
220
0.0
230
1.0
 70
     8
 71
     3
 72
     8
 73
     4
 74
     0
 42
0.000000001
 43
0.00000001
 40
0.0
 40
0.0
 40
0.0
 40
0.0
 40
1.0
 40
1.0
 40
1.0
 40
1.0
 10
420.0907930218478
 20
327.0705323034917
 30
0.0
 10
419.9509650724004
 20
327.0841201616385
 30
0.0
 10
419.7881842377223
 20
327.1127750788918
 30
0.0
 10
419.6124740497524
 20
327.1499172659695
 30
0.0
  0
SPLINE
  5
292
330
1F
100
AcDbEntity
  8
0
  6
Continuous
 62
     7
370
    25
100
AcDbSpline
210
0.0
220
0.0
230
1.0
 70
     8
 71
     3
 72
     8
 73
     4
 74
     0
 42
0.000000001
 43
0.00000001
 40
0.0
 40
0.0
 40
0.0
 40
0.0
 40
1.0
 40
1.0
 40
1.0
 40
1.0
 10
418.8456274912813
 20
325.4744010360375
 30
0.0
 10
418.8434032788164
 20
325.292203455485
 30
0.0
 10
418.8145025839136
 20
325.1303709405946
 30
0.0
 10
418.770575035591
 20
324.9800100656822
 30
0.0
  0
LINE
  5
293
330
1F
100
AcDbEntity
  8
0
  6
Continuous
 62
     7
370
    25
100
AcDbLine
 10
417.1618294686
 20
325.9087191244
 30
0.0
 11
418.7705750561
 21
324.9800100714
 31
0.0
  0
LINE
  5
294
330
1F
100
AcDbEntity
  8
0
  6
Continuous
 62
   144
370
    18
100
AcDbLine
 10
417.1618294686
 20
325.9087191244
 30
0.0
 11
417.1618294686
 21
327.0313119489
 31
0.0
  0
LINE
  5
295
330
1F
100
AcDbEntity
  8
0
  6
Continuous
 62
     7
370
    25
100
AcDbLine
 10
418.8456274913
 20
328.0033478571
 30
0.0
 11
420.4543730644
 21
327.0746388083
 31
0.0
  0
LINE
  5
296
330
1F
100
AcDbEntity
  8
0
  6
Continuous
 62
   144
370
    18
100
AcDbLine
 10
418.0037284799
 20
328.0786263153
 30
0.0
 11
418.8456274913
 21
328.0033478571
 31
0.0
  0
SPLINE
  5
297
330
1F
100
AcDbEntity
  8
0
  6
Continuous
 62
   144
370
    18
100
AcDbSpline
210
0.0
220
0.0
230
1.0
 70
     8
 71
     3
 72
     8
 73
     4
 74
     0
 42
0.000000001
 43
0.00000001
 40
0.0
 40
0.0
 40
0.0
 40
0.0
 40
1.0
 40
1.0
 40
1.0
 40
1.0
 10
420.4543730512061
 20
327.0746387965747
 30
0.0
 10
420.3665179577243
 20
327.0610633165641
 30
0.0
 10
420.2615385215123
 20
327.0563502152727
 30
0.0
 10
420.1261589947636
 20
327.067370052584
 30
0.0
  0
SPLINE
  5
298
330
1F
100
AcDbEntity
  8
0
  6
Continuous
 62
     7
370
    25
100
AcDbSpline
210
0.0
220
0.0
230
1.0
 70
     8
 71
     3
 72
     8
 73
     4
 74
     0
 42
0.000000001
 43
0.00000001
 40
0.0
 40
0.0
 40
0.0
 40
0.0
 40
1.0
 40
1.0
 40
1.0
 40
1.0
 10
418.7705750737801
 20
324.9800100675622
 30
0.0
 10
418.9462852484245
 20
324.9428678840632
 30
0.0
 10
419.1090660706027
 20
324.9142129698427
 30
0.0
 10
419.2488940104986
 20
324.9006251126242
 30
0.0
  0
SPLINE
  5
299
330
1F
100
AcDbEntity
  8
0
  6
Continuous
 62
     7
370
    25
100
AcDbSpline
210
0.0
220
0.0
230
1.0
 70
     8
 71
     3
 72
     8
 73
     4
 74
     0
 42
0.000000001
 43
0.00000001
 40
0.0
 40
0.0
 40
0.0
 40
0.0
 40
1.0
 40
1.0
 40
1.0
 40
1.0
 10
419.2842599834132
 20
324.8974628617172
 30
0.0
 10
419.4196395100345
 20
324.8864430244164
 30
0.0
 10
419.5246189608234
 20
324.8911561379893
 30
0.0
 10
419.6124740551978
 20
324.9047316177694
 30
0.0
  0
SPLINE
  5
29A
330
1F
100
AcDbEntity
  8
0
  6
Continuous
 62
     7
370
    25
100
AcDbSpline
210
0.0
220
0.0
230
1.0
 70
     8
 71
     3
 72
     8
 73
     4
 74
     0
 42
0.000000001
 43
0.00000001
 40
0.0
 40
0.0
 40
0.0
 40
0.0
 40
1.0
 40
1.0
 40
1.0
 40
1.0
 10
419.6124740851227
 20
324.90473164478
 30
0.0
 10
419.7881842597872
 20
325.0433091564129
 30
0.0
 10
419.9509650819409
 20
325.1931707556184
 30
0.0
 10
420.0907930218488
 20
325.3630644741953
 30
0.0
  0
SPLINE
  5
29B
330
1F
100
AcDbEntity
  8
0
  6
Continuous
 62
     7
370
    25
100
AcDbSpline
210
0.0
220
0.0
230
1.0
 70
     8
 71
     3
 72
     8
 73
     4
 74
     0
 42
0.000000001
 43
0.00000001
 40
0.0
 40
0.0
 40
0.0
 40
0.0
 40
1.0
 40
1.0
 40
1.0
 40
1.0
 10
420.4543730699609
 20
325.9520460135734
 30
0.0
 10
420.4983006121422
 20
326.102406878376
 30
0.0
 10
420.5272013017018
 20
326.264239378812
 30
0.0
 10
420.5294255139814
 20
326.4464369441752
 30
0.0
  0
SPLINE
  5
29C
330
1F
100
AcDbEntity
  8
0
  6
Continuous
 62
   144
370
    18
100
AcDbSpline
210
0.0
220
0.0
230
1.0
 70
     8
 71
     3
 72
     8
 73
     4
 74
     0
 42
0.000000001
 43
0.00000001
 40
0.0
 40
0.0
 40
0.0
 40
0.0
 40
1.0
 40
1.0
 40
1.0
 40
1.0
 10
420.5294255139797
 20
326.4935941291715
 30
0.0
 10
420.5272013017001
 20
326.678359715377
 30
0.0
 10
420.4983006120846
 20
326.8735602417946
 30
0.0
 10
420.4543730699005
 20
327.074638767249
 30
0.0
  0
SPLINE
  5
29D
330
1F
100
AcDbEntity
  8
0
  6
Continuous
 62
     7
370
    25
100
AcDbSpline
210
0.0
220
0.0
230
1.0
 70
     8
 71
     3
 72
     8
 73
     4
 74
     0
 42
0.000000001
 43
0.00000001
 40
0.0
 40
0.0
 40
0.0
 40
0.0
 40
1.0
 40
1.0
 40
1.0
 40
1.0
 10
420.1261589947624
 20
325.4070594082842
 30
0.0
 10
420.2615385213855
 20
325.5795211620606
 30
0.0
 10
420.3665179721726
 20
325.7627508065588
 30
0.0
 10
420.4543730665541
 20
325.9520459951172
 30
0.0
  0
SPLINE
  5
29E
330
1F
100
AcDbEntity
  8
0
  6
Continuous
 62
     8
370
    25
100
AcDbSpline
210
0.0
220
0.0
230
1.0
 70
     8
 71
     3
 72
    11
 73
     7
 74
     0
 42
0.000000001
 43
0.00000001
 40
0.0
 40
0.0
 40
0.0
 40
0.0
 40
0.0266580344462546
 40
0.3664350968419758
 40
0.706212159237696
 40
1.0
 40
1.0
 40
1.0
 40
1.0
 10
416.6447376484975
 20
314.3262801568911
 30
0.0
 10
416.6380378020457
 20
314.3218389868435
 30
0.0
 10
416.5459432821604
 20
314.2607917037149
 30
0.0
 10
416.3688111881528
 20
314.2046920410002
 30
0.0
 10
416.1362589071265
 20
314.1653606779942
 30
0.0
 10
416.0071284122209
 20
314.2008530720479
 30
0.0
 10
415.9472498282183
 20
314.2173111077765
 30
0.0
  0
ARC
  5
29F
330
1F
100
AcDbEntity
  8
0
  6
Continuous
 62
     8
370
    25
100
AcDbCircle
 10
417.9409730141
 20
323.6311075433
 30
0.0
 40
1.788405240268402
100
AcDbArc
 50
118.4814803344
 51
177.8766626382
  0
LINE
  5
2A0
330
1F
100
AcDbEntity
  8
0
  6
Continuous
 62
     8
370
    25
100
AcDbLine
 10
417.2629328947
 20
325.1553302953
 30
0.0
 11
418.9289599275
 21
324.1935533613
 31
0.0
  0
LINE
  5
2A1
330
1F
100
AcDbEntity
  8
0
  6
Continuous
 62
     8
370
    25
100
AcDbLine
 10
415.9697004685
 20
315.2794229438
 30
0.0
 11
416.153795719
 21
315.1731470178
 31
0.0
  0
LINE
  5
2A2
330
1F
100
AcDbEntity
  8
0
  6
Continuous
 62
     8
370
    25
100
AcDbLine
 10
419.8517201942
 20
325.13398108
 30
0.0
 11
420.4780541084
 21
324.7724062077
 31
0.0
  0
LINE
  5
2A3
330
1F
100
AcDbEntity
  8
0
  6
Continuous
 62
     8
370
    25
100
AcDbLine
 10
420.3185576106
 20
324.549591189
 30
0.0
 11
421.0345649208
 21
324.1362489671
 31
0.0
  0
ARC
  5
2A4
330
1F
100
AcDbEntity
  8
0
  6
Continuous
 62
     8
370
    25
100
AcDbCircle
 10
416.7385316628
 20
314.9486406415
 30
0.0
 40
0.5882058395039791
100
AcDbArc
 50
173.7734869274
 51
234.9143326792
  0
LINE
  5
2A5
330
1F
100
AcDbEntity
  8
0
  6
Continuous
 62
     8
370
    25
100
AcDbLine
 10
418.080060657
 20
314.2142192093
 30
0.0
 11
418.9047891483
 21
313.7381135854
 31
0.0
  0
LINE
  5
2A6
330
1F
100
AcDbEntity
  8
0
  6
Continuous
 62
     8
370
    25
100
AcDbLine
 10
421.8023768192
 20
330.8806939781
 30
0.0
 11
418.418372816
 21
328.9271500495
 31
0.0
  0
LINE
  5
2A7
330
1F
100
AcDbEntity
  8
0
  6
Continuous
 62
     8
370
    25
100
AcDbLine
 10
417.0258827401
 20
328.1232826395
 30
0.0
 11
410.8554446076
 21
324.5611645273
 31
0.0
  0
LINE
  5
2A8
330
1F
100
AcDbEntity
  8
0
  6
Continuous
 62
     8
370
    25
100
AcDbLine
 10
410.8554446076
 20
324.550794459
 30
0.0
 11
410.8554446076
 21
285.3301411425
 31
0.0
  0
LINE
  5
2A9
330
1F
100
AcDbEntity
  8
0
  6
Continuous
 62
     8
370
    25
100
AcDbLine
 10
421.8023768192
 20
306.6154449153
 30
0.0
 11
421.8023768192
 21
330.8703239098
 31
0.0
  0
ARC
  5
2AA
330
1F
100
AcDbEntity
  8
0
  6
Continuous
 62
     8
370
    25
100
AcDbCircle
 10
421.1453006805
 20
332.1715610989
 30
0.0
 40
0.7927910658793796
100
AcDbArc
 50
65.5513696928
 51
125.1544848053
  0
ARC
  5
2AB
330
1F
100
AcDbEntity
  8
0
  6
Continuous
 62
     8
370
    25
100
AcDbCircle
 10
421.4728566966
 20
331.5975890186
 30
0.0
 40
0.7984347497724891
100
AcDbArc
 50
294.3750384872
 51
354.300838407
  0
ARC
  5
2AC
330
1F
100
AcDbEntity
  8
0
  6
Continuous
 62
     8
370
    25
100
AcDbCircle
 10
406.2735512546
 20
340.7505284181
 30
0.0
 40
0.79847636199426
100
AcDbArc
 50
65.6928809539
 51
125.6175774752
  0
ARC
  5
2AD
330
1F
100
AcDbEntity
  8
0
  6
Continuous
 62
     8
370
    25
100
AcDbCircle
 10
394.0339014236
 20
333.8381765668
 30
0.0
 40
0.7617300694083391
100
AcDbArc
 50
184.0870091611
 51
247.2291495352
  0
ARC
  5
2AE
330
1F
100
AcDbEntity
  8
0
  6
Continuous
 62
     8
370
    25
100
AcDbCircle
 10
394.3984353158
 20
334.4489365192
 30
0.0
 40
0.78287564161405
100
AcDbArc
 50
53.7271980179
 51
115.0214970101
  0
ARC
  5
2AF
330
1F
100
AcDbEntity
  8
0
  6
Continuous
 62
     8
370
    25
100
AcDbCircle
 10
405.3435300801
 20
340.750528418
 30
0.0
 40
0.7984763619423046
100
AcDbArc
 50
54.3824225218
 51
114.3071190405
  0
SPLINE
  5
2B0
330
1F
100
AcDbEntity
  8
0
  6
Continuous
 62
     8
370
    25
100
AcDbSpline
210
0.0
220
0.0
230
1.0
 70
     8
 71
     3
 72
    32
 73
    28
 74
     0
 42
0.000000001
 43
0.00000001
 40
0.0
 40
0.0
 40
0.0
 40
0.0
 40
0.0320156325052902
 40
0.0558366999575663
 40
0.0796469036911135
 40
0.12822660681105
 40
0.1768063099309866
 40
0.2243765052543438
 40
0.2700479580986609
 40
0.3131383153542397
 40
0.3562286726098185
 40
0.4019001254541356
 40
0.4257211929064563
 40
0.4495313966399591
 40
0.4981110997598957
 40
0.5466908028798322
 40
0.5942609982031893
 40
0.6399324510475065
 40
0.6830228083030853
 40
0.726113165558664
 40
0.7717846184029811
 40
0.7956056858554804
 40
0.8194158895888048
 40
0.8679955927087414
 40
0.9165752958286779
 40
0.9641454911520352
 40
1.0
 40
1.0
 40
1.0
 40
1.0
 10
426.1956452337873
 20
303.1485136027012
 30
0.0
 10
426.3297867553259
 20
303.0203617058451
 30
0.0
 10
426.5637355891887
 20
302.7968590462439
 30
0.0
 10
426.7813772312135
 20
302.4457083560877
 30
0.0
 10
426.9814461489912
 20
302.011918453893
 30
0.0
 10
427.0819003744818
 20
301.4460528311506
 30
0.0
 10
426.9609045923968
 20
300.770139827063
 30
0.0
 10
426.611770960463
 20
300.1353951165173
 30
0.0
 10
426.0751670990331
 20
299.5756216240057
 30
0.0
 10
425.3901129760351
 20
299.1002956596669
 30
0.0
 10
424.5669075873865
 20
298.704863185647
 30
0.0
 10
423.765612883762
 20
298.4489941971885
 30
0.0
 10
423.0586343430148
 20
298.2962804570691
 30
0.0
 10
422.3057949426145
 20
298.1821798169901
 30
0.0
 10
421.3262837401709
 20
298.1234933575313
 30
0.0
 10
420.1552151338628
 20
298.1935663693683
 30
0.0
 10
419.0557449115161
 20
298.3950586272024
 30
0.0
 10
418.0860684377335
 20
298.7048483062512
 30
0.0
 10
417.2626955964111
 20
299.1003174751528
 30
0.0
 10
416.5777060652562
 20
299.5755466279796
 30
0.0
 10
416.1344973557871
 20
300.0381179590424
 30
0.0
 10
415.8699240358303
 20
300.4462608541404
 30
0.0
 10
415.6724275495015
 20
300.8808122080353
 30
0.0
 10
415.5695707640838
 20
301.4466913386113
 30
0.0
 10
415.6958870370519
 20
302.1210078461102
 30
0.0
 10
416.0042892796328
 20
302.71754948537
 30
0.0
 10
416.352564203425
 20
303.0518355956117
 30
0.0
 10
416.5022467999732
 20
303.1955060397143
 30
0.0
  0
LWPOLYLINE
  5
2B1
330
1F
100
AcDbEntity
  8
0
  6
Continuous
 62
     8
370
    25
100
AcDbPolyline
 90
       27
 70
   128
 43
0.0
 10
427.8031615757
 20
300.7904228553
 10
427.7658257609
 20
300.4217396484
 10
427.6313815228
 20
299.967965374
 10
427.4013605442
 20
299.527168207
 10
427.0792497085
 20
299.1060301832
 10
426.6699318877
 20
298.7109353258
 10
426.1796119228
 20
298.3478728699
 10
425.6157225646
 20
298.0223464724
 10
424.9868118009
 20
297.7392907817
 10
424.302413278
 20
297.5029966334
 10
423.5729017797
 20
297.3170460061
 10
422.8093359568
 20
297.1842577216
 10
422.0232906887
 20
297.106644715
 10
421.2266816205
 20
297.0853835203
 10
420.4315845337
 20
297.1207964356
 10
419.6500522896
 20
297.2123466373
 10
418.8939321204
 20
297.3586463175
 10
418.1746860371
 20
297.5574777223
 10
417.5032170771
 20
297.8058267701
 10
416.8897040255
 20
298.0999287427
 10
416.3434471147
 20
298.4353253539
 10
415.8727270426
 20
298.806932333
 10
415.4846794458
 20
299.2091164969
 10
415.1851867303
 20
299.6357811436
 10
414.9787889003
 20
300.0804584722
 10
414.8686147365
 20
300.5364076275
 10
414.8494232447
 20
300.8240326607
  0
LINE
  5
2B2
330
1F
100
AcDbEntity
  8
0
  6
Continuous
 62
     7
370
    25
100
AcDbLine
 10
245.9593471999
 20
239.5330742429
 30
0.0
 11
245.9593471999
 21
239.5508583048
 31
0.0
  0
LINE
  5
2B3
330
1F
100
AcDbEntity
  8
0
  6
Continuous
 62
     7
370
    25
100
AcDbLine
 10
244.2067471999
 20
239.5508583048
 30
0.0
 11
244.2067471999
 21
239.5330742429
 31
0.0
  0
LINE
  5
2B4
330
1F
100
AcDbEntity
  8
0
  6
Continuous
 62
     7
370
    25
100
AcDbLine
 10
259.9674471999
 20
239.5330742429
 30
0.0
 11
259.9674471999
 21
239.5508583048
 31
0.0
  0
LINE
  5
2B5
330
1F
100
AcDbEntity
  8
0
  6
Continuous
 62
     7
370
    25
100
AcDbLine
 10
258.2148471999
 20
239.5508583048
 30
0.0
 11
258.2148471999
 21
239.5330742429
 31
0.0
  0
LINE
  5
2B6
330
1F
100
AcDbEntity
  8
0
  6
Continuous
 62
     7
370
    25
100
AcDbLine
 10
264.1838471999
 20
248.8599583048
 30
0.0
 11
264.5902471999
 21
248.8599583048
 31
0.0
  0
LINE
  5
2B7
330
1F
100
AcDbEntity
  8
0
  6
Continuous
 62
     7
370
    25
100
AcDbLine
 10
264.5902471999
 20
252.8223583048
 30
0.0
 11
264.1838471999
 21
252.8223583048
 31
0.0
  0
LINE
  5
2B8
330
1F
100
AcDbEntity
  8
0
  6
Continuous
 62
     7
370
    25
100
AcDbLine
 10
264.2450471999
 20
269.8853583048
 30
0.0
 11
204.2450471999
 21
269.8853583048
 31
0.0
  0
LINE
  5
2B9
330
1F
100
AcDbEntity
  8
0
  6
Continuous
 62
     7
370
    25
100
AcDbLine
 10
204.2450471999
 20
227.8853583048
 30
0.0
 11
264.2450471999
 21
227.8853583048
 31
0.0
  0
ARC
  5
2BA
330
1F
100
AcDbEntity
  8
0
  6
Continuous
 62
     7
370
    25
100
AcDbCircle
 10
239.9776471999
 20
248.2662333048
 30
0.0
 40
0.3968750000000227
100
AcDbArc
 50
180.0
 51
270.0
  0
ARC
  5
2BB
330
1F
100
AcDbEntity
  8
0
  6
Continuous
 62
     7
370
    25
100
AcDbCircle
 10
239.9776471999
 20
250.6474833048
 30
0.0
 40
0.3968750000000227
100
AcDbArc
 50
90.0
 51
180.0
  0
LINE
  5
2BC
330
1F
100
AcDbEntity
  8
0
  6
Continuous
 62
     7
370
    25
100
AcDbLine
 10
286.1450471999
 20
269.8853583048
 30
0.0
 11
264.2450471999
 21
269.8853583048
 31
0.0
  0
LINE
  5
2BD
330
1F
100
AcDbEntity
  8
0
  6
Continuous
 62
     7
370
    25
100
AcDbLine
 10
264.2450471999
 20
227.8853583048
 30
0.0
 11
286.1450471999
 21
227.8853583048
 31
0.0
  0
LINE
  5
2BE
330
1F
100
AcDbEntity
  8
0
  6
Continuous
 62
     7
370
    25
100
AcDbLine
 10
294.8950471999
 20
269.8853583048
 30
0.0
 11
286.1450471999
 21
269.8853583048
 31
0.0
  0
LINE
  5
2BF
330
1F
100
AcDbEntity
  8
0
  6
Continuous
 62
     7
370
    25
100
AcDbLine
 10
286.1450471999
 20
227.8853583048
 30
0.0
 11
294.8950471999
 21
227.8853583048
 31
0.0
  0
LINE
  5
2C0
330
1F
100
AcDbEntity
  8
0
  6
Continuous
 62
     7
370
    25
100
AcDbLine
 10
195.4950471999
 20
227.8853583048
 30
0.0
 11
204.2450471999
 21
227.8853583048
 31
0.0
  0
LINE
  5
2C1
330
1F
100
AcDbEntity
  8
0
  6
Continuous
 62
     7
370
    25
100
AcDbLine
 10
204.2450471999
 20
269.8853583048
 30
0.0
 11
195.4950471999
 21
269.8853583048
 31
0.0
  0
LINE
  5
2C2
330
1F
100
AcDbEntity
  8
0
  6
Continuous
 62
   144
370
    18
100
AcDbLine
 10
264.2600471999
 20
248.5551583048
 30
0.0
 11
264.1821514156
 21
248.5484736617
 31
0.0
  0
LINE
  5
2C3
330
1F
100
AcDbEntity
  8
0
  6
Continuous
 62
     7
370
    25
100
AcDbLine
 10
264.182469314
 20
253.1337880976
 30
0.0
 11
264.2600471999
 21
253.1271583048
 31
0.0
  0
LINE
  5
2C4
330
1F
100
AcDbEntity
  8
0
  6
Continuous
 62
     7
370
    25
100
AcDbLine
 10
266.7873471999
 20
248.5551583048
 30
0.0
 11
266.7873471999
 21
249.6505333048
 31
0.0
  0
LINE
  5
2C5
330
1F
100
AcDbEntity
  8
0
  6
Continuous
 62
     7
370
    25
100
AcDbLine
 10
264.2600471999
 20
248.5551583048
 30
0.0
 11
266.7873471999
 21
248.5551583048
 31
0.0
  0
LINE
  5
2C6
330
1F
100
AcDbEntity
  8
0
  6
Continuous
 62
     7
370
    25
100
AcDbLine
 10
266.7873471999
 20
252.0317833118
 30
0.0
 11
266.7873471999
 21
252.1432831664
 31
0.0
  0
LINE
  5
2C7
330
1F
100
AcDbEntity
  8
0
  6
Continuous
 62
     7
370
    25
100
AcDbLine
 10
266.7873471999
 20
252.1432831664
 30
0.0
 11
266.7873471999
 21
253.1271583048
 31
0.0
  0
LINE
  5
2C8
330
1F
100
AcDbEntity
  8
0
  6
Continuous
 62
     7
370
    25
100
AcDbLine
 10
266.7873471999
 20
253.1271583048
 30
0.0
 11
264.2600471999
 21
253.1271583048
 31
0.0
  0
SPLINE
  5
2C9
330
1F
100
AcDbEntity
  8
0
  6
Continuous
 62
     7
370
    25
100
AcDbSpline
210
0.0
220
0.0
230
1.0
 70
    24
 71
     3
 72
     8
 73
     4
 74
     0
 42
0.000000001
 43
0.00000001
 40
0.0
 40
0.0
 40
0.0
 40
0.0
 40
1.0
 40
1.0
 40
1.0
 40
1.0
 10
262.5963471999391
 20
241.1510583048241
 30
0.0
 10
262.6005805784293
 20
241.1510583048241
 30
0.0
 10
262.6048139569193
 20
241.1510583048241
 30
0.0
 10
262.6090471999392
 20
241.1510583048241
 30
0.0
  0
LINE
  5
2CA
330
1F
100
AcDbEntity
  8
0
  6
Continuous
 62
     7
370
    25
100
AcDbLine
 10
262.6090467936
 20
256.6196583048
 30
0.0
 11
262.6090467936
 21
252.7416152451
 31
0.0
  0
LINE
  5
2CB
330
1F
100
AcDbEntity
  8
0
  6
Continuous
 62
     7
370
    25
100
AcDbLine
 10
264.1837963991
 20
256.6196583048
 30
0.0
 11
262.6090471999
 21
256.6196583048
 31
0.0
  0
LINE
  5
2CC
330
1F
100
AcDbEntity
  8
0
  6
Continuous
 62
     7
370
    25
100
AcDbLine
 10
264.1838471999
 20
256.6196583048
 30
0.0
 11
264.1838471999
 21
241.1383583048
 31
0.0
  0
LINE
  5
2CD
330
1F
100
AcDbEntity
  8
0
  6
Continuous
 62
     7
370
    25
100
AcDbLine
 10
262.5963471999
 20
241.1383583048
 30
0.0
 11
264.1837963991
 21
241.1383583048
 31
0.0
  0
LINE
  5
2CE
330
1F
100
AcDbEntity
  8
0
  6
Continuous
 62
     7
370
    25
100
AcDbLine
 10
262.5963471999
 20
241.1510583048
 30
0.0
 11
262.5963471999
 21
241.1383583048
 31
0.0
  0
SPLINE
  5
2CF
330
1F
100
AcDbEntity
  8
0
  6
Continuous
 62
   144
370
    18
100
AcDbSpline
210
0.0
220
0.0
230
1.0
 70
     8
 71
     3
 72
    13
 73
     9
 74
     0
 42
0.000000001
 43
0.00000001
 40
0.0
 40
0.0
 40
0.0
 40
0.0
 40
0.167562650374051
 40
0.3340511639557576
 40
0.500000000000218
 40
0.6659488360446274
 40
0.8324373496261912
 40
1.0
 40
1.0
 40
1.0
 40
1.0
 10
262.6090471999393
 20
252.7416152451312
 30
0.0
 10
262.6128980893822
 20
252.7167575359021
 30
0.0
 10
262.620575182683
 20
252.6672014642911
 30
0.0
 10
262.6267559598876
 20
252.5923577385296
 30
0.0
 10
262.6289725975605
 20
252.5175583048239
 30
0.0
 10
262.6267559598876
 20
252.4427588711182
 30
0.0
 10
262.620575182683
 20
252.3679151453567
 30
0.0
 10
262.6128980893822
 20
252.3183590737458
 30
0.0
 10
262.6090471999393
 20
252.2935013645167
 30
0.0
  0
LINE
  5
2D0
330
1F
100
AcDbEntity
  8
0
  6
Continuous
 62
     7
370
    25
100
AcDbLine
 10
241.5651471999
 20
256.6196583048
 30
0.0
 11
241.5778471999
 21
256.6196583048
 31
0.0
  0
SPLINE
  5
2D1
330
1F
100
AcDbEntity
  8
0
  6
Continuous
 62
     7
370
    25
100
AcDbSpline
210
0.0
220
0.0
230
1.0
 70
    24
 71
     3
 72
     8
 73
     4
 74
     0
 42
0.000000001
 43
0.00000001
 40
0.0
 40
0.0
 40
0.0
 40
0.0
 40
1.0
 40
1.0
 40
1.0
 40
1.0
 10
241.5778471999392
 20
256.632358304824
 30
0.0
 10
241.5778471999392
 20
256.6281250618042
 30
0.0
 10
241.5778471999392
 20
256.6238916833143
 30
0.0
 10
241.5778471999392
 20
256.6196583048242
 30
0.0
  0
LINE
  5
2D2
330
1F
100
AcDbEntity
  8
0
  6
Continuous
 62
     7
370
    25
100
AcDbLine
 10
241.5778471999
 20
256.6323583048
 30
0.0
 11
262.5963471999
 21
256.6323583048
 31
0.0
  0
SPLINE
  5
2D3
330
1F
100
AcDbEntity
  8
0
  6
Continuous
 62
     7
370
    25
100
AcDbSpline
210
0.0
220
0.0
230
1.0
 70
     8
 71
     3
 72
     8
 73
     4
 74
     0
 42
0.000000001
 43
0.00000001
 40
0.0
 40
0.0
 40
0.0
 40
0.0
 40
1.0
 40
1.0
 40
1.0
 40
1.0
 10
262.6090471999393
 20
256.6323578984176
 30
0.0
 10
262.6046276468475
 20
256.632358181278
 30
0.0
 10
262.6007668944636
 20
256.632358304824
 30
0.0
 10
262.5963471999393
 20
256.632358304824
 30
0.0
  0
SPLINE
  5
2D4
330
1F
100
AcDbEntity
  8
0
  6
Continuous
 62
     7
370
    25
100
AcDbSpline
210
0.0
220
0.0
230
1.0
 70
    24
 71
     3
 72
     8
 73
     4
 74
     0
 42
0.000000001
 43
0.00000001
 40
0.0
 40
0.0
 40
0.0
 40
0.0
 40
1.0
 40
1.0
 40
1.0
 40
1.0
 10
262.6090471999393
 20
256.619658304824
 30
0.0
 10
262.6090471999393
 20
256.6240778579158
 30
0.0
 10
262.6090471999393
 20
256.6279384867537
 30
0.0
 10
262.6090471999393
 20
256.6323578984176
 30
0.0
  0
LINE
  5
2D5
330
1F
100
AcDbEntity
  8
0
  6
Continuous
 62
     7
370
    25
100
AcDbLine
 10
262.5963471999
 20
241.1383583048
 30
0.0
 11
241.5651471999
 21
241.1383583048
 31
0.0
  0
LINE
  5
2D6
330
1F
100
AcDbEntity
  8
0
  6
Continuous
 62
     7
370
    25
100
AcDbLine
 10
241.5651471999
 20
241.1383583048
 30
0.0
 11
241.5651471999
 21
256.6196583048
 31
0.0
  0
LINE
  5
2D7
330
1F
100
AcDbEntity
  8
0
  6
Continuous
 62
   144
370
    18
100
AcDbLine
 10
262.6090471999
 20
252.7416152451
 30
0.0
 11
262.6090471999
 21
241.1510583048
 31
0.0
  0
LINE
  5
2D8
330
1F
100
AcDbEntity
  8
0
  6
Continuous
 62
     7
370
    25
100
AcDbLine
 10
241.5651471999
 20
258.2071583048
 30
0.0
 11
241.5651471999
 21
256.6196583048
 31
0.0
  0
LINE
  5
2D9
330
1F
100
AcDbEntity
  8
0
  6
Continuous
 62
     7
370
    25
100
AcDbLine
 10
241.5651471999
 20
258.2071583048
 30
0.0
 11
262.5963471999
 21
258.2071583048
 31
0.0
  0
LINE
  5
2DA
330
1F
100
AcDbEntity
  8
0
  6
Continuous
 62
     7
370
    25
100
AcDbLine
 10
262.5963471999
 20
258.2071583048
 30
0.0
 11
262.5963471999
 21
256.6323583048
 31
0.0
  0
SPLINE
  5
2DB
330
1F
100
AcDbEntity
  8
0
  6
Continuous
 62
     7
370
    25
100
AcDbSpline
210
0.0
220
0.0
230
1.0
 70
    24
 71
     3
 72
     8
 73
     4
 74
     0
 42
0.000000001
 43
0.00000001
 40
0.0
 40
0.0
 40
0.0
 40
0.0
 40
1.0
 40
1.0
 40
1.0
 40
1.0
 10
264.1838471999392
 20
256.619658304824
 30
0.0
 10
264.1838471999392
 20
256.619658304824
 30
0.0
 10
264.1838317566827
 20
256.619658304824
 30
0.0
 10
264.1837963991264
 20
256.6196583048241
 30
0.0
  0
ARC
  5
2DC
330
1F
100
AcDbEntity
  8
0
  6
Continuous
 62
     7
370
    25
100
AcDbCircle
 10
262.5963471999
 20
256.6196583048
 30
0.0
 40
1.587500000000034
100
AcDbArc
 50
0.0
 51
90.0
  0
ARC
  5
2DD
330
1F
100
AcDbEntity
  8
0
  6
Continuous
 62
     7
370
    25
100
AcDbCircle
 10
241.5651471999
 20
241.1383583048
 30
0.0
 40
1.58750000000003
100
AcDbArc
 50
180.4583711255
 51
270.0
  0
LINE
  5
2DE
330
1F
100
AcDbEntity
  8
0
  6
Continuous
 62
     7
370
    25
100
AcDbLine
 10
239.9776471999
 20
241.1383583048
 30
0.0
 11
239.9776471999
 21
241.1256583048
 31
0.0
  0
LINE
  5
2DF
330
1F
100
AcDbEntity
  8
0
  6
Continuous
 62
     7
370
    25
100
AcDbLine
 10
239.9776980008
 20
241.1383583048
 30
0.0
 11
241.5651471999
 21
241.1383583048
 31
0.0
  0
LINE
  5
2E0
330
1F
100
AcDbEntity
  8
0
  6
Continuous
 62
     7
370
    25
100
AcDbLine
 10
241.5651471999
 20
239.5508583048
 30
0.0
 11
241.5651471999
 21
241.1383583048
 31
0.0
  0
SPLINE
  5
2E1
330
1F
100
AcDbEntity
  8
0
  6
Continuous
 62
     7
370
    25
100
AcDbSpline
210
0.0
220
0.0
230
1.0
 70
    24
 71
     3
 72
     8
 73
     4
 74
     0
 42
0.000000001
 43
0.00000001
 40
0.0
 40
0.0
 40
0.0
 40
0.0
 40
1.0
 40
1.0
 40
1.0
 40
1.0
 10
264.1837963991263
 20
241.1383583048501
 30
0.0
 10
264.1838317566825
 20
241.138358304841
 30
0.0
 10
264.1838471999391
 20
241.1383583048331
 30
0.0
 10
264.1838471999391
 20
241.138358304824
 30
0.0
  0
ARC
  5
2E2
330
1F
100
AcDbEntity
  8
0
  6
Continuous
 62
     7
370
    25
100
AcDbCircle
 10
262.5963471999
 20
241.1383583048
 30
0.0
 40
1.587500000000006
100
AcDbArc
 50
270.0
 51
0.0
  0
LINE
  5
2E3
330
1F
100
AcDbEntity
  8
0
  6
Continuous
 62
     7
370
    25
100
AcDbLine
 10
262.5963471999
 20
239.5508583048
 30
0.0
 11
262.5963471999
 21
241.1383583048
 31
0.0
  0
LINE
  5
2E4
330
1F
100
AcDbEntity
  8
0
  6
Continuous
 62
     7
370
    25
100
AcDbLine
 10
239.9776471999
 20
256.6196583048
 30
0.0
 11
241.5651471999
 21
256.6196583044
 31
0.0
  0
LINE
  5
2E5
330
1F
100
AcDbEntity
  8
0
  6
Continuous
 62
     7
370
    25
100
AcDbLine
 10
239.9776471999
 20
241.1383583048
 30
0.0
 11
239.9776471999
 21
256.6069583048
 31
0.0
  0
SPLINE
  5
2E6
330
1F
100
AcDbEntity
  8
0
  6
Continuous
 62
     7
370
    25
100
AcDbSpline
210
0.0
220
0.0
230
1.0
 70
    24
 71
     3
 72
     8
 73
     4
 74
     0
 42
0.000000001
 43
0.00000001
 40
0.0
 40
0.0
 40
0.0
 40
0.0
 40
1.0
 40
1.0
 40
1.0
 40
1.0
 10
239.9776980007521
 20
256.6069583048242
 30
0.0
 10
239.9776641337242
 20
256.6069583048242
 30
0.0
 10
239.9776471999393
 20
256.6069583048242
 30
0.0
 10
239.9776471999393
 20
256.6069583048242
 30
0.0
  0
LINE
  5
2E7
330
1F
100
AcDbEntity
  8
0
  6
Continuous
 62
     7
370
    25
100
AcDbLine
 10
239.9776471999
 20
256.6196583048
 30
0.0
 11
239.9776471999
 21
256.6069583048
 31
0.0
  0
LINE
  5
2E8
330
1F
100
AcDbEntity
  8
0
  6
Continuous
 62
     7
370
    25
100
AcDbLine
 10
262.5963471999
 20
239.5508583048
 30
0.0
 11
241.5651471999
 21
239.5508583048
 31
0.0
  0
ARC
  5
2E9
330
1F
100
AcDbEntity
  8
0
  6
Continuous
 62
     7
370
    25
100
AcDbCircle
 10
241.5651471999
 20
256.6196583048
 30
0.0
 40
1.587500000000006
100
AcDbArc
 50
90.0
 51
180.0
  0
ARC
  5
2EA
330
1F
100
AcDbEntity
  8
0
  6
Continuous
 62
     7
370
    25
100
AcDbCircle
 10
271.2450471999
 20
248.8853583048
 30
0.0
 40
6.477000000000019
100
AcDbArc
 50
182.9222280538
 51
139.0877834791
  0
LINE
  5
2EB
330
1F
100
AcDbEntity
  8
0
  6
Continuous
 62
     7
370
    25
100
AcDbLine
 10
264.8950471999
 20
239.6778583048
 30
0.0
 11
264.8950471999
 21
247.6090241009
 31
0.0
  0
LINE
  5
2EC
330
1F
100
AcDbEntity
  8
0
  6
Continuous
 62
     7
370
    25
100
AcDbLine
 10
264.8950471999
 20
253.1271583048
 30
0.0
 11
264.8950471999
 21
258.0928583048
 31
0.0
  0
LINE
  5
2ED
330
1F
100
AcDbEntity
  8
0
  6
Continuous
 62
     7
370
    25
100
AcDbLine
 10
264.8950471999
 20
258.0928583048
 30
0.0
 11
277.5950471999
 21
258.0928583048
 31
0.0
  0
LINE
  5
2EE
330
1F
100
AcDbEntity
  8
0
  6
Continuous
 62
     7
370
    25
100
AcDbLine
 10
277.5950471999
 20
258.0928583048
 30
0.0
 11
277.5950471999
 21
250.1616925087
 31
0.0
  0
LINE
  5
2EF
330
1F
100
AcDbEntity
  8
0
  6
Continuous
 62
     7
370
    25
100
AcDbLine
 10
277.5950471999
 20
247.6090241009
 30
0.0
 11
277.5950471999
 21
239.6778583048
 31
0.0
  0
LINE
  5
2F0
330
1F
100
AcDbEntity
  8
0
  6
Continuous
 62
     7
370
    25
100
AcDbLine
 10
277.5950471999
 20
239.6778583048
 30
0.0
 11
264.8950471999
 21
239.6778583048
 31
0.0
  0
LINE
  5
2F1
330
1F
100
AcDbEntity
  8
0
  6
Continuous
 62
     7
370
    25
100
AcDbLine
 10
275.4728058386
 20
240.5085788922
 30
0.0
 11
274.7060658703
 21
241.2021051362
 31
0.0
  0
LINE
  5
2F2
330
1F
100
AcDbEntity
  8
0
  6
Continuous
 62
     7
370
    25
100
AcDbLine
 10
276.4567871682
 20
240.8258320608
 30
0.0
 11
275.4728058386
 21
240.5085788922
 31
0.0
  0
LINE
  5
2F3
330
1F
100
AcDbEntity
  8
0
  6
Continuous
 62
     7
370
    25
100
AcDbLine
 10
276.6740285295
 20
241.8366114734
 30
0.0
 11
276.4567871682
 21
240.8258320608
 31
0.0
  0
LINE
  5
2F4
330
1F
100
AcDbEntity
  8
0
  6
Continuous
 62
     7
370
    25
100
AcDbLine
 10
275.9072885613
 20
242.5301377174
 30
0.0
 11
276.6740285295
 21
241.8366114734
 31
0.0
  0
LINE
  5
2F5
330
1F
100
AcDbEntity
  8
0
  6
Continuous
 62
     7
370
    25
100
AcDbLine
 10
274.9233072317
 20
242.2128845488
 30
0.0
 11
275.9072885613
 21
242.5301377174
 31
0.0
  0
LINE
  5
2F6
330
1F
100
AcDbEntity
  8
0
  6
Continuous
 62
     7
370
    25
100
AcDbLine
 10
274.7060658703
 20
241.2021051362
 30
0.0
 11
274.9233072317
 21
242.2128845488
 31
0.0
  0
CIRCLE
  5
2F7
330
1F
100
AcDbEntity
  8
0
  6
Continuous
 62
     7
370
    25
100
AcDbCircle
 10
275.6900471999
 20
241.5193583048
 30
0.0
 40
1.587500000084684
  0
CIRCLE
  5
2F8
330
1F
100
AcDbEntity
  8
0
  6
Continuous
 62
     7
370
    25
100
AcDbCircle
 10
275.6900471999
 20
241.5193583048
 30
0.0
 40
1.714500000000016
  0
LINE
  5
2F9
330
1F
100
AcDbEntity
  8
0
  6
Continuous
 62
   144
370
    18
100
AcDbLine
 10
266.6463058386
 20
240.5085788922
 30
0.0
 11
265.8795658703
 21
241.2021051362
 31
0.0
  0
LINE
  5
2FA
330
1F
100
AcDbEntity
  8
0
  6
Continuous
 62
   144
370
    18
100
AcDbLine
 10
267.6302871682
 20
240.8258320608
 30
0.0
 11
266.6463058386
 21
240.5085788922
 31
0.0
  0
LINE
  5
2FB
330
1F
100
AcDbEntity
  8
0
  6
Continuous
 62
     7
370
    25
100
AcDbLine
 10
267.8475285295
 20
241.8366114734
 30
0.0
 11
267.6302871682
 21
240.8258320608
 31
0.0
  0
LINE
  5
2FC
330
1F
100
AcDbEntity
  8
0
  6
Continuous
 62
     7
370
    25
100
AcDbLine
 10
267.0807885613
 20
242.5301377174
 30
0.0
 11
267.8475285295
 21
241.8366114734
 31
0.0
  0
LINE
  5
2FD
330
1F
100
AcDbEntity
  8
0
  6
Continuous
 62
     7
370
    25
100
AcDbLine
 10
266.0968072317
 20
242.2128845488
 30
0.0
 11
267.0807885613
 21
242.5301377174
 31
0.0
  0
LINE
  5
2FE
330
1F
100
AcDbEntity
  8
0
  6
Continuous
 62
     7
370
    25
100
AcDbLine
 10
265.8795658703
 20
241.2021051362
 30
0.0
 11
266.0968072317
 21
242.2128845488
 31
0.0
  0
CIRCLE
  5
2FF
330
1F
100
AcDbEntity
  8
0
  6
Continuous
 62
     7
370
    25
100
AcDbCircle
 10
266.8635471999
 20
241.5193583048
 30
0.0
 40
1.587500000084642
  0
CIRCLE
  5
300
330
1F
100
AcDbEntity
  8
0
  6
Continuous
 62
     7
370
    25
100
AcDbCircle
 10
266.8635471999
 20
241.5193583048
 30
0.0
 40
1.714499999999974
  0
LINE
  5
301
330
1F
100
AcDbEntity
  8
0
  6
Continuous
 62
     7
370
    25
100
AcDbLine
 10
275.4728058386
 20
255.1135788922
 30
0.0
 11
274.7060658703
 21
255.8071051362
 31
0.0
  0
LINE
  5
302
330
1F
100
AcDbEntity
  8
0
  6
Continuous
 62
     7
370
    25
100
AcDbLine
 10
276.4567871682
 20
255.4308320608
 30
0.0
 11
275.4728058386
 21
255.1135788922
 31
0.0
  0
LINE
  5
303
330
1F
100
AcDbEntity
  8
0
  6
Continuous
 62
     7
370
    25
100
AcDbLine
 10
276.6740285295
 20
256.4416114734
 30
0.0
 11
276.4567871682
 21
255.4308320608
 31
0.0
  0
LINE
  5
304
330
1F
100
AcDbEntity
  8
0
  6
Continuous
 62
   144
370
    18
100
AcDbLine
 10
275.9072885613
 20
257.1351377174
 30
0.0
 11
276.6740285295
 21
256.4416114734
 31
0.0
  0
LINE
  5
305
330
1F
100
AcDbEntity
  8
0
  6
Continuous
 62
     7
370
    25
100
AcDbLine
 10
274.9233072317
 20
256.8178845488
 30
0.0
 11
275.9072885613
 21
257.1351377174
 31
0.0
  0
LINE
  5
306
330
1F
100
AcDbEntity
  8
0
  6
Continuous
 62
     7
370
    25
100
AcDbLine
 10
274.7060658703
 20
255.8071051362
 30
0.0
 11
274.9233072317
 21
256.8178845488
 31
0.0
  0
CIRCLE
  5
307
330
1F
100
AcDbEntity
  8
0
  6
Continuous
 62
     7
370
    25
100
AcDbCircle
 10
275.6900471999
 20
256.1243583048
 30
0.0
 40
1.587500000084703
  0
CIRCLE
  5
308
330
1F
100
AcDbEntity
  8
0
  6
Continuous
 62
     7
370
    25
100
AcDbCircle
 10
275.6900471999
 20
256.1243583048
 30
0.0
 40
1.714500000000016
  0
LINE
  5
309
330
1F
100
AcDbEntity
  8
0
  6
Continuous
 62
     7
370
    25
100
AcDbLine
 10
266.6463058386
 20
255.1135788922
 30
0.0
 11
265.8795658703
 21
255.8071051362
 31
0.0
  0
LINE
  5
30A
330
1F
100
AcDbEntity
  8
0
  6
Continuous
 62
     7
370
    25
100
AcDbLine
 10
267.6302871682
 20
255.4308320608
 30
0.0
 11
266.6463058386
 21
255.1135788922
 31
0.0
  0
LINE
  5
30B
330
1F
100
AcDbEntity
  8
0
  6
Continuous
 62
     7
370
    25
100
AcDbLine
 10
267.8475285295
 20
256.4416114734
 30
0.0
 11
267.6302871682
 21
255.4308320608
 31
0.0
  0
LINE
  5
30C
330
1F
100
AcDbEntity
  8
0
  6
Continuous
 62
     7
370
    25
100
AcDbLine
 10
265.8795658703
 20
255.8071051362
 30
0.0
 11
266.0968072317
 21
256.8178845488
 31
0.0
  0
CIRCLE
  5
30D
330
1F
100
AcDbEntity
  8
0
  6
Continuous
 62
     7
370
    25
100
AcDbCircle
 10
266.8635471999
 20
256.1243583048
 30
0.0
 40
1.587500000084661
  0
LINE
  5
30E
330
1F
100
AcDbEntity
  8
0
  6
Continuous
 62
   144
370
    18
100
AcDbLine
 10
266.0968072317
 20
256.8178845488
 30
0.0
 11
267.0807885613
 21
257.1351377174
 31
0.0
  0
LINE
  5
30F
330
1F
100
AcDbEntity
  8
0
  6
Continuous
 62
   144
370
    18
100
AcDbLine
 10
267.0807885613
 20
257.1351377174
 30
0.0
 11
267.8475285295
 21
256.4416114734
 31
0.0
  0
CIRCLE
  5
310
330
1F
100
AcDbEntity
  8
0
  6
Continuous
 62
     7
370
    25
100
AcDbCircle
 10
266.8635471999
 20
256.1243583048
 30
0.0
 40
1.714499999999974
  0
LINE
  5
311
330
1F
100
AcDbEntity
  8
0
  6
Continuous
 62
   144
370
    18
100
AcDbLine
 10
264.1838471999
 20
252.8223583048
 30
0.0
 11
264.1838471999
 21
248.8599583048
 31
0.0
  0
LINE
  5
312
330
1F
100
AcDbEntity
  8
0
  6
Continuous
 62
     7
370
    25
100
AcDbLine
 10
264.5902471999
 20
252.8223583048
 30
0.0
 11
264.5902471999
 21
248.8599583048
 31
0.0
  0
LINE
  5
313
330
1F
100
AcDbEntity
  8
0
  6
Continuous
 62
     7
370
    25
100
AcDbLine
 10
264.2450471999
 20
258.5382076251
 30
0.0
 11
264.2450471999
 21
269.8853583048
 31
0.0
  0
LINE
  5
314
330
1F
100
AcDbEntity
  8
0
  6
Continuous
 62
     7
370
    25
100
AcDbLine
 10
264.2450471999
 20
227.8853583048
 30
0.0
 11
264.2450471999
 21
239.2325089845
 31
0.0
  0
LINE
  5
315
330
1F
100
AcDbEntity
  8
0
  6
Continuous
 62
     7
370
    25
100
AcDbLine
 10
264.2450471999
 20
258.5382076251
 30
0.0
 11
264.2450471999
 21
253.1274044341
 31
0.0
  0
LINE
  5
316
330
1F
100
AcDbEntity
  8
0
  6
Continuous
 62
     7
370
    25
100
AcDbLine
 10
264.2450471999
 20
248.5549121756
 30
0.0
 11
264.2450471999
 21
239.2325089845
 31
0.0
  0
LINE
  5
317
330
1F
100
AcDbEntity
  8
0
  6
Continuous
 62
     7
370
    25
100
AcDbLine
 10
204.2450471999
 20
258.5382076251
 30
0.0
 11
204.2450471999
 21
269.8853583048
 31
0.0
  0
LINE
  5
318
330
1F
100
AcDbEntity
  8
0
  6
Continuous
 62
     7
370
    25
100
AcDbLine
 10
204.2450471999
 20
258.5382076251
 30
0.0
 11
264.2450471999
 21
258.5382076251
 31
0.0
  0
LINE
  5
319
330
1F
100
AcDbEntity
  8
0
  6
Continuous
 62
     7
370
    25
100
AcDbLine
 10
264.2450471999
 20
239.2325089845
 30
0.0
 11
204.2450471999
 21
239.2325089845
 31
0.0
  0
LINE
  5
31A
330
1F
100
AcDbEntity
  8
0
  6
Continuous
 62
     7
370
    25
100
AcDbLine
 10
204.2450471999
 20
227.8853583048
 30
0.0
 11
204.2450471999
 21
239.2325089845
 31
0.0
  0
LINE
  5
31B
330
1F
100
AcDbEntity
  8
0
  6
Continuous
 62
     7
370
    25
100
AcDbLine
 10
239.5807721999
 20
250.6474833048
 30
0.0
 11
239.5807721999
 21
248.2662333048
 31
0.0
  0
CIRCLE
  5
31C
330
1F
100
AcDbEntity
  8
0
  6
Continuous
 62
     7
370
    25
100
AcDbCircle
 10
271.2450471999
 20
248.8853583048
 30
0.0
 40
2.790824999999984
  0
CIRCLE
  5
31D
330
1F
100
AcDbEntity
  8
0
  6
Continuous
 62
     7
370
    25
100
AcDbCircle
 10
271.2450471999
 20
248.8853583048
 30
0.0
 40
4.343130273675089
  0
SPLINE
  5
31E
330
1F
100
AcDbEntity
  8
0
  6
Continuous
 62
     7
370
    25
100
AcDbSpline
210
0.0
220
0.0
230
1.0
 70
     8
 71
     3
 72
    13
 73
     9
 74
     0
 42
0.000000001
 43
0.00000001
 40
0.0
 40
0.0
 40
0.0
 40
0.0
 40
0.25
 40
0.25
 40
0.5
 40
0.75
 40
0.75
 40
1.0
 40
1.0
 40
1.0
 40
1.0
 10
273.7655419546522
 20
253.2509832946395
 30
0.0
 10
273.3454594984701
 20
253.2509832946395
 30
0.0
 10
272.9253770422492
 20
253.2509833048122
 30
0.0
 10
272.0852121297015
 20
253.2509833048122
 30
0.0
 10
271.2450472170464
 20
253.2509833048122
 30
0.0
 10
270.404882304149
 20
253.2509833048122
 30
0.0
 10
269.5647173911443
 20
253.2509833048122
 30
0.0
 10
269.1446349345889
 20
253.2509833048122
 30
0.0
 10
268.7245524779947
 20
253.2509833048122
 30
0.0
  0
SPLINE
  5
31F
330
1F
100
AcDbEntity
  8
0
  6
Continuous
 62
     7
370
    25
100
AcDbSpline
210
0.0
220
0.0
230
1.0
 70
    24
 71
     3
 72
    13
 73
     9
 74
     0
 42
0.000000001
 43
0.00000001
 40
0.0
 40
0.0
 40
0.0
 40
0.0
 40
0.25
 40
0.25
 40
0.5
 40
0.75
 40
0.75
 40
1.0
 40
1.0
 40
1.0
 40
1.0
 10
276.2860367484184
 20
248.8853582864228
 30
0.0
 10
276.0759955178878
 20
249.2491603693861
 30
0.0
 10
275.8659542826038
 20
249.6129624605825
 30
0.0
 10
275.4458718214972
 20
250.3405666265876
 30
0.0
 10
275.0257893603641
 20
251.0681707926388
 30
0.0
 10
274.6057068991712
 20
251.7957749587936
 30
0.0
 10
274.1856244379517
 20
252.5233791249943
 30
0.0
 10
273.9755832073288
 20
252.8871812081174
 30
0.0
 10
273.7655419766964
 20
253.250983291257
 30
0.0
  0
SPLINE
  5
320
330
1F
100
AcDbEntity
  8
0
  6
Continuous
 62
     7
370
    25
100
AcDbSpline
210
0.0
220
0.0
230
1.0
 70
    24
 71
     3
 72
    13
 73
     9
 74
     0
 42
0.000000001
 43
0.00000001
 40
0.0
 40
0.0
 40
0.0
 40
0.0
 40
0.25
 40
0.25
 40
0.5
 40
0.75
 40
0.75
 40
1.0
 40
1.0
 40
1.0
 40
1.0
 10
273.7655419582532
 20
244.5197332864228
 30
0.0
 10
273.975583187435
 20
244.8835353670498
 30
0.0
 10
274.1856244213783
 20
245.2473374559241
 30
0.0
 10
274.6057068798257
 20
245.9749416173235
 30
0.0
 10
275.0257893383222
 20
246.7025457788079
 30
0.0
 10
275.4458717969293
 20
247.4301499404839
 30
0.0
 10
275.8659542555856
 20
248.1577541022451
 30
0.0
 10
276.075995484938
 20
248.5215561831676
 30
0.0
 10
276.2860367143081
 20
248.8853582641208
 30
0.0
  0
SPLINE
  5
321
330
1F
100
AcDbEntity
  8
0
  6
Continuous
 62
     7
370
    25
100
AcDbSpline
210
0.0
220
0.0
230
1.0
 70
    24
 71
     3
 72
    13
 73
     9
 74
     0
 42
0.000000001
 43
0.00000001
 40
0.0
 40
0.0
 40
0.0
 40
0.0
 40
0.25
 40
0.25
 40
0.5
 40
0.75
 40
0.75
 40
1.0
 40
1.0
 40
1.0
 40
1.0
 10
268.7245524779947
 20
244.5197333048122
 30
0.0
 10
269.1446349316522
 20
244.5197333048122
 30
0.0
 10
269.5647173853096
 20
244.5197333048122
 30
0.0
 10
270.4048822926245
 20
244.5197333048122
 30
0.0
 10
271.2450471999393
 20
244.5197333048122
 30
0.0
 10
272.0852121072542
 20
244.5197333048122
 30
0.0
 10
272.9253770145691
 20
244.5197333048122
 30
0.0
 10
273.3454594682265
 20
244.5197333048122
 30
0.0
 10
273.7655419218839
 20
244.5197333048122
 30
0.0
  0
SPLINE
  5
322
330
1F
100
AcDbEntity
  8
0
  6
Continuous
 62
     7
370
    25
100
AcDbSpline
210
0.0
220
0.0
230
1.0
 70
    24
 71
     3
 72
    11
 73
     7
 74
     0
 42
0.000000001
 43
0.00000001
 40
0.0
 40
0.0
 40
0.0
 40
0.0
 40
0.1825971172238232
 40
0.4493492455638319
 40
0.7234003260611642
 40
1.0
 40
1.0
 40
1.0
 40
1.0
 10
266.3946987209573
 20
248.5551583048237
 30
0.0
 10
266.5355489711239
 20
248.3111985152762
 30
0.0
 10
266.8821642661085
 20
247.7108432136824
 30
0.0
 10
267.4476717188633
 20
246.7313555734522
 30
0.0
 10
268.086537808415
 20
245.6248070471158
 30
0.0
 10
268.5112256986453
 20
244.8892260438777
 30
0.0
 10
268.7245524416255
 20
244.5197332864228
 30
0.0
  0
SPLINE
  5
323
330
1F
100
AcDbEntity
  8
0
  6
Continuous
 62
     7
370
    25
100
AcDbSpline
210
0.0
220
0.0
230
1.0
 70
     8
 71
     3
 72
    10
 73
     6
 74
     0
 42
0.000000001
 43
0.00000001
 40
0.0
 40
0.0
 40
0.0
 40
0.0
 40
0.3554316865391954
 40
0.7134440149575744
 40
1.0
 40
1.0
 40
1.0
 40
1.0
 10
268.7245524579032
 20
253.2509833107042
 30
0.0
 10
268.5203823644431
 20
252.8973503526406
 30
0.0
 10
268.110559783258
 20
252.1875168544547
 30
0.0
 10
267.5279396598497
 20
251.1783891860493
 30
0.0
 10
267.1535578712216
 20
250.5299409081914
 30
0.0
 10
266.9871188142869
 20
250.2416600058725
 30
0.0
  0
CIRCLE
  5
324
330
1F
100
AcDbEntity
  8
0
  6
Continuous
 62
     7
370
    25
100
AcDbCircle
 10
271.2450471999
 20
248.8853583048
 30
0.0
 40
2.837814999992351
  0
LINE
  5
325
330
1F
100
AcDbEntity
  8
0
  6
Continuous
 62
     7
370
    25
100
AcDbLine
 10
286.1450471999
 20
258.5382076251
 30
0.0
 11
286.1450471999
 21
269.8853583048
 31
0.0
  0
LINE
  5
326
330
1F
100
AcDbEntity
  8
0
  6
Continuous
 62
     7
370
    25
100
AcDbLine
 10
286.1450471999
 20
239.2325089845
 30
0.0
 11
286.1450471999
 21
227.8853583048
 31
0.0
  0
LINE
  5
327
330
1F
100
AcDbEntity
  8
0
  6
Continuous
 62
     7
370
    25
100
AcDbLine
 10
264.2450471999
 20
258.5382076251
 30
0.0
 11
286.1450471999
 21
258.5382076251
 31
0.0
  0
LINE
  5
328
330
1F
100
AcDbEntity
  8
0
  6
Continuous
 62
     7
370
    25
100
AcDbLine
 10
286.1450471999
 20
239.2325089845
 30
0.0
 11
264.2450471999
 21
239.2325089845
 31
0.0
  0
LINE
  5
329
330
1F
100
AcDbEntity
  8
0
  6
Continuous
 62
     7
370
    25
100
AcDbLine
 10
286.1450471999
 20
269.8853583048
 30
0.0
 11
286.1450471999
 21
258.4409849195
 31
0.0
  0
LINE
  5
32A
330
1F
100
AcDbEntity
  8
0
  6
Continuous
 62
     7
370
    25
100
AcDbLine
 10
294.8950471999
 20
269.8853583048
 30
0.0
 11
294.8950471999
 21
258.4409849195
 31
0.0
  0
LINE
  5
32B
330
1F
100
AcDbEntity
  8
0
  6
Continuous
 62
     7
370
    25
100
AcDbLine
 10
286.1450471999
 20
258.4409849195
 30
0.0
 11
294.8950471999
 21
258.4409849195
 31
0.0
  0
LINE
  5
32C
330
1F
100
AcDbEntity
  8
0
  6
Continuous
 62
     7
370
    25
100
AcDbLine
 10
294.8950471999
 20
239.3297316901
 30
0.0
 11
294.8950471999
 21
227.8853583048
 31
0.0
  0
LINE
  5
32D
330
1F
100
AcDbEntity
  8
0
  6
Continuous
 62
     7
370
    25
100
AcDbLine
 10
294.8950471999
 20
258.4409849195
 30
0.0
 11
294.8950471999
 21
239.3297316901
 31
0.0
  0
LINE
  5
32E
330
1F
100
AcDbEntity
  8
0
  6
Continuous
 62
     7
370
    25
100
AcDbLine
 10
294.8950471999
 20
239.3297316901
 30
0.0
 11
286.1450471999
 21
239.3297316901
 31
0.0
  0
LINE
  5
32F
330
1F
100
AcDbEntity
  8
0
  6
Continuous
 62
     7
370
    25
100
AcDbLine
 10
286.1450471999
 20
239.3297316901
 30
0.0
 11
286.1450471999
 21
258.4409849195
 31
0.0
  0
LINE
  5
330
330
1F
100
AcDbEntity
  8
0
  6
Continuous
 62
     7
370
    25
100
AcDbLine
 10
286.1450471999
 20
239.3297316901
 30
0.0
 11
286.1450471999
 21
227.8853583048
 31
0.0
  0
LINE
  5
331
330
1F
100
AcDbEntity
  8
0
  6
Continuous
 62
     7
370
    25
100
AcDbLine
 10
195.4950471999
 20
227.8853583048
 30
0.0
 11
195.4950471999
 21
239.3297316901
 31
0.0
  0
LINE
  5
332
330
1F
100
AcDbEntity
  8
0
  6
Continuous
 62
     7
370
    25
100
AcDbLine
 10
195.4950471999
 20
258.4409849195
 30
0.0
 11
195.4950471999
 21
269.8853583048
 31
0.0
  0
LINE
  5
333
330
1F
100
AcDbEntity
  8
0
  6
Continuous
 62
     7
370
    25
100
AcDbLine
 10
195.4950471999
 20
239.3297316901
 30
0.0
 11
195.4950471999
 21
258.4409849195
 31
0.0
  0
LINE
  5
334
330
1F
100
AcDbEntity
  8
0
  6
Continuous
 62
     7
370
    25
100
AcDbLine
 10
204.2450471999
 20
258.4409849195
 30
0.0
 11
204.2450471999
 21
269.8853583048
 31
0.0
  0
LINE
  5
335
330
1F
100
AcDbEntity
  8
0
  6
Continuous
 62
     7
370
    25
100
AcDbLine
 10
204.2450471999
 20
227.8853583048
 30
0.0
 11
204.2450471999
 21
239.3297316901
 31
0.0
  0
LINE
  5
336
330
1F
100
AcDbEntity
  8
0
  6
Continuous
 62
     7
370
    25
100
AcDbLine
 10
204.2450471999
 20
258.4409849195
 30
0.0
 11
204.2450471999
 21
239.3297316901
 31
0.0
  0
LINE
  5
337
330
1F
100
AcDbEntity
  8
0
  6
Continuous
 62
     7
370
    25
100
AcDbLine
 10
204.2450471999
 20
239.3297316901
 30
0.0
 11
195.4950471999
 21
239.3297316901
 31
0.0
  0
LINE
  5
338
330
1F
100
AcDbEntity
  8
0
  6
Continuous
 62
     7
370
    25
100
AcDbLine
 10
195.4950471999
 20
258.4409849195
 30
0.0
 11
204.2450471999
 21
258.4409849195
 31
0.0
  0
LINE
  5
339
330
1F
100
AcDbEntity
  8
0
  6
Continuous
 62
     7
370
    25
100
AcDbLine
 10
266.9714971999
 20
251.4614783236
 30
0.0
 11
266.9714971999
 21
251.4114632861
 31
0.0
  0
SPLINE
  5
33A
330
1F
100
AcDbEntity
  8
0
  6
Continuous
 62
     7
370
    25
100
AcDbSpline
210
0.0
220
0.0
230
1.0
 70
     8
 71
     3
 72
     8
 73
     4
 74
     0
 42
0.000000001
 43
0.00000001
 40
0.0
 40
0.0
 40
0.0
 40
0.0
 40
1.0
 40
1.0
 40
1.0
 40
1.0
 10
266.9714971999209
 20
251.411463285552
 30
0.0
 10
266.9683516885344
 20
251.216862214431
 30
0.0
 10
266.9274799359362
 20
251.0275271029331
 30
0.0
 10
266.865357003102
 20
250.8411583048931
 30
0.0
  0
LINE
  5
33B
330
1F
100
AcDbEntity
  8
0
  6
Continuous
 62
     7
370
    25
100
AcDbLine
 10
264.5902471999
 20
250.8411583048
 30
0.0
 11
266.8653570031
 21
250.8411583048
 31
0.0
  0
LINE
  5
33C
330
1F
100
AcDbEntity
  8
0
  6
Continuous
 62
     7
370
    25
100
AcDbLine
 10
264.5902471999
 20
252.0317833048
 30
0.0
 11
266.8653570007
 21
252.031783312
 31
0.0
  0
SPLINE
  5
33D
330
1F
100
AcDbEntity
  8
0
  6
Continuous
 62
   144
370
    18
100
AcDbSpline
210
0.0
220
0.0
230
1.0
 70
     8
 71
     3
 72
     8
 73
     4
 74
     0
 42
0.000000001
 43
0.00000001
 40
0.0
 40
0.0
 40
0.0
 40
0.0
 40
1.0
 40
1.0
 40
1.0
 40
1.0
 10
266.8653569870024
 20
252.0317833069969
 30
0.0
 10
266.9274799220451
 20
251.8454145072286
 30
0.0
 10
266.9683516884854
 20
251.6560793983271
 30
0.0
 10
266.9714971999218
 20
251.4614783240952
 30
0.0
  0
SPLINE
  5
33E
330
1F
100
AcDbEntity
  8
0
  6
Continuous
 62
     7
370
    25
100
AcDbSpline
210
0.0
220
0.0
230
1.0
 70
     8
 71
     3
 72
     8
 73
     4
 74
     0
 42
0.000000001
 43
0.00000001
 40
0.0
 40
0.0
 40
0.0
 40
0.0
 40
1.0
 40
1.0
 40
1.0
 40
1.0
 10
266.9714971999222
 20
250.2708533240946
 30
0.0
 10
266.9683516885354
 20
250.4654543952394
 30
0.0
 10
266.9274799359337
 20
250.6547895067311
 30
0.0
 10
266.8653570030893
 20
250.8411583047929
 30
0.0
  0
LINE
  5
33F
330
1F
100
AcDbEntity
  8
0
  6
Continuous
 62
     7
370
    25
100
AcDbLine
 10
266.9714971999
 20
250.2708533236
 30
0.0
 11
266.9714971999
 21
250.2208382861
 31
0.0
  0
SPLINE
  5
340
330
1F
100
AcDbEntity
  8
0
  6
Continuous
 62
     7
370
    25
100
AcDbSpline
210
0.0
220
0.0
230
1.0
 70
     8
 71
     3
 72
     8
 73
     4
 74
     0
 42
0.000000001
 43
0.00000001
 40
0.0
 40
0.0
 40
0.0
 40
0.0
 40
1.0
 40
1.0
 40
1.0
 40
1.0
 10
266.9714971999209
 20
250.2208382855535
 30
0.0
 10
266.9683516884874
 20
250.0262372115021
 30
0.0
 10
266.927479933796
 20
249.8369020937381
 30
0.0
 10
266.8653569991965
 20
249.6505332931408
 30
0.0
  0
LINE
  5
341
330
1F
100
AcDbEntity
  8
0
  6
Continuous
 62
     7
370
    25
100
AcDbLine
 10
266.8653570094
 20
249.6505333048
 30
0.0
 11
264.5902471999
 21
249.6505333048
 31
0.0
  0
LINE
  5
342
330
1F
100
AcDbEntity
  8
0
  6
Continuous
 62
     7
370
    25
100
AcDbLine
 10
266.9714971999
 20
250.2708533236
 30
0.0
 11
266.9714971999
 21
251.4114632861
 31
0.0
  0
LINE
  5
343
330
1F
100
AcDbEntity
  8
0
  6
Continuous
 62
     7
370
    25
100
AcDbLine
 10
266.9714971999
 20
250.2208382861
 30
0.0
 11
266.9714971999
 21
249.6505333048
 31
0.0
  0
LINE
  5
344
330
1F
100
AcDbEntity
  8
0
  6
Continuous
 62
   144
370
    18
100
AcDbLine
 10
266.9714971999
 20
252.0317833048
 30
0.0
 11
266.9714971999
 21
251.4614783236
 31
0.0
  0
SPLINE
  5
345
330
1F
100
AcDbEntity
  8
0
  6
Continuous
 62
     7
370
    25
100
AcDbSpline
210
0.0
220
0.0
230
1.0
 70
    24
 71
     3
 72
     8
 73
     4
 74
     0
 42
0.000000001
 43
0.00000001
 40
0.0
 40
0.0
 40
0.0
 40
0.0
 40
1.0
 40
1.0
 40
1.0
 40
1.0
 10
266.8653570156482
 20
249.6505333047751
 30
0.0
 10
266.9274799415631
 20
249.6505333047751
 30
0.0
 10
266.9683516887505
 20
249.6505333048238
 30
0.0
 10
266.9714971999218
 20
249.6505333048238
 30
0.0
  0
SPLINE
  5
346
330
1F
100
AcDbEntity
  8
0
  6
Continuous
 62
   144
370
    18
100
AcDbSpline
210
0.0
220
0.0
230
1.0
 70
    24
 71
     3
 72
     8
 73
     4
 74
     0
 42
0.000000001
 43
0.00000001
 40
0.0
 40
0.0
 40
0.0
 40
0.0
 40
1.0
 40
1.0
 40
1.0
 40
1.0
 10
266.9714971999209
 20
252.0317833048223
 30
0.0
 10
266.9683516887495
 20
252.0317833048223
 30
0.0
 10
266.9274799415319
 20
252.0317833048238
 30
0.0
 10
266.8653570156134
 20
252.0317833048238
 30
0.0
  0
LINE
  5
347
330
1F
100
AcDbEntity
  8
0
  6
Continuous
 62
     8
370
    25
100
AcDbLine
 10
264.2600471999
 20
248.8599583048
 30
0.0
 11
264.2600471999
 21
248.5551583048
 31
0.0
  0
LINE
  5
348
330
1F
100
AcDbEntity
  8
0
  6
Continuous
 62
     8
370
    25
100
AcDbLine
 10
264.2600471999
 20
253.1271583048
 30
0.0
 11
264.2600471999
 21
252.8223583048
 31
0.0
  0
LINE
  5
349
330
1F
100
AcDbEntity
  8
0
  6
Continuous
 62
     8
370
    25
100
AcDbLine
 10
264.5902471999
 20
252.1432831664
 30
0.0
 11
266.7873471999
 21
252.1432831664
 31
0.0
  0
SPLINE
  5
34A
330
1F
100
AcDbEntity
  8
0
  6
Continuous
 62
     8
370
    25
100
AcDbSpline
210
0.0
220
0.0
230
1.0
 70
     8
 71
     3
 72
    39
 73
    35
 74
     0
 42
0.000000001
 43
0.00000001
 40
0.0
 40
0.0
 40
0.0
 40
0.0
 40
0.0208407999338565
 40
0.0579771080887869
 40
0.0943417072745203
 40
0.1292548302000058
 40
0.1621948582936009
 40
0.195134886387196
 40
0.2300480093126815
 40
0.2482578056818172
 40
0.2664592973808846
 40
0.3035956055358149
 40
0.3407319136907455
 40
0.3770965128764789
 40
0.4120096358019644
 40
0.4449496638955595
 40
0.4778896919891545
 40
0.51280281491464
 40
0.5310126112838097
 40
0.5492141029828433
 40
0.5863504111377738
 40
0.6234867192927042
 40
0.6598513184784377
 40
0.6947644414039231
 40
0.7277044694975182
 40
0.7606444975911132
 40
0.7955576205165986
 40
0.8137674168859049
 40
0.8319689085848021
 40
0.8691052167397324
 40
0.9062415248946629
 40
0.9426061240803965
 40
0.9775192470058819
 40
1.0
 40
1.0
 40
1.0
 40
1.0
 10
266.7873471999392
 20
252.4136449049564
 30
0.0
 10
266.92100161206
 20
252.5893598576551
 30
0.0
 10
267.2928153774942
 20
253.0781820160059
 30
0.0
 10
268.0945621493158
 20
253.6933199613391
 30
0.0
 10
269.1119489670414
 20
254.2293913137656
 30
0.0
 10
270.1788016116307
 20
254.5342286027077
 30
0.0
 10
271.2449841912146
 20
254.632382925298
 30
0.0
 10
272.311552371543
 20
254.5345530004267
 30
0.0
 10
273.1915313742326
 20
254.2813838533802
 30
0.0
 10
273.8785005360097
 20
253.9685268780651
 30
0.0
 10
274.5505966362199
 20
253.5759491825675
 30
0.0
 10
275.3150999094703
 20
252.9552134753398
 30
0.0
 10
276.0573394217013
 20
252.041312229497
 30
0.0
 10
276.5879789961319
 20
251.0170658661515
 30
0.0
 10
276.8941892501937
 20
249.9519470768276
 30
0.0
 10
276.9920008337061
 20
248.8853316676319
 30
0.0
 10
276.8942625942249
 20
247.8188792726311
 30
0.0
 10
276.6410699940259
 20
246.9388706519729
 30
0.0
 10
276.3282162932873
 20
246.251905625612
 30
0.0
 10
275.9356377710862
 20
245.5798084809684
 30
0.0
 10
275.3149024728811
 20
244.8153057275991
 30
0.0
 10
274.4010011061695
 20
244.0730660489523
 30
0.0
 10
273.3767547358871
 20
243.5424265151761
 30
0.0
 10
272.3116360830521
 20
243.2362162603075
 30
0.0
 10
271.2450201680182
 20
243.1384046438407
 30
0.0
 10
270.1785696829144
 20
243.2361430168552
 30
0.0
 10
269.2985547397818
 20
243.4893351728884
 30
0.0
 10
268.6116032312691
 20
243.8021898236376
 30
0.0
 10
267.939449667182
 20
244.1947643806831
 30
0.0
 10
267.175388545766
 20
244.8155307168065
 30
0.0
 10
266.4313300748354
 20
245.729304258679
 30
0.0
 10
265.9072145534445
 20
246.7540091369761
 30
0.0
 10
265.6111668013909
 20
247.7107870990595
 30
0.0
 10
265.5746467955075
 20
248.3175096199999
 30
0.0
 10
265.5603421816709
 20
248.5551583048237
 30
0.0
  0
LINE
  5
34B
330
1F
100
AcDbEntity
  8
0
  6
Continuous
 62
     7
370
    25
100
AcDbLine
 10
400.0823596974
 20
136.9584309495
 30
0.0
 11
400.1001437593
 21
136.9584309495
 31
0.0
  0
LINE
  5
34C
330
1F
100
AcDbEntity
  8
0
  6
Continuous
 62
     7
370
    25
100
AcDbLine
 10
400.1001437593
 20
138.7110309495
 30
0.0
 11
400.0823596974
 21
138.7110309495
 31
0.0
  0
ARC
  5
34D
330
1F
100
AcDbEntity
  8
0
  6
Continuous
 62
     7
370
    25
100
AcDbCircle
 10
403.7196437593
 20
156.1481309495
 30
0.0
 40
0.7620000000000005
100
AcDbArc
 50
90.0
 51
180.0
  0
ARC
  5
34E
330
1F
100
AcDbEntity
  8
0
  6
Continuous
 62
     7
370
    25
100
AcDbCircle
 10
415.1496437593
 20
156.1481309495
 30
0.0
 40
0.7620000000000005
100
AcDbArc
 50
0.0
 51
90.0
  0
LINE
  5
34F
330
1F
100
AcDbEntity
  8
0
  6
Continuous
 62
     7
370
    25
100
AcDbLine
 10
402.9576437593
 20
156.1481309495
 30
0.0
 11
402.9576437593
 21
140.3239309496
 31
0.0
  0
LINE
  5
350
330
1F
100
AcDbEntity
  8
0
  6
Continuous
 62
     7
370
    25
100
AcDbLine
 10
415.9116437593
 20
140.3239309496
 30
0.0
 11
415.9116437593
 21
156.1481309495
 31
0.0
  0
LINE
  5
351
330
1F
100
AcDbEntity
  8
0
  6
Continuous
 62
     7
370
    25
100
AcDbLine
 10
403.7831437593
 20
140.1969309495
 30
0.0
 11
403.6561437594
 21
140.3239309496
 31
0.0
  0
LINE
  5
352
330
1F
100
AcDbEntity
  8
0
  6
Continuous
 62
     7
370
    25
100
AcDbLine
 10
400.4811437592
 20
140.3239309496
 30
0.0
 11
400.3541437593
 21
140.1969309495
 31
0.0
  0
LINE
  5
353
330
1F
100
AcDbEntity
  8
0
  6
Continuous
 62
     7
370
    25
100
AcDbLine
 10
403.7831437593
 20
138.2411309495
 30
0.0
 11
403.7831437593
 21
140.1969309495
 31
0.0
  0
LINE
  5
354
330
1F
100
AcDbEntity
  8
0
  6
Continuous
 62
     7
370
    25
100
AcDbLine
 10
400.3541437593
 20
140.1969309495
 30
0.0
 11
400.3541437593
 21
138.2411309495
 31
0.0
  0
LINE
  5
355
330
1F
100
AcDbEntity
  8
0
  6
Continuous
 62
     7
370
    25
100
AcDbLine
 10
403.7831437593
 20
138.2270233765
 30
0.0
 11
403.7831437593
 21
138.2411309495
 31
0.0
  0
LINE
  5
356
330
1F
100
AcDbEntity
  8
0
  6
Continuous
 62
     7
370
    25
100
AcDbLine
 10
400.3541437593
 20
138.2411309495
 30
0.0
 11
400.3541437593
 21
138.2270233765
 31
0.0
  0
LINE
  5
357
330
1F
100
AcDbEntity
  8
0
  6
Continuous
 62
     7
370
    25
100
AcDbLine
 10
418.3881437593
 20
138.2411309495
 30
0.0
 11
418.3881437593
 21
140.1969309495
 31
0.0
  0
LINE
  5
358
330
1F
100
AcDbEntity
  8
0
  6
Continuous
 62
     7
370
    25
100
AcDbLine
 10
414.9591437593
 20
140.1969309495
 30
0.0
 11
414.9591437593
 21
138.2411309495
 31
0.0
  0
LINE
  5
359
330
1F
100
AcDbEntity
  8
0
  6
Continuous
 62
     7
370
    25
100
AcDbLine
 10
418.3881437593
 20
140.1969309495
 30
0.0
 11
418.2611437594
 21
140.3239309496
 31
0.0
  0
LINE
  5
35A
330
1F
100
AcDbEntity
  8
0
  6
Continuous
 62
     7
370
    25
100
AcDbLine
 10
415.0861437592
 20
140.3239309496
 30
0.0
 11
414.9591437593
 21
140.1969309495
 31
0.0
  0
LINE
  5
35B
330
1F
100
AcDbEntity
  8
0
  6
Continuous
 62
     7
370
    25
100
AcDbLine
 10
406.6438187593
 20
160.2984909495
 30
0.0
 11
406.6438187593
 21
160.0381409494
 31
0.0
  0
LINE
  5
35C
330
1F
100
AcDbEntity
  8
0
  6
Continuous
 62
     7
370
    25
100
AcDbLine
 10
406.6438187593
 20
138.2411309495
 30
0.0
 11
406.6438187593
 21
138.2270233765
 31
0.0
  0
LINE
  5
35D
330
1F
100
AcDbEntity
  8
0
  6
Continuous
 62
     7
370
    25
100
AcDbLine
 10
412.2254687593
 20
138.2270233765
 30
0.0
 11
412.2254687593
 21
138.2411309495
 31
0.0
  0
LINE
  5
35E
330
1F
100
AcDbEntity
  8
0
  6
Continuous
 62
     7
370
    25
100
AcDbLine
 10
412.2254687593
 20
160.0381409494
 30
0.0
 11
412.2254687593
 21
160.2984909495
 31
0.0
  0
LINE
  5
35F
330
1F
100
AcDbEntity
  8
0
  6
Continuous
 62
     7
370
    25
100
AcDbLine
 10
413.8002687593
 20
160.0769435396
 30
0.0
 11
413.777774033
 21
160.0851309505
 31
0.0
  0
LINE
  5
360
330
1F
100
AcDbEntity
  8
0
  6
Continuous
 62
     7
370
    25
100
AcDbLine
 10
405.0915134856
 20
160.0851309505
 30
0.0
 11
405.0690187501
 21
160.0769435363
 31
0.0
  0
LINE
  5
361
330
1F
100
AcDbEntity
  8
0
  6
Continuous
 62
     7
370
    25
100
AcDbLine
 10
413.6764437593
 20
180.4474676165
 30
0.0
 11
413.6764437593
 21
170.5837942825
 31
0.0
  0
ARC
  5
362
330
1F
100
AcDbEntity
  8
0
  6
Continuous
 62
     7
370
    25
100
AcDbCircle
 10
412.4858187593
 20
170.5837942825
 30
0.0
 40
1.190625000000039
100
AcDbArc
 50
280.0
 51
0.0
  0
ARC
  5
363
330
1F
100
AcDbEntity
  8
0
  6
Continuous
 62
     7
370
    25
100
AcDbCircle
 10
412.4858187593
 20
180.4474676165
 30
0.0
 40
1.190625000000011
100
AcDbArc
 50
0.0
 51
80.0
  0
LINE
  5
364
330
1F
100
AcDbEntity
  8
0
  6
Continuous
 62
     7
370
    25
100
AcDbLine
 10
412.6925686209
 20
169.4112575516
 30
0.0
 11
410.5018186209
 21
169.0249692186
 31
0.0
  0
LINE
  5
365
330
1F
100
AcDbEntity
  8
0
  6
Continuous
 62
     7
370
    25
100
AcDbLine
 10
410.5018186209
 20
182.0062926804
 30
0.0
 11
412.6925686209
 21
181.6200043474
 31
0.0
  0
ARC
  5
366
330
1F
100
AcDbEntity
  8
0
  6
Continuous
 62
     7
370
    25
100
AcDbCircle
 10
410.2950687593
 20
170.1975059495
 30
0.0
 40
1.190625000000048
100
AcDbArc
 50
180.0
 51
280.0
  0
ARC
  5
367
330
1F
100
AcDbEntity
  8
0
  6
Continuous
 62
     7
370
    25
100
AcDbCircle
 10
410.2950687593
 20
180.8337559495
 30
0.0
 40
1.190625000000048
100
AcDbArc
 50
80.0
 51
180.0
  0
LINE
  5
368
330
1F
100
AcDbEntity
  8
0
  6
Continuous
 62
     7
370
    25
100
AcDbLine
 10
409.1044437593
 20
170.1975059495
 30
0.0
 11
409.1044437593
 21
180.8337559495
 31
0.0
  0
ARC
  5
369
330
1F
100
AcDbEntity
  8
0
  6
Continuous
 62
     7
370
    25
100
AcDbCircle
 10
412.4858187593
 20
180.4474676165
 30
0.0
 40
0.9937750000000561
100
AcDbArc
 50
0.0
 51
80.0
  0
LINE
  5
36A
330
1F
100
AcDbEntity
  8
0
  6
Continuous
 62
     7
370
    25
100
AcDbLine
 10
410.4676359771
 20
181.8124332743
 30
0.0
 11
412.6583859771
 21
181.4261449413
 31
0.0
  0
ARC
  5
36B
330
1F
100
AcDbEntity
  8
0
  6
Continuous
 62
     7
370
    25
100
AcDbCircle
 10
410.2950687593
 20
180.8337559495
 30
0.0
 40
0.9937750000000463
100
AcDbArc
 50
80.0
 51
180.0
  0
LINE
  5
36C
330
1F
100
AcDbEntity
  8
0
  6
Continuous
 62
     7
370
    25
100
AcDbLine
 10
409.3012937593
 20
170.1975059495
 30
0.0
 11
409.3012937593
 21
180.8337559495
 31
0.0
  0
ARC
  5
36D
330
1F
100
AcDbEntity
  8
0
  6
Continuous
 62
     7
370
    25
100
AcDbCircle
 10
410.2950687593
 20
170.1975059495
 30
0.0
 40
0.9937750000000278
100
AcDbArc
 50
180.0
 51
280.0
  0
LINE
  5
36E
330
1F
100
AcDbEntity
  8
0
  6
Continuous
 62
     7
370
    25
100
AcDbLine
 10
412.6583859771
 20
169.6051169577
 30
0.0
 11
410.4676359771
 21
169.2188286248
 31
0.0
  0
ARC
  5
36F
330
1F
100
AcDbEntity
  8
0
  6
Continuous
 62
     7
370
    25
100
AcDbCircle
 10
412.4858187593
 20
170.5837942825
 30
0.0
 40
0.9937750000000561
100
AcDbArc
 50
280.0
 51
0.0
  0
LINE
  5
370
330
1F
100
AcDbEntity
  8
0
  6
Continuous
 62
     7
370
    25
100
AcDbLine
 10
413.4795937593
 20
180.4474676165
 30
0.0
 11
413.4795937593
 21
170.5837942825
 31
0.0
  0
CIRCLE
  5
371
330
1F
100
AcDbEntity
  8
0
  6
Continuous
 62
     7
370
    25
100
AcDbCircle
 10
412.1016437593
 20
171.3627309495
 30
0.0
 40
0.1587499999999977
  0
CIRCLE
  5
372
330
1F
100
AcDbEntity
  8
0
  6
Continuous
 62
     7
370
    25
100
AcDbCircle
 10
412.1016437593
 20
176.8999309495
 30
0.0
 40
0.1587499999999977
  0
CIRCLE
  5
373
330
1F
100
AcDbEntity
  8
0
  6
Continuous
 62
     7
370
    25
100
AcDbCircle
 10
412.1016437593
 20
178.2842309495
 30
0.0
 40
0.1587499999999977
  0
CIRCLE
  5
374
330
1F
100
AcDbEntity
  8
0
  6
Continuous
 62
     7
370
    25
100
AcDbCircle
 10
412.1016437593
 20
179.6685309495
 30
0.0
 40
0.1587499999999977
  0
CIRCLE
  5
375
330
1F
100
AcDbEntity
  8
0
  6
Continuous
 62
     7
370
    25
100
AcDbCircle
 10
412.1016437593
 20
174.1313309495
 30
0.0
 40
0.1587499999999977
  0
CIRCLE
  5
376
330
1F
100
AcDbEntity
  8
0
  6
Continuous
 62
     7
370
    25
100
AcDbCircle
 10
412.1016437593
 20
175.5156309495
 30
0.0
 40
0.1587499999999977
  0
CIRCLE
  5
377
330
1F
100
AcDbEntity
  8
0
  6
Continuous
 62
     7
370
    25
100
AcDbCircle
 10
412.1016437593
 20
172.7470309495
 30
0.0
 40
0.1587499999999977
  0
CIRCLE
  5
378
330
1F
100
AcDbEntity
  8
0
  6
Continuous
 62
     7
370
    25
100
AcDbCircle
 10
410.6792437593
 20
170.6705809495
 30
0.0
 40
0.1587499999999977
  0
CIRCLE
  5
379
330
1F
100
AcDbEntity
  8
0
  6
Continuous
 62
     7
370
    25
100
AcDbCircle
 10
410.6792437593
 20
172.0548809495
 30
0.0
 40
0.1587499999999977
  0
CIRCLE
  5
37A
330
1F
100
AcDbEntity
  8
0
  6
Continuous
 62
     7
370
    25
100
AcDbCircle
 10
410.6792437593
 20
180.3606809495
 30
0.0
 40
0.1587499999999977
  0
CIRCLE
  5
37B
330
1F
100
AcDbEntity
  8
0
  6
Continuous
 62
     7
370
    25
100
AcDbCircle
 10
410.6792437593
 20
177.5920809495
 30
0.0
 40
0.1587499999999977
  0
CIRCLE
  5
37C
330
1F
100
AcDbEntity
  8
0
  6
Continuous
 62
     7
370
    25
100
AcDbCircle
 10
410.6792437593
 20
178.9763809495
 30
0.0
 40
0.1587499999999977
  0
CIRCLE
  5
37D
330
1F
100
AcDbEntity
  8
0
  6
Continuous
 62
     7
370
    25
100
AcDbCircle
 10
410.6792437593
 20
173.4391809495
 30
0.0
 40
0.1587499999999977
  0
CIRCLE
  5
37E
330
1F
100
AcDbEntity
  8
0
  6
Continuous
 62
     7
370
    25
100
AcDbCircle
 10
410.6792437593
 20
176.2077809495
 30
0.0
 40
0.1587499999999977
  0
CIRCLE
  5
37F
330
1F
100
AcDbEntity
  8
0
  6
Continuous
 62
     7
370
    25
100
AcDbCircle
 10
410.6792437593
 20
174.8234809495
 30
0.0
 40
0.1587499999999977
  0
LINE
  5
380
330
1F
100
AcDbEntity
  8
0
  6
Continuous
 62
     7
370
    25
100
AcDbLine
 10
412.6925686209
 20
169.4112575516
 30
0.0
 11
412.7719605677
 21
168.9610034469
 31
0.0
  0
LINE
  5
381
330
1F
100
AcDbEntity
  8
0
  6
Continuous
 62
     7
370
    25
100
AcDbLine
 10
412.6925686209
 20
181.6200043474
 30
0.0
 11
412.7719605677
 21
182.0702584521
 31
0.0
  0
LINE
  5
382
330
1F
100
AcDbEntity
  8
0
  6
Continuous
 62
   144
370
    18
100
AcDbLine
 10
409.1044437593
 20
170.1975059495
 30
0.0
 11
408.8885437593
 21
170.1975059495
 31
0.0
  0
LINE
  5
383
330
1F
100
AcDbEntity
  8
0
  6
Continuous
 62
   144
370
    18
100
AcDbLine
 10
409.1044437593
 20
180.8337559495
 30
0.0
 11
408.9400039357
 21
180.8337559495
 31
0.0
  0
LINE
  5
384
330
1F
100
AcDbEntity
  8
0
  6
Continuous
 62
   144
370
    18
100
AcDbLine
 10
413.7907437593
 20
165.7302809495
 30
0.0
 11
413.8923437593
 21
165.7302809495
 31
0.0
  0
SPLINE
  5
385
330
1F
100
AcDbEntity
  8
0
  6
Continuous
 62
     7
370
    25
100
AcDbSpline
210
0.0
220
0.0
230
1.0
 70
    24
 71
     3
 72
     8
 73
     4
 74
     0
 42
0.000000001
 43
0.00000001
 40
0.0
 40
0.0
 40
0.0
 40
0.0
 40
1.0
 40
1.0
 40
1.0
 40
1.0
 10
401.6876437593529
 20
185.5613309495052
 30
0.0
 10
401.6876437593438
 20
185.5569113964133
 30
0.0
 10
401.6876437593359
 20
185.5530506440295
 30
0.0
 10
401.6876437593269
 20
185.5486309495052
 30
0.0
  0
SPLINE
  5
386
330
1F
100
AcDbEntity
  8
0
  6
Continuous
 62
     7
370
    25
100
AcDbSpline
210
0.0
220
0.0
230
1.0
 70
    24
 71
     3
 72
     8
 73
     4
 74
     0
 42
0.000000001
 43
0.00000001
 40
0.0
 40
0.0
 40
0.0
 40
0.0
 40
1.0
 40
1.0
 40
1.0
 40
1.0
 10
417.1689437593268
 20
185.5486309495052
 30
0.0
 10
417.1689437593269
 20
185.5530506440295
 30
0.0
 10
417.1689437593269
 20
185.5569113964133
 30
0.0
 10
417.1689437593269
 20
185.5613309495052
 30
0.0
  0
SPLINE
  5
387
330
1F
100
AcDbEntity
  8
0
  6
Continuous
 62
     7
370
    25
100
AcDbSpline
210
0.0
220
0.0
230
1.0
 70
     8
 71
     3
 72
    22
 73
    18
 74
     0
 42
0.000000001
 43
0.00000001
 40
0.0
 40
0.0
 40
0.0
 40
0.0
 40
0.0350925811809827
 40
0.0700437954462124
 40
0.10491142786228
 40
0.1397536793539383
 40
0.174628877915839
 40
0.2095951866640315
 40
0.2447103159850784
 40
0.372318746031452
 40
0.5000168246517729
 40
0.6276252194224651
 40
0.7553232681913489
 40
0.816631274173173
 40
0.8776385628538995
 40
0.9386574313704585
 40
0.9999999999999999
 40
0.9999999999999999
 40
0.9999999999999999
 40
0.9999999999999999
 10
413.8923437593269
 20
164.630467618926
 30
0.0
 10
413.9234480381919
 20
164.616627734503
 30
0.0
 10
413.9855312954787
 20
164.5890037182322
 30
0.0
 10
414.0763022151749
 20
164.542904405436
 30
0.0
 10
414.1650287831951
 20
164.4935223568182
 30
0.0
 10
414.2515640864386
 20
164.4405178276044
 30
0.0
 10
414.3359456924049
 20
164.3839837545872
 30
0.0
 10
414.4181655350392
 20
164.3238898713779
 30
0.0
 10
414.5683031605436
 20
164.204562050177
 30
0.0
 10
414.7724303890122
 20
164.0086979053867
 30
0.0
 10
414.9994688123436
 20
163.7130662879771
 30
0.0
 10
415.1811274171266
 20
163.3874461995722
 30
0.0
 10
415.2890390757276
 20
163.0985927029097
 30
0.0
 10
415.3490653284738
 20
162.8634492522563
 30
0.0
 10
415.3804362720999
 20
162.6882737094373
 30
0.0
 10
415.4000441550406
 20
162.5112625949895
 30
0.0
 10
415.4024417769746
 20
162.3925461838024
 30
0.0
 10
415.4036437593268
 20
162.3330309495052
 30
0.0
  0
ARC
  5
388
330
1F
100
AcDbEntity
  8
0
  6
Continuous
 62
     7
370
    25
100
AcDbCircle
 10
411.3904437593
 20
180.3289309495
 30
0.0
 40
2.501900000000148
100
AcDbArc
 50
0.0
 51
56.6843750267
  0
LINE
  5
389
330
1F
100
AcDbEntity
  8
0
  6
Continuous
 62
   144
370
    18
100
AcDbLine
 10
413.8923437593
 20
180.3289309495
 30
0.0
 11
413.8923437593
 21
164.6304676189
 31
0.0
  0
LINE
  5
38A
330
1F
100
AcDbEntity
  8
0
  6
Continuous
 62
   144
370
    18
100
AcDbLine
 10
415.4036437593
 20
162.3330309495
 30
0.0
 11
415.4036437593
 21
156.8665514392
 31
0.0
  0
LINE
  5
38B
330
1F
100
AcDbEntity
  8
0
  6
Continuous
 62
   144
370
    18
100
AcDbLine
 10
415.4036437593
 20
138.2411309495
 30
0.0
 11
415.4036437593
 21
138.2270233765
 31
0.0
  0
LINE
  5
38C
330
1F
100
AcDbEntity
  8
0
  6
Continuous
 62
   144
370
    18
100
AcDbLine
 10
408.8885437593
 20
160.2984909495
 30
0.0
 11
408.8885437593
 21
180.3289309495
 31
0.0
  0
ARC
  5
38D
330
1F
100
AcDbEntity
  8
0
  6
Continuous
 62
   144
370
    18
100
AcDbCircle
 10
411.3904437593
 20
180.3289309495
 30
0.0
 40
2.501900000000005
100
AcDbArc
 50
123.3156249733
 51
180.0
  0
LINE
  5
38E
330
1F
100
AcDbEntity
  8
0
  6
Continuous
 62
     7
370
    25
100
AcDbLine
 10
418.7564437593
 20
136.3770742813
 30
0.0
 11
418.7564437593
 21
185.5486309495
 31
0.0
  0
LINE
  5
38F
330
1F
100
AcDbEntity
  8
0
  6
Continuous
 62
     7
370
    25
100
AcDbLine
 10
418.7564437593
 20
185.5486309495
 30
0.0
 11
417.1689437593
 21
185.5486309495
 31
0.0
  0
LINE
  5
390
330
1F
100
AcDbEntity
  8
0
  6
Continuous
 62
     7
370
    25
100
AcDbLine
 10
400.1001437593
 20
136.3770742813
 30
0.0
 11
400.1001437593
 21
185.5486309495
 31
0.0
  0
LINE
  5
391
330
1F
100
AcDbEntity
  8
0
  6
Continuous
 62
     7
370
    25
100
AcDbLine
 10
401.6876437593
 20
185.5486309495
 30
0.0
 11
400.1001437593
 21
185.5486309495
 31
0.0
  0
SPLINE
  5
392
330
1F
100
AcDbEntity
  8
0
  6
Continuous
 62
     7
370
    25
100
AcDbSpline
210
0.0
220
0.0
230
1.0
 70
    24
 71
     3
 72
     8
 73
     4
 74
     0
 42
0.000000001
 43
0.00000001
 40
0.0
 40
0.0
 40
0.0
 40
0.0
 40
1.0
 40
1.0
 40
1.0
 40
1.0
 10
401.7003437593268
 20
187.1361309495052
 30
0.0
 10
401.7003437593268
 20
187.1361309495052
 30
0.0
 10
401.7003437593268
 20
187.1361140157202
 30
0.0
 10
401.7003437593268
 20
187.1360801486923
 30
0.0
  0
LINE
  5
393
330
1F
100
AcDbEntity
  8
0
  6
Continuous
 62
     7
370
    25
100
AcDbLine
 10
417.1689437593
 20
187.1360801519
 30
0.0
 11
413.2909006996
 21
187.1360801519
 31
0.0
  0
LINE
  5
394
330
1F
100
AcDbEntity
  8
0
  6
Continuous
 62
     7
370
    25
100
AcDbLine
 10
417.1689437593
 20
185.5613309495
 30
0.0
 11
417.1689437593
 21
187.1360801487
 31
0.0
  0
LINE
  5
395
330
1F
100
AcDbEntity
  8
0
  6
Continuous
 62
     7
370
    25
100
AcDbLine
 10
401.6876437593
 20
187.1361309495
 30
0.0
 11
401.6876437593
 21
185.5613309495
 31
0.0
  0
LINE
  5
396
330
1F
100
AcDbEntity
  8
0
  6
Continuous
 62
     7
370
    25
100
AcDbLine
 10
401.7003437593
 20
187.1361309495
 30
0.0
 11
401.6876437593
 21
187.1361309495
 31
0.0
  0
SPLINE
  5
397
330
1F
100
AcDbEntity
  8
0
  6
Continuous
 62
   144
370
    18
100
AcDbSpline
210
0.0
220
0.0
230
1.0
 70
     8
 71
     3
 72
    13
 73
     9
 74
     0
 42
0.000000001
 43
0.00000001
 40
0.0
 40
0.0
 40
0.0
 40
0.0
 40
0.167562650374051
 40
0.3340511639557576
 40
0.500000000000218
 40
0.6659488360446274
 40
0.8324373496261912
 40
1.0
 40
1.0
 40
1.0
 40
1.0
 10
413.2909006996341
 20
187.1360801486923
 30
0.0
 10
413.2660429904049
 20
187.136039743284
 30
0.0
 10
413.2164869187939
 20
187.1359591914806
 30
0.0
 10
413.1416431930325
 20
187.1358394357369
 30
0.0
 10
413.0668437593267
 20
187.1357963028152
 30
0.0
 10
412.992044325621
 20
187.1358394357369
 30
0.0
 10
412.9172005998595
 20
187.1359591914806
 30
0.0
 10
412.8676445282486
 20
187.136039743284
 30
0.0
 10
412.8427868190195
 20
187.1360801486923
 30
0.0
  0
LINE
  5
398
330
1F
100
AcDbEntity
  8
0
  6
Continuous
 62
   144
370
    18
100
AcDbLine
 10
401.7003437593
 20
187.1360801487
 30
0.0
 11
412.842786819
 21
187.1360801487
 31
0.0
  0
SPLINE
  5
399
330
1F
100
AcDbEntity
  8
0
  6
Continuous
 62
     7
370
    25
100
AcDbSpline
210
0.0
220
0.0
230
1.0
 70
     8
 71
     3
 72
     8
 73
     4
 74
     0
 42
0.000000001
 43
0.00000001
 40
0.0
 40
0.0
 40
0.0
 40
0.0
 40
1.0
 40
1.0
 40
1.0
 40
1.0
 10
417.1689437593268
 20
187.1360801486923
 30
0.0
 10
417.1733633124186
 20
187.1360801486923
 30
0.0
 10
417.1772239412565
 20
187.1360647059299
 30
0.0
 10
417.1816433529203
 20
187.1360293495052
 30
0.0
  0
SPLINE
  5
39A
330
1F
100
AcDbEntity
  8
0
  6
Continuous
 62
     7
370
    25
100
AcDbSpline
210
0.0
220
0.0
230
1.0
 70
    24
 71
     3
 72
     8
 73
     4
 74
     0
 42
0.000000001
 43
0.00000001
 40
0.0
 40
0.0
 40
0.0
 40
0.0
 40
1.0
 40
1.0
 40
1.0
 40
1.0
 10
417.1816433529203
 20
187.1360293495052
 30
0.0
 10
417.1816436357808
 20
187.1360647059299
 30
0.0
 10
417.1816437593268
 20
187.1360801486923
 30
0.0
 10
417.1816437593268
 20
187.1360801486923
 30
0.0
  0
ARC
  5
39B
330
1F
100
AcDbEntity
  8
0
  6
Continuous
 62
     7
370
    25
100
AcDbCircle
 10
417.1689437593
 20
185.5486309495
 30
0.0
 40
1.587500000000034
100
AcDbArc
 50
0.0
 51
89.5416288745
  0
ARC
  5
39C
330
1F
100
AcDbEntity
  8
0
  6
Continuous
 62
     7
370
    25
100
AcDbCircle
 10
401.6876437593
 20
185.5486309495
 30
0.0
 40
1.587500000000034
100
AcDbArc
 50
90.0
 51
180.0
  0
LINE
  5
39D
330
1F
100
AcDbEntity
  8
0
  6
Continuous
 62
   144
370
    18
100
AcDbLine
 10
413.2909006996
 20
187.1361309495
 30
0.0
 11
401.7003437593
 21
187.1361309495
 31
0.0
  0
SPLINE
  5
39E
330
1F
100
AcDbEntity
  8
0
  6
Continuous
 62
     7
370
    25
100
AcDbSpline
210
0.0
220
0.0
230
1.0
 70
    24
 71
     3
 72
    14
 73
    10
 74
     0
 42
0.000000001
 43
0.00000001
 40
0.0
 40
0.0
 40
0.0
 40
0.0
 40
0.2500000000000001
 40
0.2500000000000001
 40
0.5000000000000001
 40
0.5000000000000001
 40
0.7500000000000002
 40
0.7500000000000002
 40
1.0
 40
1.0
 40
1.0
 40
1.0
 10
415.149643759315
 20
156.9101309495052
 30
0.0
 10
415.149643759315
 20
156.9101309495052
 30
0.0
 10
414.5474990846575
 20
156.9101309495052
 30
0.0
 10
412.4040189429173
 20
156.9101309495052
 30
0.0
 10
410.9503131028506
 20
156.9101309495052
 30
0.0
 10
407.9189744157305
 20
156.9101309495052
 30
0.0
 10
406.465268575669
 20
156.9101309495052
 30
0.0
 10
404.321788433947
 20
156.9101309495052
 30
0.0
 10
403.7196437593021
 20
156.9101309495052
 30
0.0
 10
403.719643759315
 20
156.9101309495052
 30
0.0
  0
LINE
  5
39F
330
1F
100
AcDbEntity
  8
0
  6
Continuous
 62
   144
370
    18
100
AcDbLine
 10
403.7831437593
 20
138.2411309495
 30
0.0
 11
414.9591437593
 21
138.2411309495
 31
0.0
  0
LINE
  5
3A0
330
1F
100
AcDbEntity
  8
0
  6
Continuous
 62
     7
370
    25
100
AcDbLine
 10
418.6421437593
 20
138.2270233765
 30
0.0
 11
400.2271437593
 21
138.2270233765
 31
0.0
  0
LINE
  5
3A1
330
1F
100
AcDbEntity
  8
0
  6
Continuous
 62
     7
370
    25
100
AcDbLine
 10
418.6421437593
 20
136.3770742813
 30
0.0
 11
418.6421437593
 21
138.2270233765
 31
0.0
  0
LINE
  5
3A2
330
1F
100
AcDbEntity
  8
0
  6
Continuous
 62
     7
370
    25
100
AcDbLine
 10
400.2271437593
 20
136.3770742813
 30
0.0
 11
400.2271437593
 21
138.2270233765
 31
0.0
  0
LINE
  5
3A3
330
1F
100
AcDbEntity
  8
0
  6
Continuous
 62
     7
370
    25
100
AcDbLine
 10
401.0037300261
 20
140.3239309496
 30
0.0
 11
400.4811437592
 21
140.3239309496
 31
0.0
  0
LINE
  5
3A4
330
1F
100
AcDbEntity
  8
0
  6
Continuous
 62
     7
370
    25
100
AcDbLine
 10
403.6561437594
 20
140.3239309496
 30
0.0
 11
401.0037300261
 21
140.3239309496
 31
0.0
  0
LINE
  5
3A5
330
1F
100
AcDbEntity
  8
0
  6
Continuous
 62
     7
370
    25
100
AcDbLine
 10
403.7831437593
 20
140.1969309495
 30
0.0
 11
400.3541437593
 21
140.1969309495
 31
0.0
  0
LINE
  5
3A6
330
1F
100
AcDbEntity
  8
0
  6
Continuous
 62
   144
370
    18
100
AcDbLine
 10
400.9185369276
 20
138.2411309495
 30
0.0
 11
400.3541437593
 21
138.2411309495
 31
0.0
  0
LINE
  5
3A7
330
1F
100
AcDbEntity
  8
0
  6
Continuous
 62
   144
370
    18
100
AcDbLine
 10
403.7831437593
 20
138.2411309495
 30
0.0
 11
400.9185369276
 21
138.2411309495
 31
0.0
  0
LINE
  5
3A8
330
1F
100
AcDbEntity
  8
0
  6
Continuous
 62
     7
370
    25
100
AcDbLine
 10
418.3881437593
 20
140.1969309495
 30
0.0
 11
414.9591437593
 21
140.1969309495
 31
0.0
  0
LINE
  5
3A9
330
1F
100
AcDbEntity
  8
0
  6
Continuous
 62
   144
370
    18
100
AcDbLine
 10
415.5235369276
 20
138.2411309495
 30
0.0
 11
414.9591437593
 21
138.2411309495
 31
0.0
  0
LINE
  5
3AA
330
1F
100
AcDbEntity
  8
0
  6
Continuous
 62
   144
370
    18
100
AcDbLine
 10
418.3881437593
 20
138.2411309495
 30
0.0
 11
415.5235369276
 21
138.2411309495
 31
0.0
  0
LINE
  5
3AB
330
1F
100
AcDbEntity
  8
0
  6
Continuous
 62
     7
370
    25
100
AcDbLine
 10
415.6087300261
 20
140.3239309496
 30
0.0
 11
415.0861437592
 21
140.3239309496
 31
0.0
  0
LINE
  5
3AC
330
1F
100
AcDbEntity
  8
0
  6
Continuous
 62
     7
370
    25
100
AcDbLine
 10
418.2611437594
 20
140.3239309496
 30
0.0
 11
415.6087300261
 21
140.3239309496
 31
0.0
  0
SPLINE
  5
3AD
330
1F
100
AcDbEntity
  8
0
  6
Continuous
 62
     7
370
    25
100
AcDbSpline
210
0.0
220
0.0
230
1.0
 70
    24
 71
     3
 72
     8
 73
     4
 74
     0
 42
0.000000001
 43
0.00000001
 40
0.0
 40
0.0
 40
0.0
 40
0.0
 40
1.0
 40
1.0
 40
1.0
 40
1.0
 10
411.3904437968898
 20
165.8096156426148
 30
0.0
 10
411.5768125830181
 20
165.9172157114545
 30
0.0
 10
411.7661476822107
 20
166.0265283820096
 30
0.0
 10
411.9607487400553
 20
166.1388813551408
 30
0.0
  0
LINE
  5
3AE
330
1F
100
AcDbEntity
  8
0
  6
Continuous
 62
     7
370
    25
100
AcDbLine
 10
411.9607487406
 20
166.1388813555
 30
0.0
 11
412.0107637781
 21
166.1677575508
 31
0.0
  0
SPLINE
  5
3AF
330
1F
100
AcDbEntity
  8
0
  6
Continuous
 62
   144
370
    18
100
AcDbSpline
210
0.0
220
0.0
230
1.0
 70
    24
 71
     3
 72
     8
 73
     4
 74
     0
 42
0.000000001
 43
0.00000001
 40
0.0
 40
0.0
 40
0.0
 40
0.0
 40
1.0
 40
1.0
 40
1.0
 40
1.0
 10
412.010763778597
 20
166.1677575511081
 30
0.0
 10
412.2053648526485
 20
166.2801105335964
 30
0.0
 10
412.3946999704141
 20
166.3894232148037
 30
0.0
 10
412.5810687710115
 20
166.4970232919972
 30
0.0
  0
SPLINE
  5
3B0
330
1F
100
AcDbEntity
  8
0
  6
Continuous
 62
     7
370
    25
100
AcDbSpline
210
0.0
220
0.0
230
1.0
 70
     8
 71
     3
 72
     8
 73
     4
 74
     0
 42
0.000000001
 43
0.00000001
 40
0.0
 40
0.0
 40
0.0
 40
0.0
 40
1.0
 40
1.0
 40
1.0
 40
1.0
 10
412.5810687614997
 20
167.8718385909046
 30
0.0
 10
412.3946999617315
 20
167.9794386676194
 30
0.0
 10
412.2053648528299
 20
168.0887513653101
 30
0.0
 10
412.0107637785979
 20
168.2011043479025
 30
0.0
  0
LINE
  5
3B1
330
1F
100
AcDbEntity
  8
0
  6
Continuous
 62
     7
370
    25
100
AcDbLine
 10
412.0107637781
 20
168.2011043482
 30
0.0
 11
411.9607487406
 21
168.2299805436
 31
0.0
  0
SPLINE
  5
3B2
330
1F
100
AcDbEntity
  8
0
  6
Continuous
 62
     7
370
    25
100
AcDbSpline
210
0.0
220
0.0
230
1.0
 70
    24
 71
     3
 72
     8
 73
     4
 74
     0
 42
0.000000001
 43
0.00000001
 40
0.0
 40
0.0
 40
0.0
 40
0.0
 40
1.0
 40
1.0
 40
1.0
 40
1.0
 10
411.9607487400548
 20
168.2299805438672
 30
0.0
 10
411.7661476689337
 20
168.3423335246635
 30
0.0
 10
411.5768125574359
 20
168.4516462022556
 30
0.0
 10
411.3904437593959
 20
168.5592462779725
 30
0.0
  0
SPLINE
  5
3B3
330
1F
100
AcDbEntity
  8
0
  6
Continuous
 62
     7
370
    25
100
AcDbSpline
210
0.0
220
0.0
230
1.0
 70
    24
 71
     3
 72
     8
 73
     4
 74
     0
 42
0.000000001
 43
0.00000001
 40
0.0
 40
0.0
 40
0.0
 40
0.0
 40
1.0
 40
1.0
 40
1.0
 40
1.0
 10
410.8201387785984
 20
166.1388813551423
 30
0.0
 10
411.0147398526478
 20
166.0265283726553
 30
0.0
 10
411.2040749704232
 20
165.9172156914389
 30
0.0
 10
411.3904437710166
 20
165.8096156142477
 30
0.0
  0
ARC
  5
3B4
330
1F
100
AcDbEntity
  8
0
  6
Continuous
 62
     7
370
    25
100
AcDbCircle
 10
411.3904437593
 20
167.1844309495
 30
0.0
 40
1.190975115307861
100
AcDbArc
 50
241.3893206032
 51
298.6106793968
  0
SPLINE
  5
3B5
330
1F
100
AcDbEntity
  8
0
  6
Continuous
 62
     7
370
    25
100
AcDbSpline
210
0.0
220
0.0
230
1.0
 70
    24
 71
     3
 72
     8
 73
     4
 74
     0
 42
0.000000001
 43
0.00000001
 40
0.0
 40
0.0
 40
0.0
 40
0.0
 40
1.0
 40
1.0
 40
1.0
 40
1.0
 10
410.8201387785975
 20
168.2299805438693
 30
0.0
 10
411.0147398497422
 20
168.3423335246792
 30
0.0
 10
411.2040749612339
 20
168.4516462022652
 30
0.0
 10
411.3904437592957
 20
168.5592462779947
 30
0.0
  0
ARC
  5
3B6
330
1F
100
AcDbEntity
  8
0
  6
Continuous
 62
     7
370
    25
100
AcDbCircle
 10
411.3904437593
 20
167.1844309495
 30
0.0
 40
1.190975115307827
100
AcDbArc
 50
61.3893206032
 51
118.6106793968
  0
LINE
  5
3B7
330
1F
100
AcDbEntity
  8
0
  6
Continuous
 62
     7
370
    25
100
AcDbLine
 10
410.8201387781
 20
168.2299805436
 30
0.0
 11
410.7701237406
 21
168.2011043482
 31
0.0
  0
SPLINE
  5
3B8
330
1F
100
AcDbEntity
  8
0
  6
Continuous
 62
   144
370
    18
100
AcDbSpline
210
0.0
220
0.0
230
1.0
 70
    24
 71
     3
 72
     8
 73
     4
 74
     0
 42
0.000000001
 43
0.00000001
 40
0.0
 40
0.0
 40
0.0
 40
0.0
 40
1.0
 40
1.0
 40
1.0
 40
1.0
 10
410.7701237400563
 20
168.2011043479014
 30
0.0
 10
410.5755226660049
 20
168.0887513654132
 30
0.0
 10
410.3861875482409
 20
167.9794386842068
 30
0.0
 10
410.1998187476436
 20
167.8718386070135
 30
0.0
  0
SPLINE
  5
3B9
330
1F
100
AcDbEntity
  8
0
  6
Continuous
 62
     7
370
    25
100
AcDbSpline
210
0.0
220
0.0
230
1.0
 70
    24
 71
     3
 72
     8
 73
     4
 74
     0
 42
0.000000001
 43
0.00000001
 40
0.0
 40
0.0
 40
0.0
 40
0.0
 40
1.0
 40
1.0
 40
1.0
 40
1.0
 10
410.1998187968803
 20
166.4970232635119
 30
0.0
 10
410.386187582995
 20
166.3894231946801
 30
0.0
 10
410.5755226822271
 20
166.2801105242286
 30
0.0
 10
410.7701237400553
 20
166.167757551107
 30
0.0
  0
LINE
  5
3BA
330
1F
100
AcDbEntity
  8
0
  6
Continuous
 62
     7
370
    25
100
AcDbLine
 10
410.7701237406
 20
166.1677575508
 30
0.0
 11
410.8201387781
 21
166.1388813555
 31
0.0
  0
LINE
  5
3BB
330
1F
100
AcDbEntity
  8
0
  6
Continuous
 62
     7
370
    25
100
AcDbLine
 10
412.5810687593
 20
167.1555547542
 30
0.0
 11
412.5810687593
 21
167.2133071448
 31
0.0
  0
SPLINE
  5
3BC
330
1F
100
AcDbEntity
  8
0
  6
Continuous
 62
     7
370
    25
100
AcDbSpline
210
0.0
220
0.0
230
1.0
 70
    24
 71
     3
 72
     8
 73
     4
 74
     0
 42
0.000000001
 43
0.00000001
 40
0.0
 40
0.0
 40
0.0
 40
0.0
 40
1.0
 40
1.0
 40
1.0
 40
1.0
 10
412.5810687593251
 20
167.2133071454706
 30
0.0
 10
412.5810687593251
 20
167.4380130917218
 30
0.0
 10
412.5810687593266
 20
167.6566384327116
 30
0.0
 10
412.5810687593266
 20
167.8718385703795
 30
0.0
  0
SPLINE
  5
3BD
330
1F
100
AcDbEntity
  8
0
  6
Continuous
 62
   144
370
    18
100
AcDbSpline
210
0.0
220
0.0
230
1.0
 70
    24
 71
     3
 72
     8
 73
     4
 74
     0
 42
0.000000001
 43
0.00000001
 40
0.0
 40
0.0
 40
0.0
 40
0.0
 40
1.0
 40
1.0
 40
1.0
 40
1.0
 10
412.5810687593761
 20
166.4970233286423
 30
0.0
 10
412.5810687593761
 20
166.7122234663061
 30
0.0
 10
412.5810687593266
 20
166.9308488072951
 30
0.0
 10
412.5810687593266
 20
167.1555547535386
 30
0.0
  0
ARC
  5
3BE
330
1F
100
AcDbEntity
  8
0
  6
Continuous
 62
     7
370
    25
100
AcDbCircle
 10
411.3904437593
 20
167.1844309495
 30
0.0
 40
1.190975115307852
100
AcDbArc
 50
1.3893206032
 51
58.6106793968
  0
SPLINE
  5
3BF
330
1F
100
AcDbEntity
  8
0
  6
Continuous
 62
     7
370
    25
100
AcDbSpline
210
0.0
220
0.0
230
1.0
 70
    24
 71
     3
 72
     8
 73
     4
 74
     0
 42
0.000000001
 43
0.00000001
 40
0.0
 40
0.0
 40
0.0
 40
0.0
 40
1.0
 40
1.0
 40
1.0
 40
1.0
 10
410.1998187593281
 20
167.1555547535389
 30
0.0
 10
410.1998187593281
 20
166.9308487885623
 30
0.0
 10
410.1998187593266
 20
166.7122234261448
 30
0.0
 10
410.1998187593266
 20
166.4970232717578
 30
0.0
  0
ARC
  5
3C0
330
1F
100
AcDbEntity
  8
0
  6
Continuous
 62
     7
370
    25
100
AcDbCircle
 10
411.3904437593
 20
167.1844309495
 30
0.0
 40
1.190975115307876
100
AcDbArc
 50
181.3893206032
 51
238.6106793968
  0
LINE
  5
3C1
330
1F
100
AcDbEntity
  8
0
  6
Continuous
 62
     7
370
    25
100
AcDbLine
 10
410.1998187593
 20
167.2133071448
 30
0.0
 11
410.1998187593
 21
167.1555547542
 31
0.0
  0
SPLINE
  5
3C2
330
1F
100
AcDbEntity
  8
0
  6
Continuous
 62
   144
370
    18
100
AcDbSpline
210
0.0
220
0.0
230
1.0
 70
    24
 71
     3
 72
     8
 73
     4
 74
     0
 42
0.000000001
 43
0.00000001
 40
0.0
 40
0.0
 40
0.0
 40
0.0
 40
1.0
 40
1.0
 40
1.0
 40
1.0
 10
410.1998187592779
 20
167.8718385703694
 30
0.0
 10
410.1998187592779
 20
167.6566384327049
 30
0.0
 10
410.1998187593266
 20
167.4380130917152
 30
0.0
 10
410.1998187593266
 20
167.2133071454708
 30
0.0
  0
CIRCLE
  5
3C3
330
1F
100
AcDbEntity
  8
0
  6
Continuous
 62
     7
370
    25
100
AcDbCircle
 10
411.3904437593
 20
167.1844309495
 30
0.0
 40
0.5048249999999932
  0
ARC
  5
3C4
330
1F
100
AcDbEntity
  8
0
  6
Continuous
 62
   144
370
    18
100
AcDbCircle
 10
411.3904437593
 20
167.1844309495
 30
0.0
 40
1.190975115307876
100
AcDbArc
 50
301.3893206032
 51
358.6106793968
  0
ARC
  5
3C5
330
1F
100
AcDbEntity
  8
0
  6
Continuous
 62
   144
370
    18
100
AcDbCircle
 10
411.3904437593
 20
167.1844309495
 30
0.0
 40
1.190975115307853
100
AcDbArc
 50
121.3893206032
 51
178.6106793968
  0
ARC
  5
3C6
330
1F
100
AcDbEntity
  8
0
  6
Continuous
 62
     7
370
    25
100
AcDbCircle
 10
411.3904437593
 20
183.8468309495
 30
0.0
 40
1.981200000000014
100
AcDbArc
 50
180.0
 51
253.1081043985
  0
ARC
  5
3C7
330
1F
100
AcDbEntity
  8
0
  6
Continuous
 62
     7
370
    25
100
AcDbCircle
 10
411.3904437593
 20
183.8468309495
 30
0.0
 40
1.981200000000005
100
AcDbArc
 50
266.8918956015
 51
180.0
  0
LINE
  5
3C8
330
1F
100
AcDbEntity
  8
0
  6
Continuous
 62
     7
370
    25
100
AcDbLine
 10
415.2131437593
 20
138.2270233765
 30
0.0
 11
415.2131437593
 21
138.2411309495
 31
0.0
  0
LINE
  5
3C9
330
1F
100
AcDbEntity
  8
0
  6
Continuous
 62
     7
370
    25
100
AcDbLine
 10
415.2131437593
 20
156.9074805067
 30
0.0
 11
415.2131437593
 21
160.0851309495
 31
0.0
  0
LINE
  5
3CA
330
1F
100
AcDbEntity
  8
0
  6
Continuous
 62
     7
370
    25
100
AcDbLine
 10
415.2131437593
 20
160.0851309495
 30
0.0
 11
413.7777740357
 21
160.0851309495
 31
0.0
  0
LINE
  5
3CB
330
1F
100
AcDbEntity
  8
0
  6
Continuous
 62
     7
370
    25
100
AcDbLine
 10
413.7907437593
 20
168.3401309495
 30
0.0
 11
412.9996395057
 21
168.3401309495
 31
0.0
  0
LINE
  5
3CC
330
1F
100
AcDbEntity
  8
0
  6
Continuous
 62
     7
370
    25
100
AcDbLine
 10
409.781248013
 20
168.3401309495
 30
0.0
 11
408.8885437593
 21
168.3401309495
 31
0.0
  0
LINE
  5
3CD
330
1F
100
AcDbEntity
  8
0
  6
Continuous
 62
     7
370
    25
100
AcDbLine
 10
413.7907437593
 20
164.0856309495
 30
0.0
 11
413.7907437593
 21
168.3401309495
 31
0.0
  0
LINE
  5
3CE
330
1F
100
AcDbEntity
  8
0
  6
Continuous
 62
     7
370
    25
100
AcDbLine
 10
413.1430437593
 20
164.0856309495
 30
0.0
 11
413.7907437593
 21
164.0856309495
 31
0.0
  0
ARC
  5
3CF
330
1F
100
AcDbEntity
  8
0
  6
Continuous
 62
     7
370
    25
100
AcDbCircle
 10
413.1430437593
 20
163.3363309495
 30
0.0
 40
0.7493000000000336
100
AcDbArc
 50
90.0
 51
180.0
  0
LINE
  5
3D0
330
1F
100
AcDbEntity
  8
0
  6
Continuous
 62
     7
370
    25
100
AcDbLine
 10
412.3937437593
 20
160.8344309495
 30
0.0
 11
412.3937437593
 21
163.3363309495
 31
0.0
  0
ARC
  5
3D1
330
1F
100
AcDbEntity
  8
0
  6
Continuous
 62
     7
370
    25
100
AcDbCircle
 10
413.1430437593
 20
160.8344309495
 30
0.0
 40
0.7493000000000336
100
AcDbArc
 50
180.0
 51
270.0
  0
LINE
  5
3D2
330
1F
100
AcDbEntity
  8
0
  6
Continuous
 62
   144
370
    18
100
AcDbLine
 10
408.8885437593
 20
168.3401309495
 30
0.0
 11
408.8885437593
 21
160.2984909495
 31
0.0
  0
CIRCLE
  5
3D3
330
1F
100
AcDbEntity
  8
0
  6
Continuous
 62
   144
370
    18
100
AcDbCircle
 10
396.8734513239
 20
105.1294742813
 30
0.0
 40
1.210309999999993
  0
CIRCLE
  5
3D4
330
1F
100
AcDbEntity
  8
0
  6
Continuous
 62
   144
370
    18
100
AcDbCircle
 10
421.9822437593
 20
105.1158818459
 30
0.0
 40
1.210310000000007
  0
CIRCLE
  5
3D5
330
1F
100
AcDbEntity
  8
0
  6
Continuous
 62
   144
370
    18
100
AcDbCircle
 10
421.9958361947
 20
130.2246742813
 30
0.0
 40
1.210309999999993
  0
CIRCLE
  5
3D6
330
1F
100
AcDbEntity
  8
0
  6
Continuous
 62
   144
370
    18
100
AcDbCircle
 10
396.8870437593
 20
130.2382667167
 30
0.0
 40
1.210310000000021
  0
ARC
  5
3D7
330
1F
100
AcDbEntity
  8
0
  6
Continuous
 62
   144
370
    18
100
AcDbCircle
 10
421.9822437593
 20
130.2382667167
 30
0.0
 40
1.210309999999996
100
AcDbArc
 50
225.4550014331
 51
44.544998596
  0
ARC
  5
3D8
330
1F
100
AcDbEntity
  8
0
  6
Continuous
 62
   144
370
    18
100
AcDbCircle
 10
421.9958361947
 20
105.1294742813
 30
0.0
 40
1.210310000000024
100
AcDbArc
 50
135.4550015578
 51
314.5449984292
  0
ARC
  5
3D9
330
1F
100
AcDbEntity
  8
0
  6
Continuous
 62
   144
370
    18
100
AcDbCircle
 10
396.8870437593
 20
105.1158818459
 30
0.0
 40
1.210310000000007
100
AcDbArc
 50
90.0
 51
224.5449985196
  0
ARC
  5
3DA
330
1F
100
AcDbEntity
  8
0
  6
Continuous
 62
   144
370
    18
100
AcDbCircle
 10
396.8870437593
 20
105.1158818459
 30
0.0
 40
1.210310000000007
100
AcDbArc
 50
45.4550014912
 51
90.0
  0
ARC
  5
3DB
330
1F
100
AcDbEntity
  8
0
  6
Continuous
 62
   144
370
    18
100
AcDbCircle
 10
396.8734513239
 20
130.2246742813
 30
0.0
 40
1.210310000000018
100
AcDbArc
 50
90.0
 51
134.5449983573
  0
ARC
  5
3DC
330
1F
100
AcDbEntity
  8
0
  6
Continuous
 62
   144
370
    18
100
AcDbCircle
 10
396.8734513239
 20
130.2246742813
 30
0.0
 40
1.210309999999993
100
AcDbArc
 50
315.4550016209
 51
90.0
  0
ARC
  5
3DD
330
1F
100
AcDbEntity
  8
0
  6
Continuous
 62
     7
370
    25
100
AcDbCircle
 10
411.3904437593
 20
167.1844309495
 30
0.0
 40
1.981199999999985
100
AcDbArc
 50
180.0
 51
93.1081043985
  0
ARC
  5
3DE
330
1F
100
AcDbEntity
  8
0
  6
Continuous
 62
     7
370
    25
100
AcDbCircle
 10
411.3904437593
 20
167.1844309495
 30
0.0
 40
1.981199999999992
100
AcDbArc
 50
106.8918956015
 51
180.0
  0
LINE
  5
3DF
330
1F
100
AcDbEntity
  8
0
  6
Continuous
 62
     7
370
    25
100
AcDbLine
 10
412.2254687593
 20
160.2984909495
 30
0.0
 11
406.6438187593
 21
160.2984909495
 31
0.0
  0
LWPOLYLINE
  5
3E0
330
1F
100
AcDbEntity
  8
0
  6
Continuous
 62
   144
370
    18
100
AcDbPolyline
 90
        3
 70
   128
 43
0.0
 10
409.2071817128
 20
123.947944094
 10
409.4346437593
 20
123.9270742813
 10
409.6621058058
 20
123.947944094
  0
CIRCLE
  5
3E1
330
1F
100
AcDbEntity
  8
0
  6
Continuous
 62
   144
370
    18
100
AcDbCircle
 10
409.4346437593
 20
117.6770742813
 30
0.0
 40
3.0
  0
SPLINE
  5
3E2
330
1F
100
AcDbEntity
  8
0
  6
Continuous
 62
     7
370
    25
100
AcDbSpline
210
0.0
220
0.0
230
1.0
 70
     8
 71
     3
 72
    13
 73
     9
 74
     0
 42
0.000000001
 43
0.00000001
 40
0.0
 40
0.0
 40
0.0
 40
0.0
 40
0.25
 40
0.25
 40
0.5
 40
0.75
 40
0.75
 40
1.0
 40
1.0
 40
1.0
 40
1.0
 10
409.4346437409256
 20
159.8311309456409
 30
0.0
 10
409.7984458238889
 20
159.9075797023378
 30
0.0
 10
410.1622479150853
 20
159.9696554941858
 30
0.0
 10
410.8898520810905
 20
160.0544677751463
 30
0.0
 10
411.6174562471416
 20
160.0994193031435
 30
0.0
 10
412.3450604132964
 20
160.0544677771062
 30
0.0
 10
413.0726645794971
 20
159.9696554978549
 30
0.0
 10
413.4364666626202
 20
159.9075797082485
 30
0.0
 10
413.8002687457598
 20
159.8311309523536
 30
0.0
  0
LINE
  5
3E3
330
1F
100
AcDbEntity
  8
0
  6
Continuous
 62
     7
370
    25
100
AcDbLine
 10
413.8002687593
 20
157.1641309514
 30
0.0
 11
413.8002687537
 21
159.8311309507
 31
0.0
  0
LINE
  5
3E4
330
1F
100
AcDbEntity
  8
0
  6
Continuous
 62
     7
370
    25
100
AcDbLine
 10
409.4346437797
 20
157.1641309452
 30
0.0
 11
409.434643739
 21
159.8311309538
 31
0.0
  0
SPLINE
  5
3E5
330
1F
100
AcDbEntity
  8
0
  6
Continuous
 62
   144
370
    18
100
AcDbSpline
210
0.0
220
0.0
230
1.0
 70
     8
 71
     3
 72
    13
 73
     9
 74
     0
 42
0.000000001
 43
0.00000001
 40
0.0
 40
0.0
 40
0.0
 40
0.0
 40
0.2500000000000001
 40
0.2500000000000001
 40
0.5000000000000002
 40
0.7500000000000001
 40
0.7500000000000001
 40
1.0
 40
1.0
 40
1.0
 40
1.0
 10
413.8002687186236
 20
157.1641309409544
 30
0.0
 10
413.4364666420722
 20
157.0876821871567
 30
0.0
 10
413.0726645655207
 20
157.02560639926
 30
0.0
 10
412.3450604124179
 20
156.9407941220682
 30
0.0
 10
411.617456259315
 20
156.8958425966854
 30
0.0
 10
410.8898521062122
 20
156.9407941220682
 30
0.0
 10
410.1622479531092
 20
157.02560639926
 30
0.0
 10
409.7984458765578
 20
157.0876821871567
 30
0.0
 10
409.4346438000064
 20
157.1641309409544
 30
0.0
  0
SPLINE
  5
3E6
330
1F
100
AcDbEntity
  8
0
  6
Continuous
 62
     7
370
    25
100
AcDbSpline
210
0.0
220
0.0
230
1.0
 70
     8
 71
     3
 72
    10
 73
     6
 74
     0
 42
0.000000001
 43
0.00000001
 40
0.0
 40
0.0
 40
0.0
 40
0.0
 40
0.5
 40
0.5
 40
1.0
 40
1.0
 40
1.0
 40
1.0
 10
413.8002687491423
 20
159.8311309444736
 30
0.0
 10
413.8002687491423
 20
159.9062233323301
 30
0.0
 10
413.800268759315
 20
159.9674515056539
 30
0.0
 10
413.800268759315
 20
160.0521205874401
 30
0.0
 10
413.800268759315
 20
160.0753218483397
 30
0.0
 10
413.800268759315
 20
160.0768601784736
 30
0.0
  0
SPLINE
  5
3E7
330
1F
100
AcDbEntity
  8
0
  6
Continuous
 62
     7
370
    25
100
AcDbSpline
210
0.0
220
0.0
230
1.0
 70
     8
 71
     3
 72
    13
 73
     9
 74
     0
 42
0.000000001
 43
0.00000001
 40
0.0
 40
0.0
 40
0.0
 40
0.0
 40
0.25
 40
0.25
 40
0.5
 40
0.75
 40
0.75
 40
1.0
 40
1.0
 40
1.0
 40
1.0
 10
405.0690187409256
 20
159.8311309456409
 30
0.0
 10
405.4328208215526
 20
159.9075797018468
 30
0.0
 10
405.7966229104269
 20
159.9696554933931
 30
0.0
 10
406.5242270718263
 20
160.0544677743161
 30
0.0
 10
407.2518312333107
 20
160.0994193028625
 30
0.0
 10
407.9794353949868
 20
160.0544677785041
 30
0.0
 10
408.7070395567479
 20
159.9696555012429
 30
0.0
 10
409.0708416376704
 20
159.9075797127786
 30
0.0
 10
409.4346437186236
 20
159.831130958056
 30
0.0
  0
SPLINE
  5
3E8
330
1F
100
AcDbEntity
  8
0
  6
Continuous
 62
     7
370
    25
100
AcDbSpline
210
0.0
220
0.0
230
1.0
 70
    24
 71
     3
 72
     9
 73
     5
 74
     0
 42
0.000000001
 43
0.00000001
 40
0.0
 40
0.0
 40
0.0
 40
0.0
 40
0.4888363206889024
 40
1.0
 40
1.0
 40
1.0
 40
1.0
 10
405.069018759315
 20
160.0746847476244
 30
0.0
 10
405.069018759315
 20
160.0639193588867
 30
0.0
 10
405.069018759315
 20
160.0418968775733
 30
0.0
 10
405.069018759315
 20
159.9024242827758
 30
0.0
 10
405.069018759315
 20
159.831130958056
 30
0.0
  0
LINE
  5
3E9
330
1F
100
AcDbEntity
  8
0
  6
Continuous
 62
     7
370
    25
100
AcDbLine
 10
405.0690187797
 20
157.1641309452
 30
0.0
 11
405.0690187593
 21
159.8311309538
 31
0.0
  0
SPLINE
  5
3EA
330
1F
100
AcDbEntity
  8
0
  6
Continuous
 62
   144
370
    18
100
AcDbSpline
210
0.0
220
0.0
230
1.0
 70
     8
 71
     3
 72
    13
 73
     9
 74
     0
 42
0.000000001
 43
0.00000001
 40
0.0
 40
0.0
 40
0.0
 40
0.0
 40
0.25
 40
0.25
 40
0.5
 40
0.75
 40
0.75
 40
1.0
 40
1.0
 40
1.0
 40
1.0
 10
409.4346437777044
 20
157.1641309533695
 30
0.0
 10
409.0708416970774
 20
157.0876821971635
 30
0.0
 10
408.707039608203
 20
157.0256064056172
 30
0.0
 10
407.9794354468037
 20
156.9407941246942
 30
0.0
 10
407.2518312853193
 20
156.8958425961479
 30
0.0
 10
406.5242271236432
 20
156.9407941205062
 30
0.0
 10
405.7966229618821
 20
157.0256063977675
 30
0.0
 10
405.4328208809596
 20
157.0876821862317
 30
0.0
 10
405.0690188000064
 20
157.1641309409544
 30
0.0
  0
SPLINE
  5
3EB
330
1F
100
AcDbEntity
  8
0
  6
Continuous
 62
   144
370
    18
100
AcDbSpline
210
0.0
220
0.0
230
1.0
 70
    24
 71
     3
 72
    11
 73
     7
 74
     0
 42
0.000000001
 43
0.00000001
 40
0.0
 40
0.0
 40
0.0
 40
0.0
 40
0.2623460159996607
 40
0.5265968173827175
 40
0.7980781287651968
 40
1.0
 40
1.0
 40
1.0
 40
1.0
 10
405.069018759315
 20
157.1641309533695
 30
0.0
 10
405.069018759315
 20
157.0973826890587
 30
0.0
 10
405.069018759315
 20
156.9634015290324
 30
0.0
 10
405.069018759315
 20
156.898445960181
 30
0.0
 10
405.069018759315
 20
156.9480147678115
 30
0.0
 10
405.069018759315
 20
157.0657288952832
 30
0.0
 10
405.069018759315
 20
157.1159378033823
 30
0.0
  0
SPLINE
  5
3EC
330
1F
100
AcDbEntity
  8
0
  6
Continuous
 62
   144
370
    18
100
AcDbSpline
210
0.0
220
0.0
230
1.0
 70
    27
 71
     3
 72
    13
 73
     9
 74
     0
 42
0.000000001
 43
0.00000001
 40
0.0
 40
0.0
 40
0.0
 40
0.0
 40
0.25
 40
0.25
 40
0.5
 40
0.75
 40
0.75
 40
1.0
 40
1.0
 40
1.0
 40
1.0
 10
413.800268759315
 20
157.1641309533695
 30
0.0
 10
413.800268759315
 20
157.0876821962557
 30
0.0
 10
413.800268759315
 20
157.0256064041525
 30
0.0
 10
413.800268759315
 20
156.9407941231616
 30
0.0
 10
413.800268759315
 20
156.8958425956313
 30
0.0
 10
413.800268759315
 20
156.9407941230826
 30
0.0
 10
413.800268759315
 20
157.0256064040034
 30
0.0
 10
413.800268759315
 20
157.0876821962557
 30
0.0
 10
413.800268759315
 20
157.1641309533695
 30
0.0
  0
CIRCLE
  5
3ED
330
1F
100
AcDbEntity
  8
0
  6
Continuous
 62
     7
370
    25
100
AcDbCircle
 10
396.8834937593
 20
105.1259242813
 30
0.0
 40
2.749999999999986
  0
CIRCLE
  5
3EE
330
1F
100
AcDbEntity
  8
0
  6
Continuous
 62
     7
370
    25
100
AcDbCircle
 10
421.9857937593
 20
105.1259242813
 30
0.0
 40
2.749999999999986
  0
CIRCLE
  5
3EF
330
1F
100
AcDbEntity
  8
0
  6
Continuous
 62
     7
370
    25
100
AcDbCircle
 10
396.8834937593
 20
130.2282242813
 30
0.0
 40
2.75
  0
CIRCLE
  5
3F0
330
1F
100
AcDbEntity
  8
0
  6
Continuous
 62
     7
370
    25
100
AcDbCircle
 10
421.9857937593
 20
130.2282242813
 30
0.0
 40
2.75
  0
CIRCLE
  5
3F1
330
1F
100
AcDbEntity
  8
0
  6
Continuous
 62
     7
370
    25
100
AcDbCircle
 10
409.4346437593
 20
117.6770742813
 30
0.0
 40
7.300000000000011
  0
ARC
  5
3F2
330
1F
100
AcDbEntity
  8
0
  6
Continuous
 62
     7
370
    25
100
AcDbCircle
 10
409.4346437593
 20
117.6770742813
 30
0.0
 40
20.99999999999996
100
AcDbArc
 50
297.0668541257
 51
62.9331458743
  0
LINE
  5
3F3
330
1F
100
AcDbEntity
  8
0
  6
Continuous
 62
     7
370
    25
100
AcDbLine
 10
399.8790171446
 20
98.9770742813
 30
0.0
 11
418.990270374
 21
98.9770742813
 31
0.0
  0
ARC
  5
3F4
330
1F
100
AcDbEntity
  8
0
  6
Continuous
 62
     7
370
    25
100
AcDbCircle
 10
409.4346437593
 20
117.6770742813
 30
0.0
 40
20.99999999999997
100
AcDbArc
 50
117.0668541257
 51
242.9331458743
  0
LINE
  5
3F5
330
1F
100
AcDbEntity
  8
0
  6
Continuous
 62
     7
370
    25
100
AcDbLine
 10
418.990270374
 20
136.3770742813
 30
0.0
 11
399.8790171446
 21
136.3770742813
 31
0.0
  0
CIRCLE
  5
3F6
330
1F
100
AcDbEntity
  8
0
  6
Continuous
 62
     7
370
    25
100
AcDbCircle
 10
409.4346437593
 20
117.6770742813
 30
0.0
 40
6.844488643354694
  0
CIRCLE
  5
3F7
330
1F
100
AcDbEntity
  8
0
  6
Continuous
 62
     7
370
    25
100
AcDbCircle
 10
409.4346437593
 20
117.6770742813
 30
0.0
 40
6.27499379999999
  0
CIRCLE
  5
3F8
330
1F
100
AcDbEntity
  8
0
  6
Continuous
 62
   144
370
    18
100
AcDbCircle
 10
421.9857937593
 20
105.1259242813
 30
0.0
 40
1.297025000000005
  0
CIRCLE
  5
3F9
330
1F
100
AcDbEntity
  8
0
  6
Continuous
 62
   144
370
    18
100
AcDbCircle
 10
396.8834937593
 20
105.1259242813
 30
0.0
 40
1.297025000000005
  0
CIRCLE
  5
3FA
330
1F
100
AcDbEntity
  8
0
  6
Continuous
 62
   144
370
    18
100
AcDbCircle
 10
421.9857937593
 20
130.2282242813
 30
0.0
 40
1.297025000000019
  0
CIRCLE
  5
3FB
330
1F
100
AcDbEntity
  8
0
  6
Continuous
 62
   144
370
    18
100
AcDbCircle
 10
396.8834937593
 20
130.2282242813
 30
0.0
 40
1.297025000000019
  0
SPLINE
  5
3FC
330
1F
100
AcDbEntity
  8
0
  6
Continuous
 62
     7
370
    25
100
AcDbSpline
210
0.0
220
0.0
230
1.0
 70
    24
 71
     3
 72
     8
 73
     4
 74
     0
 42
0.000000001
 43
0.00000001
 40
0.0
 40
0.0
 40
0.0
 40
0.0
 40
1.0
 40
1.0
 40
1.0
 40
1.0
 10
410.8201387785975
 20
184.8923805438693
 30
0.0
 10
411.0147398497422
 20
185.0047335246793
 30
0.0
 10
411.2040749612339
 20
185.1140462022652
 30
0.0
 10
411.3904437592957
 20
185.2216462779947
 30
0.0
  0
SPLINE
  5
3FD
330
1F
100
AcDbEntity
  8
0
  6
Continuous
 62
     7
370
    25
100
AcDbSpline
210
0.0
220
0.0
230
1.0
 70
    24
 71
     3
 72
     8
 73
     4
 74
     0
 42
0.000000001
 43
0.00000001
 40
0.0
 40
0.0
 40
0.0
 40
0.0
 40
1.0
 40
1.0
 40
1.0
 40
1.0
 10
411.9607487400548
 20
184.8923805438672
 30
0.0
 10
411.7661476689337
 20
185.0047335246635
 30
0.0
 10
411.5768125574359
 20
185.1140462022556
 30
0.0
 10
411.3904437593959
 20
185.2216462779726
 30
0.0
  0
ARC
  5
3FE
330
1F
100
AcDbEntity
  8
0
  6
Continuous
 62
     7
370
    25
100
AcDbCircle
 10
411.3904437593
 20
183.8468309495
 30
0.0
 40
1.190975115307852
100
AcDbArc
 50
61.3893206032
 51
118.6106793968
  0
LINE
  5
3FF
330
1F
100
AcDbEntity
  8
0
  6
Continuous
 62
     7
370
    25
100
AcDbLine
 10
410.8201387781
 20
184.8923805436
 30
0.0
 11
410.7701237406
 21
184.8635043482
 31
0.0
  0
SPLINE
  5
400
330
1F
100
AcDbEntity
  8
0
  6
Continuous
 62
     7
370
    25
100
AcDbSpline
210
0.0
220
0.0
230
1.0
 70
    24
 71
     3
 72
     8
 73
     4
 74
     0
 42
0.000000001
 43
0.00000001
 40
0.0
 40
0.0
 40
0.0
 40
0.0
 40
1.0
 40
1.0
 40
1.0
 40
1.0
 10
410.7701237400563
 20
184.8635043479014
 30
0.0
 10
410.5755226660049
 20
184.7511513654132
 30
0.0
 10
410.3861875482409
 20
184.6418386842069
 30
0.0
 10
410.1998187476436
 20
184.5342386070135
 30
0.0
  0
LINE
  5
401
330
1F
100
AcDbEntity
  8
0
  6
Continuous
 62
     7
370
    25
100
AcDbLine
 10
412.0107637781
 20
184.8635043482
 30
0.0
 11
411.9607487406
 21
184.8923805436
 31
0.0
  0
SPLINE
  5
402
330
1F
100
AcDbEntity
  8
0
  6
Continuous
 62
   144
370
    18
100
AcDbSpline
210
0.0
220
0.0
230
1.0
 70
     8
 71
     3
 72
     8
 73
     4
 74
     0
 42
0.000000001
 43
0.00000001
 40
0.0
 40
0.0
 40
0.0
 40
0.0
 40
1.0
 40
1.0
 40
1.0
 40
1.0
 10
412.5810687614997
 20
184.5342385909046
 30
0.0
 10
412.3946999617315
 20
184.6418386676194
 30
0.0
 10
412.2053648528299
 20
184.7511513653101
 30
0.0
 10
412.0107637785979
 20
184.8635043479025
 30
0.0
  0
SPLINE
  5
403
330
1F
100
AcDbEntity
  8
0
  6
Continuous
 62
     7
370
    25
100
AcDbSpline
210
0.0
220
0.0
230
1.0
 70
    24
 71
     3
 72
     8
 73
     4
 74
     0
 42
0.000000001
 43
0.00000001
 40
0.0
 40
0.0
 40
0.0
 40
0.0
 40
1.0
 40
1.0
 40
1.0
 40
1.0
 10
411.3904437968898
 20
182.4720156426148
 30
0.0
 10
411.5768125830181
 20
182.5796157114545
 30
0.0
 10
411.7661476822107
 20
182.6889283820096
 30
0.0
 10
411.9607487400553
 20
182.8012813551408
 30
0.0
  0
LINE
  5
404
330
1F
100
AcDbEntity
  8
0
  6
Continuous
 62
     7
370
    25
100
AcDbLine
 10
411.9607487406
 20
182.8012813555
 30
0.0
 11
412.0107637781
 21
182.8301575508
 31
0.0
  0
SPLINE
  5
405
330
1F
100
AcDbEntity
  8
0
  6
Continuous
 62
     7
370
    25
100
AcDbSpline
210
0.0
220
0.0
230
1.0
 70
    24
 71
     3
 72
     8
 73
     4
 74
     0
 42
0.000000001
 43
0.00000001
 40
0.0
 40
0.0
 40
0.0
 40
0.0
 40
1.0
 40
1.0
 40
1.0
 40
1.0
 10
412.010763778597
 20
182.8301575511082
 30
0.0
 10
412.2053648526485
 20
182.9425105335964
 30
0.0
 10
412.3946999704141
 20
183.0518232148037
 30
0.0
 10
412.5810687710115
 20
183.1594232919971
 30
0.0
  0
SPLINE
  5
406
330
1F
100
AcDbEntity
  8
0
  6
Continuous
 62
     7
370
    25
100
AcDbSpline
210
0.0
220
0.0
230
1.0
 70
    24
 71
     3
 72
     8
 73
     4
 74
     0
 42
0.000000001
 43
0.00000001
 40
0.0
 40
0.0
 40
0.0
 40
0.0
 40
1.0
 40
1.0
 40
1.0
 40
1.0
 10
410.8201387785984
 20
182.8012813551423
 30
0.0
 10
411.0147398526478
 20
182.6889283726553
 30
0.0
 10
411.2040749704232
 20
182.5796156914389
 30
0.0
 10
411.3904437710166
 20
182.4720156142477
 30
0.0
  0
ARC
  5
407
330
1F
100
AcDbEntity
  8
0
  6
Continuous
 62
     7
370
    25
100
AcDbCircle
 10
411.3904437593
 20
183.8468309495
 30
0.0
 40
1.190975115307861
100
AcDbArc
 50
241.3893206032
 51
298.6106793968
  0
SPLINE
  5
408
330
1F
100
AcDbEntity
  8
0
  6
Continuous
 62
     7
370
    25
100
AcDbSpline
210
0.0
220
0.0
230
1.0
 70
    24
 71
     3
 72
     8
 73
     4
 74
     0
 42
0.000000001
 43
0.00000001
 40
0.0
 40
0.0
 40
0.0
 40
0.0
 40
1.0
 40
1.0
 40
1.0
 40
1.0
 10
410.1998187968803
 20
183.1594232635119
 30
0.0
 10
410.386187582995
 20
183.0518231946801
 30
0.0
 10
410.5755226822271
 20
182.9425105242286
 30
0.0
 10
410.7701237400553
 20
182.830157551107
 30
0.0
  0
LINE
  5
409
330
1F
100
AcDbEntity
  8
0
  6
Continuous
 62
     7
370
    25
100
AcDbLine
 10
410.7701237406
 20
182.8301575508
 30
0.0
 11
410.8201387781
 21
182.8012813555
 31
0.0
  0
SPLINE
  5
40A
330
1F
100
AcDbEntity
  8
0
  6
Continuous
 62
     7
370
    25
100
AcDbSpline
210
0.0
220
0.0
230
1.0
 70
    24
 71
     3
 72
     8
 73
     4
 74
     0
 42
0.000000001
 43
0.00000001
 40
0.0
 40
0.0
 40
0.0
 40
0.0
 40
1.0
 40
1.0
 40
1.0
 40
1.0
 10
410.1998187592779
 20
184.5342385703694
 30
0.0
 10
410.1998187592779
 20
184.3190384327048
 30
0.0
 10
410.1998187593266
 20
184.1004130917153
 30
0.0
 10
410.1998187593266
 20
183.8757071454709
 30
0.0
  0
ARC
  5
40B
330
1F
100
AcDbEntity
  8
0
  6
Continuous
 62
     7
370
    25
100
AcDbCircle
 10
411.3904437593
 20
183.8468309495
 30
0.0
 40
1.190975115307854
100
AcDbArc
 50
121.3893206032
 51
178.6106793968
  0
SPLINE
  5
40C
330
1F
100
AcDbEntity
  8
0
  6
Continuous
 62
     7
370
    25
100
AcDbSpline
210
0.0
220
0.0
230
1.0
 70
    24
 71
     3
 72
     8
 73
     4
 74
     0
 42
0.000000001
 43
0.00000001
 40
0.0
 40
0.0
 40
0.0
 40
0.0
 40
1.0
 40
1.0
 40
1.0
 40
1.0
 10
412.5810687593761
 20
183.1594233286423
 30
0.0
 10
412.5810687593761
 20
183.3746234663061
 30
0.0
 10
412.5810687593266
 20
183.5932488072951
 30
0.0
 10
412.5810687593266
 20
183.8179547535386
 30
0.0
  0
LINE
  5
40D
330
1F
100
AcDbEntity
  8
0
  6
Continuous
 62
     7
370
    25
100
AcDbLine
 10
412.5810687593
 20
183.8179547542
 30
0.0
 11
412.5810687593
 21
183.8757071448
 31
0.0
  0
SPLINE
  5
40E
330
1F
100
AcDbEntity
  8
0
  6
Continuous
 62
   144
370
    18
100
AcDbSpline
210
0.0
220
0.0
230
1.0
 70
    24
 71
     3
 72
     8
 73
     4
 74
     0
 42
0.000000001
 43
0.00000001
 40
0.0
 40
0.0
 40
0.0
 40
0.0
 40
1.0
 40
1.0
 40
1.0
 40
1.0
 10
412.5810687593251
 20
183.8757071454706
 30
0.0
 10
412.5810687593251
 20
184.1004130917218
 30
0.0
 10
412.5810687593266
 20
184.3190384327116
 30
0.0
 10
412.5810687593266
 20
184.5342385703795
 30
0.0
  0
ARC
  5
40F
330
1F
100
AcDbEntity
  8
0
  6
Continuous
 62
     7
370
    25
100
AcDbCircle
 10
411.3904437593
 20
183.8468309495
 30
0.0
 40
1.190975115307852
100
AcDbArc
 50
301.3893206032
 51
358.6106793968
  0
SPLINE
  5
410
330
1F
100
AcDbEntity
  8
0
  6
Continuous
 62
     7
370
    25
100
AcDbSpline
210
0.0
220
0.0
230
1.0
 70
    24
 71
     3
 72
     8
 73
     4
 74
     0
 42
0.000000001
 43
0.00000001
 40
0.0
 40
0.0
 40
0.0
 40
0.0
 40
1.0
 40
1.0
 40
1.0
 40
1.0
 10
410.1998187593281
 20
183.8179547535389
 30
0.0
 10
410.1998187593281
 20
183.5932487885623
 30
0.0
 10
410.1998187593266
 20
183.3746234261448
 30
0.0
 10
410.1998187593266
 20
183.1594232717578
 30
0.0
  0
ARC
  5
411
330
1F
100
AcDbEntity
  8
0
  6
Continuous
 62
     7
370
    25
100
AcDbCircle
 10
411.3904437593
 20
183.8468309495
 30
0.0
 40
1.190975115307855
100
AcDbArc
 50
181.3893206032
 51
238.6106793968
  0
LINE
  5
412
330
1F
100
AcDbEntity
  8
0
  6
Continuous
 62
     7
370
    25
100
AcDbLine
 10
410.1998187593
 20
183.8757071448
 30
0.0
 11
410.1998187593
 21
183.8179547542
 31
0.0
  0
CIRCLE
  5
413
330
1F
100
AcDbEntity
  8
0
  6
Continuous
 62
     7
370
    25
100
AcDbCircle
 10
411.3904437593
 20
183.8468309495
 30
0.0
 40
0.5048249999999932
  0
ARC
  5
414
330
1F
100
AcDbEntity
  8
0
  6
Continuous
 62
   144
370
    18
100
AcDbCircle
 10
411.3904437593
 20
183.8468309495
 30
0.0
 40
1.190975115307852
100
AcDbArc
 50
1.3893206032
 51
58.6106793968
  0
LINE
  5
415
330
1F
100
AcDbEntity
  8
0
  6
Continuous
 62
     8
370
    25
100
AcDbLine
 10
413.6764437593
 20
170.5837942825
 30
0.0
 11
413.8923437593
 21
170.5837942825
 31
0.0
  0
SPLINE
  5
416
330
1F
100
AcDbEntity
  8
0
  6
Continuous
 62
     8
370
    25
100
AcDbSpline
210
0.0
220
0.0
230
1.0
 70
     8
 71
     3
 72
    10
 73
     6
 74
     0
 42
0.000000001
 43
0.00000001
 40
0.0
 40
0.0
 40
0.0
 40
0.0
 40
0.2028236509700728
 40
0.6138044117809994
 40
1.0
 40
1.0
 40
1.0
 40
1.0
 10
413.8923437593269
 20
169.7775782251581
 30
0.0
 10
413.8483077366893
 20
169.6905747709638
 30
0.0
 10
413.7150416957567
 20
169.4272765620555
 30
0.0
 10
413.317239449935
 20
169.118053997838
 30
0.0
 10
412.9499133245908
 20
169.0122571803866
 30
0.0
 10
412.7719605676906
 20
168.9610034468845
 30
0.0
  0
LINE
  5
417
330
1F
100
AcDbEntity
  8
0
  6
Continuous
 62
     8
370
    25
100
AcDbLine
 10
412.7719605677
 20
182.0702584521
 30
0.0
 11
413.2880082974
 21
181.8856299264
 31
0.0
  0
LINE
  5
418
330
1F
100
AcDbEntity
  8
0
  6
Continuous
 62
     8
370
    25
100
AcDbLine
 10
413.8895341276
 20
180.4474676165
 30
0.0
 11
413.6764437593
 21
180.4474676165
 31
0.0
  0
LINE
  5
419
330
1F
100
AcDbEntity
  8
0
  6
Continuous
 62
     8
370
    25
100
AcDbLine
 10
410.5018186209
 20
169.0249692186
 30
0.0
 11
410.5131337076
 21
168.9607981731
 31
0.0
  0
SPLINE
  5
41A
330
1F
100
AcDbEntity
  8
0
  6
Continuous
 62
     8
370
    25
100
AcDbSpline
210
0.0
220
0.0
230
1.0
 70
     8
 71
     3
 72
    12
 73
     8
 74
     0
 42
0.000000001
 43
0.00000001
 40
0.0
 40
0.0
 40
0.0
 40
0.0
 40
0.116286816683727
 40
0.3693417304757236
 40
0.6163982323929297
 40
0.8634547343101338
 40
1.0
 40
1.0
 40
1.0
 40
1.0
 10
410.0335230881211
 20
168.5806638487518
 30
0.0
 10
409.9781966688859
 20
168.5874163194058
 30
0.0
 10
409.8024729195897
 20
168.6088630256403
 30
0.0
 10
409.52665476628
 20
168.7272842139201
 30
0.0
 10
409.2295492382157
 20
168.9258818901642
 30
0.0
 10
409.01102878281
 20
169.1410773897189
 30
0.0
 10
408.9206976485233
 20
169.301278027428
 30
0.0
 10
408.8885437593268
 20
169.3583023700845
 30
0.0
  0
LINE
  5
41B
330
1F
100
AcDbEntity
  8
0
  6
Continuous
 62
     8
370
    25
100
AcDbLine
 10
410.5018186209
 20
182.0062926804
 30
0.0
 11
410.5131337076
 21
182.0704637259
 31
0.0
  0
LINE
  5
41C
330
1F
100
AcDbEntity
  8
0
  6
Continuous
 62
     8
370
    25
100
AcDbLine
 10
412.7719605677
 20
168.9610034469
 30
0.0
 11
412.3917663562
 21
168.8939649495
 31
0.0
  0
LINE
  5
41D
330
1F
100
AcDbEntity
  8
0
  6
Continuous
 62
     8
370
    25
100
AcDbLine
 10
412.3917663562
 20
182.1372969495
 30
0.0
 11
412.7719605677
 21
182.0702584521
 31
0.0
  0
LINE
  5
41E
330
1F
100
AcDbEntity
  8
0
  6
Continuous
 62
     8
370
    25
100
AcDbLine
 10
401.6876437593
 20
185.5486309495
 30
0.0
 11
401.6876437593
 21
140.3239309496
 31
0.0
  0
LINE
  5
41F
330
1F
100
AcDbEntity
  8
0
  6
Continuous
 62
     8
370
    25
100
AcDbLine
 10
417.1689437593
 20
185.5613309495
 30
0.0
 11
412.383239403
 21
185.5613309495
 31
0.0
  0
LINE
  5
420
330
1F
100
AcDbEntity
  8
0
  6
Continuous
 62
     8
370
    25
100
AcDbLine
 10
410.4139610522
 20
185.5613309495
 30
0.0
 11
401.6876437593
 21
185.5613309495
 31
0.0
  0
LINE
  5
421
330
1F
100
AcDbEntity
  8
0
  6
Continuous
 62
     8
370
    25
100
AcDbLine
 10
417.1689437593
 20
138.2270233765
 30
0.0
 11
417.1689437593
 21
138.2411309495
 31
0.0
  0
LINE
  5
422
330
1F
100
AcDbEntity
  8
0
  6
Continuous
 62
     8
370
    25
100
AcDbLine
 10
417.1689437593
 20
140.3239309496
 30
0.0
 11
417.1689437593
 21
185.5486309495
 31
0.0
  0
LINE
  5
423
330
1F
100
AcDbEntity
  8
0
  6
Continuous
 62
     8
370
    25
100
AcDbLine
 10
415.9116437593
 20
156.1481309495
 30
0.0
 11
402.9576437593
 21
156.1481309495
 31
0.0
  0
LINE
  5
424
330
1F
100
AcDbEntity
  8
0
  6
Continuous
 62
     7
370
    25
100
AcDbLine
 10
101.3028541374
 20
138.7110309495
 30
0.0
 11
101.2850700755
 21
138.7110309495
 31
0.0
  0
LINE
  5
425
330
1F
100
AcDbEntity
  8
0
  6
Continuous
 62
     7
370
    25
100
AcDbLine
 10
101.2850700755
 20
136.9584309495
 30
0.0
 11
101.3028541374
 21
136.9584309495
 31
0.0
  0
SPLINE
  5
426
330
1F
100
AcDbEntity
  8
0
  6
Continuous
 62
     7
370
    25
100
AcDbSpline
210
0.0
220
0.0
230
1.0
 70
    24
 71
     3
 72
     8
 73
     4
 74
     0
 42
0.000000001
 43
0.00000001
 40
0.0
 40
0.0
 40
0.0
 40
0.0
 40
1.0
 40
1.0
 40
1.0
 40
1.0
 10
84.22897007548893
 20
185.5613309495052
 30
0.0
 10
84.22897007548893
 20
185.5570977064853
 30
0.0
 10
84.22897007548893
 20
185.5528643279954
 30
0.0
 10
84.22897007548893
 20
185.5486309495052
 30
0.0
  0
LINE
  5
427
330
1F
100
AcDbEntity
  8
0
  6
Continuous
 62
     7
370
    25
100
AcDbLine
 10
99.6975700755
 20
185.5613309495
 30
0.0
 11
84.2289700755
 21
185.5613309495
 31
0.0
  0
LINE
  5
428
330
1F
100
AcDbEntity
  8
0
  6
Continuous
 62
     7
370
    25
100
AcDbLine
 10
99.6975700755
 20
185.5613309495
 30
0.0
 11
99.7102700755
 21
185.5613309495
 31
0.0
  0
LINE
  5
429
330
1F
100
AcDbEntity
  8
0
  6
Continuous
 62
     7
370
    25
100
AcDbLine
 10
99.7102700755
 20
185.5613309495
 30
0.0
 11
99.7102700755
 21
185.5486309495
 31
0.0
  0
LINE
  5
42A
330
1F
100
AcDbEntity
  8
0
  6
Continuous
 62
     7
370
    25
100
AcDbLine
 10
99.7102700755
 20
136.3361309495
 30
0.0
 11
99.7102700755
 21
185.5486309495
 31
0.0
  0
LINE
  5
42B
330
1F
100
AcDbEntity
  8
0
  6
Continuous
 62
     7
370
    25
100
AcDbLine
 10
84.2162700755
 20
185.5486309495
 30
0.0
 11
84.2289700755
 21
185.5486309495
 31
0.0
  0
LINE
  5
42C
330
1F
100
AcDbEntity
  8
0
  6
Continuous
 62
     7
370
    25
100
AcDbLine
 10
101.2850700755
 20
185.5486309495
 30
0.0
 11
99.7102700755
 21
185.5486309495
 31
0.0
  0
LINE
  5
42D
330
1F
100
AcDbEntity
  8
0
  6
Continuous
 62
     7
370
    25
100
AcDbLine
 10
101.2850700755
 20
136.3770742813
 30
0.0
 11
101.2850700755
 21
185.5486309495
 31
0.0
  0
LINE
  5
42E
330
1F
100
AcDbEntity
  8
0
  6
Continuous
 62
     7
370
    25
100
AcDbLine
 10
84.2162700755
 20
185.5486309495
 30
0.0
 11
84.2162700759
 21
187.1361309495
 31
0.0
  0
LINE
  5
42F
330
1F
100
AcDbEntity
  8
0
  6
Continuous
 62
     7
370
    25
100
AcDbLine
 10
99.6975700755
 20
187.1361309495
 30
0.0
 11
84.2162700755
 21
187.1361309495
 31
0.0
  0
LINE
  5
430
330
1F
100
AcDbEntity
  8
0
  6
Continuous
 62
     7
370
    25
100
AcDbLine
 10
99.6975700755
 20
185.5613309495
 30
0.0
 11
99.6975700755
 21
187.1361309495
 31
0.0
  0
ARC
  5
431
330
1F
100
AcDbEntity
  8
0
  6
Continuous
 62
     7
370
    25
100
AcDbCircle
 10
99.6975700755
 20
185.5486309495
 30
0.0
 40
1.587500000000006
100
AcDbArc
 50
0.0
 51
90.0
  0
LINE
  5
432
330
1F
100
AcDbEntity
  8
0
  6
Continuous
 62
     7
370
    25
100
AcDbLine
 10
82.6287700755
 20
136.3770742813
 30
0.0
 11
82.6287700755
 21
185.5486309495
 31
0.0
  0
LINE
  5
433
330
1F
100
AcDbEntity
  8
0
  6
Continuous
 62
     7
370
    25
100
AcDbLine
 10
84.2162700755
 20
185.5486309495
 30
0.0
 11
82.6287700755
 21
185.5486309495
 31
0.0
  0
ARC
  5
434
330
1F
100
AcDbEntity
  8
0
  6
Continuous
 62
     7
370
    25
100
AcDbCircle
 10
84.2162700755
 20
185.5486309495
 30
0.0
 40
1.587500000000006
100
AcDbArc
 50
90.0
 51
180.0
  0
SPLINE
  5
435
330
1F
100
AcDbEntity
  8
0
  6
Continuous
 62
     7
370
    25
100
AcDbSpline
210
0.0
220
0.0
230
1.0
 70
    24
 71
     3
 72
     8
 73
     4
 74
     0
 42
0.000000001
 43
0.00000001
 40
0.0
 40
0.0
 40
0.0
 40
0.0
 40
1.0
 40
1.0
 40
1.0
 40
1.0
 10
84.20357048189557
 20
187.1360293495052
 30
0.0
 10
84.20357019903513
 20
187.1360647059299
 30
0.0
 10
84.20357007548907
 20
187.1360801486923
 30
0.0
 10
84.20357007548907
 20
187.1360801486923
 30
0.0
  0
SPLINE
  5
436
330
1F
100
AcDbEntity
  8
0
  6
Continuous
 62
     7
370
    25
100
AcDbSpline
210
0.0
220
0.0
230
1.0
 70
    11
 71
     3
 72
    22
 73
    18
 74
     0
 42
0.000000001
 43
0.00000001
 40
0.0
 40
0.0
 40
0.0
 40
0.0
 40
0.125
 40
0.125
 40
0.25
 40
0.25
 40
0.375
 40
0.375
 40
0.5
 40
0.5
 40
0.625
 40
0.625
 40
0.75
 40
0.75
 40
0.875
 40
0.875
 40
1.0
 40
1.0
 40
1.0
 40
1.0
 10
92.56969507548925
 20
155.2337309495052
 30
0.0
 10
92.56969507548925
 20
154.9179665029302
 30
0.0
 10
92.44424826827027
 20
154.6151111195857
 30
0.0
 10
91.99768990540869
 20
154.1685527567242
 30
0.0
 10
91.69483452206424
 20
154.0431059495052
 30
0.0
 10
91.06330562891425
 20
154.0431059495052
 30
0.0
 10
90.76045024556981
 20
154.1685527567242
 30
0.0
 10
90.31389188270822
 20
154.6151111195857
 30
0.0
 10
90.18844507548924
 20
154.9179665029302
 30
0.0
 10
90.18844507548924
 20
155.5494953960802
 30
0.0
 10
90.31389188270822
 20
155.8523507794246
 30
0.0
 10
90.76045024556981
 20
156.2989091422862
 30
0.0
 10
91.06330562891425
 20
156.4243559495052
 30
0.0
 10
91.69483452206424
 20
156.4243559495052
 30
0.0
 10
91.99768990540869
 20
156.2989091422862
 30
0.0
 10
92.44424826827029
 20
155.8523507794246
 30
0.0
 10
92.56969507548925
 20
155.5494953960802
 30
0.0
 10
92.56969507548925
 20
155.2337309495052
 30
0.0
  0
CIRCLE
  5
437
330
1F
100
AcDbEntity
  8
0
  6
Continuous
 62
   144
370
    18
100
AcDbCircle
 10
91.3790700755
 20
155.2337309495
 30
0.0
 40
1.587500000000006
  0
CIRCLE
  5
438
330
1F
100
AcDbEntity
  8
0
  6
Continuous
 62
   144
370
    18
100
AcDbCircle
 10
104.5117625109
 20
130.2246742813
 30
0.0
 40
1.210309999999993
  0
CIRCLE
  5
439
330
1F
100
AcDbEntity
  8
0
  6
Continuous
 62
   144
370
    18
100
AcDbCircle
 10
104.4981700755
 20
105.1158818459
 30
0.0
 40
1.210310000000007
  0
CIRCLE
  5
43A
330
1F
100
AcDbEntity
  8
0
  6
Continuous
 62
   144
370
    18
100
AcDbCircle
 10
79.3893776401
 20
105.1294742813
 30
0.0
 40
1.210309999999993
  0
CIRCLE
  5
43B
330
1F
100
AcDbEntity
  8
0
  6
Continuous
 62
   144
370
    18
100
AcDbCircle
 10
79.4029700755
 20
130.2382667167
 30
0.0
 40
1.210310000000021
  0
ARC
  5
43C
330
1F
100
AcDbEntity
  8
0
  6
Continuous
 62
   144
370
    18
100
AcDbCircle
 10
104.4981700755
 20
130.2382667167
 30
0.0
 40
1.210310000000021
100
AcDbArc
 50
270.0
 51
44.544998589
  0
ARC
  5
43D
330
1F
100
AcDbEntity
  8
0
  6
Continuous
 62
   144
370
    18
100
AcDbCircle
 10
104.4981700755
 20
130.2382667167
 30
0.0
 40
1.210310000000021
100
AcDbArc
 50
225.4550014346
 51
270.0
  0
ARC
  5
43E
330
1F
100
AcDbEntity
  8
0
  6
Continuous
 62
   144
370
    18
100
AcDbCircle
 10
79.3893776401
 20
130.2246742813
 30
0.0
 40
1.210310000000002
100
AcDbArc
 50
315.4550016024
 51
134.5449983731
  0
ARC
  5
43F
330
1F
100
AcDbEntity
  8
0
  6
Continuous
 62
   144
370
    18
100
AcDbCircle
 10
79.4029700755
 20
105.1158818459
 30
0.0
 40
1.210310000000002
100
AcDbArc
 50
45.4550014969
 51
224.5449985168
  0
ARC
  5
440
330
1F
100
AcDbEntity
  8
0
  6
Continuous
 62
   144
370
    18
100
AcDbCircle
 10
104.5117625109
 20
105.1294742813
 30
0.0
 40
1.210309999999993
100
AcDbArc
 50
270.0
 51
314.5449985515
  0
ARC
  5
441
330
1F
100
AcDbEntity
  8
0
  6
Continuous
 62
   144
370
    18
100
AcDbCircle
 10
104.5117625109
 20
105.1294742813
 30
0.0
 40
1.210310000000004
100
AcDbArc
 50
135.4550014733
 51
270.0
  0
SPLINE
  5
442
330
1F
100
AcDbEntity
  8
0
  6
Continuous
 62
     7
370
    25
100
AcDbSpline
210
0.0
220
0.0
230
1.0
 70
    11
 71
     3
 72
    22
 73
    18
 74
     0
 42
0.000000001
 43
0.00000001
 40
0.0
 40
0.0
 40
0.0
 40
0.0
 40
0.125
 40
0.125
 40
0.25
 40
0.25
 40
0.375
 40
0.375
 40
0.5
 40
0.5
 40
0.625
 40
0.625
 40
0.75
 40
0.75
 40
0.875
 40
0.875
 40
1.0
 40
1.0
 40
1.0
 40
1.0
 10
92.5696950754893
 20
163.3363309495052
 30
0.0
 10
92.5696950754893
 20
163.0205665029302
 30
0.0
 10
92.44424826827033
 20
162.7177111195858
 30
0.0
 10
91.99768990540873
 20
162.2711527567241
 30
0.0
 10
91.6948345220643
 20
162.1457059495052
 30
0.0
 10
91.06330562891429
 20
162.1457059495052
 30
0.0
 10
90.76045024556986
 20
162.2711527567241
 30
0.0
 10
90.31389188270826
 20
162.7177111195858
 30
0.0
 10
90.1884450754893
 20
163.0205665029302
 30
0.0
 10
90.1884450754893
 20
163.6520953960802
 30
0.0
 10
90.31389188270826
 20
163.9549507794246
 30
0.0
 10
90.76045024556986
 20
164.4015091422862
 30
0.0
 10
91.06330562891429
 20
164.5269559495052
 30
0.0
 10
91.6948345220643
 20
164.5269559495052
 30
0.0
 10
91.99768990540873
 20
164.4015091422862
 30
0.0
 10
92.44424826827033
 20
163.9549507794246
 30
0.0
 10
92.5696950754893
 20
163.6520953960802
 30
0.0
 10
92.5696950754893
 20
163.3363309495052
 30
0.0
  0
CIRCLE
  5
443
330
1F
100
AcDbEntity
  8
0
  6
Continuous
 62
   144
370
    18
100
AcDbCircle
 10
91.3790700755
 20
163.3363309495
 30
0.0
 40
1.587499999999991
  0
LWPOLYLINE
  5
444
330
1F
100
AcDbEntity
  8
0
  6
Continuous
 62
   144
370
    18
100
AcDbPolyline
 90
        3
 70
   128
 43
0.0
 10
92.178032122
 20
123.947944094
 10
91.9505700755
 20
123.9270742813
 10
91.723108029
 20
123.947944094
  0
CIRCLE
  5
445
330
1F
100
AcDbEntity
  8
0
  6
Continuous
 62
   144
370
    18
100
AcDbCircle
 10
91.9505700755
 20
117.6770742813
 30
0.0
 40
3.0
  0
CIRCLE
  5
446
330
1F
100
AcDbEntity
  8
0
  6
Continuous
 62
     7
370
    25
100
AcDbCircle
 10
79.3994200755
 20
105.1259242813
 30
0.0
 40
2.750000000000014
  0
CIRCLE
  5
447
330
1F
100
AcDbEntity
  8
0
  6
Continuous
 62
     7
370
    25
100
AcDbCircle
 10
104.5017200755
 20
105.1259242813
 30
0.0
 40
2.749999999999986
  0
CIRCLE
  5
448
330
1F
100
AcDbEntity
  8
0
  6
Continuous
 62
     7
370
    25
100
AcDbCircle
 10
79.3994200755
 20
130.2282242813
 30
0.0
 40
2.75
  0
CIRCLE
  5
449
330
1F
100
AcDbEntity
  8
0
  6
Continuous
 62
     7
370
    25
100
AcDbCircle
 10
104.5017200755
 20
130.2282242813
 30
0.0
 40
2.75
  0
CIRCLE
  5
44A
330
1F
100
AcDbEntity
  8
0
  6
Continuous
 62
     7
370
    25
100
AcDbCircle
 10
91.9505700755
 20
117.6770742813
 30
0.0
 40
7.299999999999997
  0
ARC
  5
44B
330
1F
100
AcDbEntity
  8
0
  6
Continuous
 62
     7
370
    25
100
AcDbCircle
 10
91.9505700755
 20
117.6770742813
 30
0.0
 40
20.99999999999996
100
AcDbArc
 50
297.0668541257
 51
62.9331458743
  0
LINE
  5
44C
330
1F
100
AcDbEntity
  8
0
  6
Continuous
 62
     7
370
    25
100
AcDbLine
 10
82.3949434608
 20
98.9770742813
 30
0.0
 11
101.5061966902
 21
98.9770742813
 31
0.0
  0
ARC
  5
44D
330
1F
100
AcDbEntity
  8
0
  6
Continuous
 62
     7
370
    25
100
AcDbCircle
 10
91.9505700755
 20
117.6770742813
 30
0.0
 40
20.99999999999995
100
AcDbArc
 50
117.0668541257
 51
242.9331458743
  0
LINE
  5
44E
330
1F
100
AcDbEntity
  8
0
  6
Continuous
 62
     7
370
    25
100
AcDbLine
 10
101.5061966902
 20
136.3770742813
 30
0.0
 11
82.3949434608
 21
136.3770742813
 31
0.0
  0
CIRCLE
  5
44F
330
1F
100
AcDbEntity
  8
0
  6
Continuous
 62
     7
370
    25
100
AcDbCircle
 10
91.9505700755
 20
117.6770742813
 30
0.0
 40
6.84448864335468
  0
CIRCLE
  5
450
330
1F
100
AcDbEntity
  8
0
  6
Continuous
 62
     7
370
    25
100
AcDbCircle
 10
91.9505700755
 20
117.6770742813
 30
0.0
 40
6.274993800000004
  0
CIRCLE
  5
451
330
1F
100
AcDbEntity
  8
0
  6
Continuous
 62
   144
370
    18
100
AcDbCircle
 10
104.5017200755
 20
105.1259242813
 30
0.0
 40
1.297025000000005
  0
CIRCLE
  5
452
330
1F
100
AcDbEntity
  8
0
  6
Continuous
 62
   144
370
    18
100
AcDbCircle
 10
79.3994200755
 20
105.1259242813
 30
0.0
 40
1.297025000000019
  0
CIRCLE
  5
453
330
1F
100
AcDbEntity
  8
0
  6
Continuous
 62
   144
370
    18
100
AcDbCircle
 10
104.5017200755
 20
130.2282242813
 30
0.0
 40
1.297025000000019
  0
CIRCLE
  5
454
330
1F
100
AcDbEntity
  8
0
  6
Continuous
 62
   144
370
    18
100
AcDbCircle
 10
79.3994200755
 20
130.2282242813
 30
0.0
 40
1.297025000000019
  0
LINE
  5
455
330
1F
100
AcDbEntity
  8
0
  6
Continuous
 62
     8
370
    25
100
AcDbLine
 10
84.2162700755
 20
136.3770742813
 30
0.0
 11
84.2162700755
 21
185.5486309495
 31
0.0
  0
ENDSEC
  0
SECTION
  2
OBJECTS
  0
DICTIONARY
  5
C
330
0
100
AcDbDictionary
281
     1
  3
ACAD_GROUP
350
D
  3
ACAD_LAYOUT
350
1A
  3
ACAD_MLINESTYLE
350
17
  3
ACAD_PLOTSETTINGS
350
19
  3
ACAD_PLOTSTYLENAME
350
E
  3
ACAD_SCALELIST
350
47
  0
DICTIONARY
  5
D
102
{ACAD_REACTORS
330
C
102
}
330
C
100
AcDbDictionary
281
     1
  0
DICTIONARY
  5
1A
102
{ACAD_REACTORS
330
C
102
}
330
C
100
AcDbDictionary
281
     1
  3
Layout1
350
1E
  3
Layout2
350
26
  3
Model
350
22
  0
DICTIONARY
  5
17
102
{ACAD_REACTORS
330
C
102
}
330
C
100
AcDbDictionary
281
     1
  3
Standard
350
18
  0
DICTIONARY
  5
19
102
{ACAD_REACTORS
330
C
102
}
330
C
100
AcDbDictionary
281
     1
  0
ACDBDICTIONARYWDFLT
  5
E
102
{ACAD_REACTORS
330
C
102
}
330
C
100
AcDbDictionary
281
     1
  3
Normal
350
F
100
AcDbDictionaryWithDefault
340
F
  0
DICTIONARY
  5
47
102
{ACAD_REACTORS
330
C
102
}
330
C
100
AcDbDictionary
281
     1
  3
A0
350
48
  3
A1
350
49
  3
A2
350
4A
  3
A3
350
4B
  3
A4
350
4C
  3
A5
350
4D
  3
A6
350
4E
  3
A7
350
4F
  3
A8
350
50
  3
A9
350
51
  3
B0
350
52
  3
B1
350
53
  3
B2
350
54
  3
B3
350
55
  3
B4
350
56
  3
B5
350
57
  3
B6
350
58
  3
B7
350
59
  3
B8
350
5A
  3
B9
350
5B
  3
C0
350
5C
  3
C1
350
5D
  3
C2
350
5E
  3
C3
350
5F
  3
C4
350
60
  3
C5
350
61
  3
C6
350
62
  3
C7
350
63
  3
C8
350
64
  3
C9
350
65
  3
D0
350
66
  3
D1
350
67
  3
D2
350
68
  0
LAYOUT
  5
1E
102
{ACAD_REACTORS
330
1A
102
}
330
1A
100
AcDbPlotSettings
  1

  2
none_device
  4

  6

 40
0.0
 41
0.0
 42
0.0
 43
0.0
 44
0.0
 45
0.0
 46
0.0
 47
0.0
 48
0.0
 49
0.0
140
0.0
141
0.0
142
1.0
143
1.0
 70
   688
 72
     1
 73
     0
 74
     5
  7

 75
    16
147
1.0
148
0.0
149
0.0
100
AcDbLayout
  1
Layout1
 70
     1
 71
     1
 10
0.0
 20
0.0
 11
420.0
 21
297.0
 12
0.0
 22
0.0
 32
0.0
 14
1.0000000000E+20
 24
1.0000000000E+20
 34
1.0000000000E+20
 15
-1.0000000000E+20
 25
-1.0000000000E+20
 35
-1.0000000000E+20
146
0.0
 13
0.0
 23
0.0
 33
0.0
 16
1.0
 26
0.0
 36
0.0
 17
0.0
 27
1.0
 37
0.0
 76
     0
330
1B
  0
LAYOUT
  5
26
102
{ACAD_REACTORS
330
1A
102
}
330
1A
100
AcDbPlotSettings
  1

  2
none_device
  4

  6

 40
0.0
 41
0.0
 42
0.0
 43
0.0
 44
0.0
 45
0.0
 46
0.0
 47
0.0
 48
0.0
 49
0.0
140
0.0
141
0.0
142
1.0
143
1.0
 70
   688
 72
     1
 73
     0
 74
     5
  7

 75
    16
147
1.0
148
0.0
149
0.0
100
AcDbLayout
  1
Layout2
 70
     1
 71
     2
 10
0.0
 20
0.0
 11
0.0
 21
0.0
 12
0.0
 22
0.0
 32
0.0
 14
0.0
 24
0.0
 34
0.0
 15
0.0
 25
0.0
 35
0.0
146
0.0
 13
0.0
 23
0.0
 33
0.0
 16
1.0
 26
0.0
 36
0.0
 17
0.0
 27
1.0
 37
0.0
 76
     0
330
23
  0
LAYOUT
  5
22
102
{ACAD_REACTORS
330
1A
102
}
330
1A
100
AcDbPlotSettings
  1

  2
none_device
  4
Letter_(8.50_x_11.00_Inches)
  6

 40
6.35
 41
6.35
 42
6.35000508
 43
6.35000508
 44
215.9
 45
279.4
 46
0.0
 47
0.0
 48
0.0
 49
0.0
140
0.0
141
0.0
142
1.0
143
1.0
 70
  1712
 72
     1
 73
     0
 74
     0
  7

 75
     0
147
1.0
148
0.0
149
0.0
100
AcDbLayout
  1
Model
 70
     1
 71
     0
 10
0.0
 20
0.0
 11
558.8
 21
431.8
 12
0.0
 22
0.0
 32
0.0
 14
0.0
 24
0.0
 34
0.0
 15
558.8
 25
431.8
 35
0.0
146
0.0
 13
0.0
 23
0.0
 33
0.0
 16
1.0
 26
0.0
 36
0.0
 17
0.0
 27
1.0
 37
0.0
 76
     0
330
1F
331
29
  0
MLINESTYLE
  5
18
102
{ACAD_REACTORS
330
17
102
}
330
17
100
AcDbMlineStyle
  2
Standard
 70
     0
  3

 62
   256
 51
90.0
 52
90.0
 71
     2
 49
0.5
 62
   256
  6
BYLAYER
 49
-0.5
 62
   256
  6
BYLAYER
  0
ACDBPLACEHOLDER
  5
F
102
{ACAD_REACTORS
330
E
102
}
330
E
  0
SCALE
  5
48
102
{ACAD_REACTORS
330
47
102
}
330
47
100
AcDbScale
 70
     0
300
1:1
140
1.0
141
1.0
290
     1
  0
SCALE
  5
49
102
{ACAD_REACTORS
330
47
102
}
330
47
100
AcDbScale
 70
     0
300
1:2
140
1.0
141
2.0
290
     0
  0
SCALE
  5
4A
102
{ACAD_REACTORS
330
47
102
}
330
47
100
AcDbScale
 70
     0
300
1:4
140
1.0
141
4.0
290
     0
  0
SCALE
  5
4B
102
{ACAD_REACTORS
330
47
102
}
330
47
100
AcDbScale
 70
     0
300
1:5
140
1.0
141
5.0
290
     0
  0
SCALE
  5
4C
102
{ACAD_REACTORS
330
47
102
}
330
47
100
AcDbScale
 70
     0
300
1:8
140
1.0
141
8.0
290
     0
  0
SCALE
  5
4D
102
{ACAD_REACTORS
330
47
102
}
330
47
100
AcDbScale
 70
     0
300
1:10
140
1.0
141
10.0
290
     0
  0
SCALE
  5
4E
102
{ACAD_REACTORS
330
47
102
}
330
47
100
AcDbScale
 70
     0
300
1:16
140
1.0
141
16.0
290
     0
  0
SCALE
  5
4F
102
{ACAD_REACTORS
330
47
102
}
330
47
100
AcDbScale
 70
     0
300
1:20
140
1.0
141
20.0
290
     0
  0
SCALE
  5
50
102
{ACAD_REACTORS
330
47
102
}
330
47
100
AcDbScale
 70
     0
300
1:30
140
1.0
141
30.0
290
     0
  0
SCALE
  5
51
102
{ACAD_REACTORS
330
47
102
}
330
47
100
AcDbScale
 70
     0
300
1:40
140
1.0
141
40.0
290
     0
  0
SCALE
  5
52
102
{ACAD_REACTORS
330
47
102
}
330
47
100
AcDbScale
 70
     0
300
1:50
140
1.0
141
50.0
290
     0
  0
SCALE
  5
53
102
{ACAD_REACTORS
330
47
102
}
330
47
100
AcDbScale
 70
     0
300
1:100
140
1.0
141
100.0
290
     0
  0
SCALE
  5
54
102
{ACAD_REACTORS
330
47
102
}
330
47
100
AcDbScale
 70
     0
300
2:1
140
2.0
141
1.0
290
     0
  0
SCALE
  5
55
102
{ACAD_REACTORS
330
47
102
}
330
47
100
AcDbScale
 70
     0
300
4:1
140
4.0
141
1.0
290
     0
  0
SCALE
  5
56
102
{ACAD_REACTORS
330
47
102
}
330
47
100
AcDbScale
 70
     0
300
8:1
140
8.0
141
1.0
290
     0
  0
SCALE
  5
57
102
{ACAD_REACTORS
330
47
102
}
330
47
100
AcDbScale
 70
     0
300
10:1
140
10.0
141
1.0
290
     0
  0
SCALE
  5
58
102
{ACAD_REACTORS
330
47
102
}
330
47
100
AcDbScale
 70
     0
300
100:1
140
100.0
141
1.0
290
     0
  0
SCALE
  5
59
102
{ACAD_REACTORS
330
47
102
}
330
47
100
AcDbScale
 70
     0
300
1/128" = 1'-0"
140
0.0078125
141
12.0
290
     0
  0
SCALE
  5
5A
102
{ACAD_REACTORS
330
47
102
}
330
47
100
AcDbScale
 70
     0
300
1/64" = 1'-0"
140
0.015625
141
12.0
290
     0
  0
SCALE
  5
5B
102
{ACAD_REACTORS
330
47
102
}
330
47
100
AcDbScale
 70
     0
300
1/32" = 1'-0"
140
0.03125
141
12.0
290
     0
  0
SCALE
  5
5C
102
{ACAD_REACTORS
330
47
102
}
330
47
100
AcDbScale
 70
     0
300
1/16" = 1'-0"
140
0.0625
141
12.0
290
     0
  0
SCALE
  5
5D
102
{ACAD_REACTORS
330
47
102
}
330
47
100
AcDbScale
 70
     0
300
3/32" = 1'-0"
140
0.09375
141
12.0
290
     0
  0
SCALE
  5
5E
102
{ACAD_REACTORS
330
47
102
}
330
47
100
AcDbScale
 70
     0
300
1/8" = 1'-0"
140
0.125
141
12.0
290
     0
  0
SCALE
  5
5F
102
{ACAD_REACTORS
330
47
102
}
330
47
100
AcDbScale
 70
     0
300
3/16" = 1'-0"
140
0.1875
141
12.0
290
     0
  0
SCALE
  5
60
102
{ACAD_REACTORS
330
47
102
}
330
47
100
AcDbScale
 70
     0
300
1/4" = 1'-0"
140
0.25
141
12.0
290
     0
  0
SCALE
  5
61
102
{ACAD_REACTORS
330
47
102
}
330
47
100
AcDbScale
 70
     0
300
3/8" = 1'-0"
140
0.375
141
12.0
290
     0
  0
SCALE
  5
62
102
{ACAD_REACTORS
330
47
102
}
330
47
100
AcDbScale
 70
     0
300
1/2" = 1'-0"
140
0.5
141
12.0
290
     0
  0
SCALE
  5
63
102
{ACAD_REACTORS
330
47
102
}
330
47
100
AcDbScale
 70
     0
300
3/4" = 1'-0"
140
0.75
141
12.0
290
     0
  0
SCALE
  5
64
102
{ACAD_REACTORS
330
47
102
}
330
47
100
AcDbScale
 70
     0
300
1" = 1'-0"
140
1.0
141
12.0
290
     0
  0
SCALE
  5
65
102
{ACAD_REACTORS
330
47
102
}
330
47
100
AcDbScale
 70
     0
300
1-1/2" = 1'-0"
140
1.5
141
12.0
290
     0
  0
SCALE
  5
66
102
{ACAD_REACTORS
330
47
102
}
330
47
100
AcDbScale
 70
     0
300
3" = 1'-0"
140
3.0
141
12.0
290
     0
  0
SCALE
  5
67
102
{ACAD_REACTORS
330
47
102
}
330
47
100
AcDbScale
 70
     0
300
6" = 1'-0"
140
6.0
141
12.0
290
     0
  0
SCALE
  5
68
102
{ACAD_REACTORS
330
47
102
}
330
47
100
AcDbScale
 70
     0
300
1'-0" = 1'-0"
140
12.0
141
12.0
290
     0
  0
ENDSEC
  0
EOF
